  0
SECTION
  2
HEADER
  9
$ACADVER
  1
AC1009
  9
$INSBASE
 10
0.0
 20
0.0
 30
0.0
  9
$EXTMIN
 10
2247.228778859766
 20
-765.99096882970787
 30
0.0
  9
$EXTMAX
 10
2478.9536515614091
 20
-565.58405685456171
 30
0.0
  9
$LIMMIN
 10
0.0
 20
0.0
  9
$LIMMAX
 10
12.0
 20
9.0
  9
$ORTHOMODE
 70
     0
  9
$REGENMODE
 70
     1
  9
$FILLMODE
 70
     1
  9
$QTEXTMODE
 70
     0
  9
$MIRRTEXT
 70
     0
  9
$DRAGMODE
 70
     2
  9
$LTSCALE
 40
0.5
  9
$OSMODE
 70
  2048
  9
$ATTMODE
 70
     1
  9
$TEXTSIZE
 40
12.0
  9
$TRACEWID
 40
0.05
  9
$TEXTSTYLE
  7
STANDARD
  9
$CLAYER
  8
1TEXT
  9
$CELTYPE
  6
BYLAYER
  9
$CECOLOR
 62
   256
  9
$DIMSCALE
 40
2.0
  9
$DIMASZ
 40
2.0
  9
$DIMEXO
 40
0.0
  9
$DIMDLI
 40
7.0
  9
$DIMRND
 40
0.0
  9
$DIMDLE
 40
0.0
  9
$DIMEXE
 40
1.0
  9
$DIMTP
 40
0.0
  9
$DIMTM
 40
0.0
  9
$DIMTXT
 40
3.5
  9
$DIMCEN
 40
0.0
  9
$DIMTSZ
 40
0.0
  9
$DIMTOL
 70
     0
  9
$DIMLIM
 70
     0
  9
$DIMTIH
 70
     0
  9
$DIMTOH
 70
     0
  9
$DIMSE1
 70
     0
  9
$DIMSE2
 70
     0
  9
$DIMTAD
 70
     1
  9
$DIMZIN
 70
     8
  9
$DIMBLK
  1

  9
$DIMASO
 70
     1
  9
$DIMSHO
 70
     1
  9
$DIMPOST
  1
 
  9
$DIMAPOST
  1

  9
$DIMALT
 70
     0
  9
$DIMALTD
 70
     2
  9
$DIMALTF
 40
25.399999999999999
  9
$DIMLFAC
 40
1.0
  9
$DIMTOFL
 70
     1
  9
$DIMTVP
 40
0.0
  9
$DIMTIX
 70
     0
  9
$DIMSOXD
 70
     0
  9
$DIMSAH
 70
     1
  9
$DIMBLK1
  1
OPEN30
  9
$DIMBLK2
  1
OPEN30
  9
$DIMSTYLE
  2
NEWX10
  9
$DIMCLRD
 70
   256
  9
$DIMCLRE
 70
   256
  9
$DIMCLRT
 70
   201
  9
$DIMTFAC
 40
0.7
  9
$DIMGAP
 40
0.7
  9
$LUNITS
 70
     2
  9
$LUPREC
 70
     4
  9
$SKETCHINC
 40
0.1
  9
$FILLETRAD
 40
0.0
  9
$AUNITS
 70
     0
  9
$AUPREC
 70
     2
  9
$MENU
  1
acad
  9
$ELEVATION
 40
0.0
  9
$PELEVATION
 40
0.0
  9
$THICKNESS
 40
0.0
  9
$LIMCHECK
 70
     0
  9
$BLIPMODE
 70
     0
  9
$CHAMFERA
 40
0.0
  9
$CHAMFERB
 40
0.0
  9
$SKPOLY
 70
     0
  9
$TDCREATE
 40
2448750.4870892358
  9
$TDUPDATE
 40
2457042.381577685
  9
$TDINDWG
 40
1.5642686574
  9
$TDUSRTIMER
 40
1.5642686574
  9
$USRTIMER
 70
     1
  9
$ANGBASE
 50
0.0
  9
$ANGDIR
 70
     0
  9
$PDMODE
 70
     0
  9
$PDSIZE
 40
0.0
  9
$PLINEWID
 40
1.0
  9
$COORDS
 70
     0
  9
$SPLFRAME
 70
     0
  9
$SPLINETYPE
 70
     6
  9
$SPLINESEGS
 70
     8
  9
$ATTDIA
 70
     0
  9
$ATTREQ
 70
     1
  9
$HANDLING
 70
     1
  9
$HANDSEED
  5
EDF5
  9
$SURFTAB1
 70
     6
  9
$SURFTAB2
 70
     6
  9
$SURFTYPE
 70
     6
  9
$SURFU
 70
     6
  9
$SURFV
 70
     6
  9
$UCSNAME
  2

  9
$UCSORG
 10
0.0
 20
0.0
 30
0.0
  9
$UCSXDIR
 10
1.0
 20
0.0
 30
0.0
  9
$UCSYDIR
 10
0.0
 20
1.0
 30
0.0
  9
$PUCSNAME
  2

  9
$PUCSORG
 10
0.0
 20
0.0
 30
0.0
  9
$PUCSXDIR
 10
1.0
 20
0.0
 30
0.0
  9
$PUCSYDIR
 10
0.0
 20
1.0
 30
0.0
  9
$USERI1
 70
     0
  9
$USERI2
 70
     0
  9
$USERI3
 70
     0
  9
$USERI4
 70
     0
  9
$USERI5
 70
     0
  9
$USERR1
 40
0.0
  9
$USERR2
 40
0.0
  9
$USERR3
 40
0.0
  9
$USERR4
 40
0.0
  9
$USERR5
 40
0.0
  9
$WORLDVIEW
 70
     1
  9
$SHADEDGE
 70
     3
  9
$SHADEDIF
 70
    70
  9
$TILEMODE
 70
     1
  9
$MAXACTVP
 70
    16
  9
$PLIMCHECK
 70
     0
  9
$PEXTMIN
 10
1.0000000000000000E+020
 20
1.0000000000000000E+020
 30
1.0000000000000000E+020
  9
$PEXTMAX
 10
-1.0000000000000000E+020
 20
-1.0000000000000000E+020
 30
-1.0000000000000000E+020
  9
$PLIMMIN
 10
-220.1847950731335
 20
-136.082518103414
  9
$PLIMMAX
 10
199.761860200304
 20
160.84347676963279
  9
$UNITMODE
 70
     0
  9
$VISRETAIN
 70
     0
  9
$PLINEGEN
 70
     0
  9
$PSLTSCALE
 70
     1
  0
ENDSEC
  0
SECTION
  2
TABLES
  0
TABLE
  2
VPORT
 70
     1
  0
VPORT
  2
*ACTIVE
 70
     0
 10
0.0
 20
0.0
 11
1.0
 21
1.0
 12
2363.0931387020801
 22
-665.79415219107864
 13
0.0
 23
0.0
 14
1.0
 24
1.0
 15
0.0
 25
0.0
 16
0.0
 26
0.0
 36
1.0
 17
0.0
 27
0.0
 37
0.0
 40
212.559156327409
 41
2.1749379652605461
 42
50.0
 43
0.0
 44
0.0
 50
0.0
 51
0.0
 71
     0
 72
  1000
 73
     1
 74
     1
 75
     0
 76
     0
 77
     0
 78
     0
  0
ENDTAB
  0
TABLE
  2
LTYPE
 70
    14
  0
LTYPE
  2
CONTINUOUS
 70
     0
  3
Solid line
 72
    65
 73
     0
 40
0.0
  0
LTYPE
  2
A3WAKUDAKE|CENTER2
 70
    48
  3
Center (.5x) ___ _ ___ _ ___ _ ___ _ ___ _ ___
 72
    65
 73
     4
 40
28.574999999999999
 49
19.050000000000001
 49
-3.1749999999999989
 49
3.1749999999999989
 49
-3.1749999999999989
  0
LTYPE
  2
XREF1|CENTER2
 70
    48
  3
Center (.5x) ___ _ ___ _ ___ _ ___ _ ___ _ ___
 72
    65
 73
     4
 40
28.574999999999999
 49
19.050000000000001
 49
-3.1749999999999989
 49
3.1749999999999989
 49
-3.1749999999999989
  0
ENDTAB
  0
TABLE
  2
LAYER
 70
    49
  0
LAYER
  2
0
 70
     0
 62
     7
  6
CONTINUOUS
  0
LAYER
  2
1TEXT
 70
     0
 62
     7
  6
CONTINUOUS
  0
LAYER
  2
01
 70
     0
 62
     1
  6
CONTINUOUS
  0
LAYER
  2
A3WAKUDAKE|THICK
 70
    48
 62
     7
  6
CONTINUOUS
  0
LAYER
  2
A3WAKUDAKE|POINT
 70
    48
 62
     7
  6
CONTINUOUS
  0
LAYER
  2
A3WAKUDAKE|1CENTER
 70
    48
 62
     7
  6
CONTINUOUS
  0
LAYER
  2
A3WAKUDAKE|0-6
 70
    48
 62
     7
  6
CONTINUOUS
  0
LAYER
  2
A3WAKUDAKE|1DIM
 70
    48
 62
     7
  6
CONTINUOUS
  0
LAYER
  2
XREF1|1CENTER
 70
    48
 62
     7
  6
CONTINUOUS
  0
ENDTAB
  0
TABLE
  2
STYLE
 70
     8
  0
STYLE
  2
STANDARD
 70
     0
 40
0.0
 41
1.0
 50
0.0
 71
     0
 42
12.0
  3
romans.shx
  4
extfont2.shx
  0
ENDTAB
  0
TABLE
  2
VIEW
 70
     7
  0
ENDTAB
  0
TABLE
  2
UCS
 70
     5
  0
UCS
  2
U
 70
     0
 10
0.0
 20
0.0
 30
0.0
 11
1.0
 21
0.0
 31
0.0
 12
0.0
 22
0.0000000000000002
 32
1.0
  0
UCS
  2
L
 70
     0
 10
0.0
 20
0.0
 30
0.0
 11
-0.0000000000000002
 21
-1.0
 31
0.0000000000000002
 12
0.0
 22
0.0000000000000002
 32
1.0
  0
UCS
  2
R
 70
     0
 10
0.0
 20
0.0
 30
0.0
 11
0.0000000000000003
 21
1.0
 31
-0.0000000000000002
 12
0.0
 22
0.0000000000000002
 32
1.0
  0
UCS
  2
ISOME
 70
     0
 10
0.0
 20
0.0
 30
0.0
 11
0.7071450863198266
 21
-0.7070684729403536
 31
-0.0000383082461947
 12
0.4082704059428735
 22
0.4082704077401152
 32
0.8164744636514736
  0
UCS
  2
PERSPECTIVE
 70
     0
 10
0.0
 20
0.0
 30
0.0
 11
0.8191477691768963
 21
-0.5735823260466403
 31
-0.0004974931557765
 12
0.1584844715982971
 22
0.225502028986108
 32
0.961265575782966
  0
ENDTAB
  0
TABLE
  2
APPID
 70
    25
  0
APPID
  2
ACAD
 70
     0
  0
APPID
  2
CONTENTTABDATA
 70
     0
  0
APPID
  2
CONTENTCURRENTTAB
 70
     0
  0
APPID
  2
CONTENTBLOCKDESCRIPTION
 70
     0
  0
APPID
  2
CONTENTBLOCKICON
 70
     0
  0
APPID
  2
DRAWINGVARIABLESXDATA
 70
     0
  0
APPID
  2
CONTENTLONGBLOCKNAME
 70
     0
  0
APPID
  2
ACAD_MLEADERVER
 70
     0
  0
APPID
  2
ACAD_PSEXT
 70
     0
  0
APPID
  2
ACADANNOTATIVE
 70
     0
  0
APPID
  2
ACDBBLOCKREPETAG
 70
     0
  0
APPID
  2
ACDBDYNAMICBLOCKGUID
 70
     0
  0
APPID
  2
ACAUTHENVIRON
 70
     0
  0
APPID
  2
ACDBDYNAMICBLOCKTRUENAME
 70
     0
  0
APPID
  2
ACAD_EXEMPT_FROM_CAD_STANDARDS
 70
     0
  0
APPID
  2
ACADANNOAV
 70
     0
  0
APPID
  2
ACAD_DSTYLE_DIMRADIAL_EXTENSION
 70
     0
  0
APPID
  2
ACAD_DIMASSOC_CALC_DIMLFAC
 70
     0
  0
APPID
  2
ACAD_DIMASSOC_DIMLFAC
 70
     0
  0
APPID
  2
ACAD_DIMASSOC_OVERRIDDEN_D
 70
     0
  0
APPID
  2
ACAD_NAV_VCDISPLAY
 70
     0
  0
APPID
  2
ACLAYERTOOLS
 70
     0
  0
APPID
  2
GRADIENTCOLOR1ACI
 70
     0
  0
APPID
  2
GRADIENTCOLOR2ACI
 70
     0
  0
APPID
  2
ACAD_SPLINE_DATA
 70
     0
  0
ENDTAB
  0
TABLE
  2
DIMSTYLE
 70
     8
  0
DIMSTYLE
  2
NEWX10
 70
     0
  3
 
  4

  5

  6
OPEN30
  7
OPEN30
 40
1.0
 41
2.0
 42
0.0
 43
7.0
 44
1.0
 45
0.0
 46
0.0
 47
0.0
 48
0.0
140
3.5
141
0.0
142
0.0
143
25.399999999999999
144
1.0
145
0.0
146
0.7
147
0.7
 71
     0
 72
     0
 73
     0
 74
     0
 75
     0
 76
     0
 77
     1
 78
     8
170
     0
171
     2
172
     1
173
     1
174
     0
175
     0
176
   256
177
   256
178
   201
  0
ENDTAB
  0
ENDSEC
  0
SECTION
  2
BLOCKS
  0
BLOCK
  8
0
  2
$MODEL_SPACE
 70
     0
 10
0.0
 20
0.0
 30
0.0
  3
$MODEL_SPACE
  1

  0
ENDBLK
  5
1B
  8
0
  0
BLOCK
 67
     1
  8
0
  2
$PAPER_SPACE
 70
     0
 10
0.0
 20
0.0
 30
0.0
  3
$PAPER_SPACE
  1

  0
ENDBLK
  5
18
 67
     1
  8
0
  0
BLOCK
  8
0
  2
_OPEN30
 70
     0
 10
0.0
 20
0.0
 30
0.0
  3
_OPEN30
  1

  0
LINE
  5
391
  8
0
  6
BYBLOCK
 62
     0
 10
-1.0
 20
0.26794919
 30
0.0
 11
0.0
 21
0.0
 31
0.0
  0
LINE
  5
392
  8
0
  6
BYBLOCK
 62
     0
 10
0.0
 20
0.0
 30
0.0
 11
-1.0
 21
-0.26794919
 31
0.0
  0
LINE
  5
393
  8
0
  6
BYBLOCK
 62
     0
 10
0.0
 20
0.0
 30
0.0
 11
-1.0
 21
0.0
 31
0.0
  0
ENDBLK
  5
394
  8
0
  0
BLOCK
  8
0
  2
A3WAKUDAKE
 70
    36
 10
0.0
 20
0.0
 30
0.0
  3
A3WAKUDAKE
  1
D:\ACLT\FORMAT\A3WAKUdake.dwg
  0
ENDBLK
  5
B8D1
  8
0
  0
BLOCK
  8
0
  2
XREF1
 70
    36
 10
0.0
 20
0.0
 30
0.0
  3
XREF1
  1
D:\ACLT\FORMAT\KAWAJUN(9)図面用.dwg
  0
ENDBLK
  5
ECD2
  8
0
  0
ENDSEC
  0
SECTION
  2
ENTITIES
  0
LINE
  5
DA35
  8
01
 10
2362.867631301327
 20
-625.02475325807382
 30
0.0
 11
2362.867631301327
 21
-645.52183884887506
 31
0.0
  0
LINE
  5
DA36
  8
01
 10
2362.867631301327
 20
-694.15754426219019
 30
0.0
 11
2362.867631301327
 21
-628.97123571477277
 31
0.0
  0
LINE
  5
DA37
  8
01
  6
BYBLOCK
 10
2355.1176313013261
 20
-641.87510577987439
 30
0.0
 11
2355.1176323504001
 21
-653.87510577987439
 31
0.0
  0
LINE
  5
DA38
  8
01
  6
BYBLOCK
 10
2370.6176323503992
 20
-653.87510577987348
 30
0.0
 11
2370.6176313013261
 21
-641.87510577987439
 31
0.0
  0
LINE
  5
DA3A
  8
01
 10
2377.8676394798072
 20
-639.37510250518335
 30
0.0
 11
2377.867639930038
 21
-629.07511227315035
 31
0.0
  0
LINE
  5
DA3B
  8
01
 10
2347.867639930103
 20
-629.0751042040755
 30
0.0
 11
2347.8676394798799
 21
-639.37510119384115
 31
0.0
  0
LINE
  5
DA3C
  8
01
 10
2377.6676394680849
 20
-639.57510249942152
 30
0.0
 11
2377.8676394798072
 21
-639.37510250518335
 31
0.0
  0
LINE
  5
DA3D
  8
01
 10
2347.8676394798799
 20
-639.37510119384115
 30
0.0
 11
2348.0676391928391
 21
-639.57510092428311
 31
0.0
  0
LINE
  5
DA3E
  8
01
 10
2347.867644030252
 20
-641.57510232487027
 30
0.0
 11
2377.8676347371029
 21
-641.57510363622066
 31
0.0
  0
LINE
  5
DA3F
  8
01
 10
2377.667634821546
 20
-639.57510526258181
 30
0.0
 11
2348.0676441206551
 21
-639.57510396872749
 31
0.0
  0
LINE
  5
DA40
  8
01
 10
2377.8676347371029
 20
-641.57510363622066
 30
0.0
 11
2377.8676348157842
 21
-639.77510527430513
 31
0.0
  0
LINE
  5
DA41
  8
01
 10
2347.8676441089342
 20
-639.77510396296293
 30
0.0
 11
2347.867644030252
 21
-641.57510232487027
 31
0.0
  0
LINE
  5
DA42
  8
01
 10
2377.8676348157842
 20
-639.77510527430513
 30
0.0
 11
2377.667634821546
 21
-639.57510526258181
 31
0.0
  0
LINE
  5
DA43
  8
01
 10
2348.0676441206551
 20
-639.57510396872749
 30
0.0
 11
2347.8676441089342
 21
-639.77510396296293
 31
0.0
  0
LINE
  5
DA44
  8
01
 10
2376.3676427363898
 20
-641.87510496028426
 30
0.0
 11
2376.3676427232749
 21
-641.57510357065337
 31
0.0
  0
LINE
  5
DA45
  8
01
 10
2376.3676427363898
 20
-641.87510496028426
 30
0.0
 11
2349.3676264101368
 21
-641.8751061404937
 31
0.0
  0
LINE
  5
DA46
  8
01
 10
2349.3676264101368
 20
-641.8751061404937
 30
0.0
 11
2349.3676263970242
 21
-641.57510239043665
 31
0.0
  0
LINE
  5
DA47
  8
01
 10
2348.0676391928391
 20
-639.57510092428311
 30
0.0
 11
2377.6676394680849
 21
-639.57510249942152
 31
0.0
  0
LINE
  5
DA48
  8
01
 10
2347.867639930103
 20
-629.0751042040755
 30
0.0
 11
2377.8676318609641
 21
-629.07510420407505
 31
0.0
  0
CIRCLE
  5
DA85
  8
01
  6
BYBLOCK
 10
2362.867631301327
 20
-735.71532666101825
 30
0.0
 40
15.0
  0
CIRCLE
  5
DA86
  8
01
  6
BYBLOCK
 10
2362.867631301327
 20
-735.71532666101825
 30
0.0
 40
14.0
  0
LINE
  5
DA87
  8
01
 10
2343.3676313013261
 20
-735.71532666102291
 30
0.0
 11
2382.367631301327
 21
-735.71532666102291
 31
0.0
  0
LINE
  5
DA88
  8
01
 10
2362.867631301327
 20
-755.21532666102291
 30
0.0
 11
2362.867631301327
 21
-716.2153266610228
 31
0.0
  0
LINE
  5
DA89
  8
01
 10
2377.8676399343972
 20
-654.17510630921925
 30
0.0
 11
2377.867641376864
 21
-665.17510404717677
 31
0.0
  0
LINE
  5
DA8A
  8
01
 10
2347.867641376929
 20
-665.17510666982253
 30
0.0
 11
2347.8676399344722
 21
-654.17511024321618
 31
0.0
  0
LINE
  5
DA8B
  8
01
 10
2347.8676399344722
 20
-654.17511024321618
 30
0.0
 11
2377.8676399343972
 21
-654.17510630921925
 31
0.0
  0
LINE
  5
DA8C
  8
01
 10
2376.3676432609191
 20
-653.87510511628795
 30
0.0
 11
2376.3676432740308
 21
-654.17510650591885
 31
0.0
  0
LINE
  5
DA8D
  8
01
 10
2376.3676432609191
 20
-653.87510511628795
 30
0.0
 11
2349.3676269346661
 21
-653.87510629646158
 31
0.0
  0
LINE
  5
DA8E
  8
01
 10
2349.3676269346661
 20
-653.87510629646158
 30
0.0
 11
2349.3676269477792
 21
-654.17511004651851
 31
0.0
  0
LINE
  5
DA8F
  8
01
 10
2347.867641376929
 20
-665.17510666982253
 30
0.0
 11
2377.867641376864
 21
-665.17510404717677
 31
0.0
  0
LINE
  5
DA90
  8
01
 10
2377.8676445240571
 20
-684.1751028542285
 30
0.0
 11
2377.8676450485868
 21
-688.17510285422338
 31
0.0
  0
LINE
  5
DA91
  8
01
 10
2347.8676450486519
 20
-688.1751054768697
 30
0.0
 11
2347.8676445241231
 21
-684.17510547687471
 31
0.0
  0
LINE
  5
DA92
  8
01
 10
2376.8676451797201
 20
-689.17510294164504
 30
0.0
 11
2348.8676451797851
 21
-689.17510538944805
 31
0.0
  0
LINE
  5
DA93
  8
01
 10
2376.8676451797201
 20
-689.17510294164504
 30
0.0
 11
2377.8676450485868
 21
-688.17510285422338
 31
0.0
  0
LINE
  5
DA94
  8
01
 10
2348.8676451797851
 20
-689.17510538944805
 30
0.0
 11
2347.8676450486519
 21
-688.1751054768697
 31
0.0
  0
LINE
  5
DA95
  8
01
 10
2347.8676445241208
 20
-684.17510547687425
 30
0.0
 11
2377.8676445240549
 21
-684.17510285422804
 31
0.0
  0
LINE
  5
DA96
  8
01
 10
2377.8676450485868
 20
-688.17510285422338
 30
0.0
 11
2347.8676450486519
 21
-688.1751054768697
 31
0.0
  0
ARC
  5
DA97
  8
01
 10
2391.4093073667459
 20
-674.67510120763836
 30
0.0
 40
16.541664481857069
 50
144.94886995789281
 51
215.0511490232291
  0
ARC
  5
DA98
  8
01
 10
2334.3259599216999
 20
-674.67510619795257
 30
0.0
 40
16.541664481857069
 50
324.94886099455181
 51
35.051140059880503
  0
LINE
  5
DB05
  8
01
 10
2348.8676319047509
 20
-628.07510293644498
 30
0.0
 11
2376.8676319046731
 21
-628.07510416036303
 31
0.0
  0
LINE
  5
DB06
  8
01
 10
2377.867639930038
 20
-629.07511227315035
 30
0.0
 11
2376.8676319046731
 21
-628.07510416036303
 31
0.0
  0
LINE
  5
DB07
  8
01
 10
2348.8676319047509
 20
-628.07510293644498
 30
0.0
 11
2347.8676318610369
 21
-629.07510289273296
 31
0.0
  0
LINE
  5
DC4B
  8
01
 10
2426.574335485187
 20
-641.87510555038898
 30
0.0
 11
2300.6253941547279
 21
-641.87510555038898
 31
0.0
  0
LINE
  5
DC4C
  8
01
 10
2426.5743354851861
 20
-653.87510511627033
 30
0.0
 11
2300.6253941547279
 21
-653.87510511627033
 31
0.0
  0
LINE
  5
DC4F
  8
01
 10
2369.8676313013279
 20
-634.5750029789773
 30
0.0
 11
2369.8676313013279
 21
-635.77500995924424
 31
0.0
  0
LINE
  5
DC50
  8
01
 10
2359.4426313013269
 20
-638.0750099592475
 30
0.0
 11
2359.4426313013269
 21
-670.7750099592447
 31
0.0
  0
LINE
  5
DC51
  8
01
 10
2366.292631301329
 20
-638.07500995924715
 30
0.0
 11
2366.292631301329
 21
-670.77500995924458
 31
0.0
  0
LINE
  5
DC52
  8
01
 10
2358.8676313013252
 20
-638.0750099592475
 30
0.0
 11
2358.8676313013279
 21
-670.20000995924522
 31
0.0
  0
LINE
  5
DC53
  8
01
 10
2366.8676313013279
 20
-638.07500995924715
 30
0.0
 11
2366.8676313013279
 21
-670.20000995924488
 31
0.0
  0
ARC
  5
DC54
  8
01
 10
2365.867631301327
 20
-634.5750029789773
 30
0.0
 40
4.0
 50
0.0
 51
90.000133315420825
  0
LINE
  5
DC55
  8
01
 10
2359.8676219941481
 20
-630.57501693975735
 30
0.0
 11
2365.8676219941481
 21
-630.57500297898821
 31
0.0
  0
ARC
  5
DC56
  8
01
 10
2359.8676313013279
 20
-634.57501693974643
 30
0.0
 40
4.0
 50
90.000133315420825
 51
180.0
  0
LINE
  5
DC57
  8
01
 10
2355.8676313013279
 20
-634.57501693974643
 30
0.0
 11
2355.8676313013279
 21
-635.77500995924424
 31
0.0
  0
LINE
  5
DC58
  8
01
 10
2356.4676816488009
 20
-638.07500995924715
 30
0.0
 11
2356.467681648799
 21
-635.77500995924424
 31
0.0
  0
LINE
  5
DC59
  8
01
 10
2369.2676816488001
 20
-635.77500995924424
 30
0.0
 11
2369.2676816488001
 21
-638.07500995924715
 31
0.0
  0
LINE
  5
DC5A
  8
01
 10
2356.4676816488009
 20
-638.07500995924715
 30
0.0
 11
2369.2676816488001
 21
-638.07500995924715
 31
0.0
  0
LINE
  5
DC5B
  8
01
 10
2369.8676313013279
 20
-635.77500995924424
 30
0.0
 11
2355.8676313013279
 21
-635.77500995924424
 31
0.0
  0
LINE
  5
DC5C
  8
01
 10
2366.292631301329
 20
-670.77500995924458
 30
0.0
 11
2359.4426313013269
 21
-670.7750099592447
 31
0.0
  0
LINE
  5
DC5D
  8
01
 10
2362.9672363717059
 20
-635.77500995924424
 30
0.0
 11
2363.2351855641359
 21
-638.07500995924715
 31
0.0
  0
LINE
  5
DC5E
  8
01
 10
2362.5169257214689
 20
-635.77500995924424
 30
0.0
 11
2362.7848749138989
 21
-638.07500995924715
 31
0.0
  0
LINE
  5
DC5F
  8
01
 10
2366.292631301329
 20
-670.77500995924458
 30
0.0
 11
2366.8676313013279
 21
-670.20000995924488
 31
0.0
  0
LINE
  5
DC60
  8
01
 10
2359.4426313013269
 20
-670.7750099592447
 30
0.0
 11
2358.8676313013279
 21
-670.20000995924488
 31
0.0
  0
LINE
  5
DC61
  8
01
 10
2366.8676313013279
 20
-670.20000995924488
 30
0.0
 11
2358.8676313013279
 21
-670.20000995924488
 31
0.0
  0
LINE
  5
EB3A
  8
01
 10
2442.229885798647
 20
-750.7153266610178
 30
0.0
 11
2442.2298871099629
 21
-720.71532666101587
 31
0.0
  0
LINE
  5
EB3B
  8
01
 10
2442.5298882810639
 20
-743.46532718555522
 30
0.0
 11
2454.5298882810639
 21
-743.4653266610178
 31
0.0
  0
LINE
  5
EB3C
  8
01
 10
2454.5298876035349
 20
-727.96532666101859
 30
0.0
 11
2442.5298876035349
 21
-727.96532718555511
 31
0.0
  0
LINE
  5
EB3D
  8
01
 10
2442.5298883029182
 20
-722.21531859186427
 30
0.0
 11
2442.2298870443979
 21
-722.21531860497805
 31
0.0
  0
LINE
  5
EB3E
  8
01
 10
2442.5298894831271
 20
-749.21532587420302
 30
0.0
 11
2442.5298883029182
 21
-722.21531859186427
 31
0.0
  0
LINE
  5
EB3F
  8
01
 10
2442.229885864213
 20
-749.21532588731679
 30
0.0
 11
2442.5298894831271
 21
-749.21532587420302
 31
0.0
  0
LINE
  5
EB40
  8
01
 10
2402.2474492304959
 20
-735.71532666101893
 30
0.0
 11
2475.0305046994222
 21
-735.71532666101575
 31
0.0
  0
LINE
  5
EB41
  8
01
 10
2457.829888213746
 20
-747.10183470892946
 30
0.0
 11
2464.4433892809939
 21
-747.1018349980161
 31
0.0
  0
LINE
  5
EB42
  8
01
 10
2457.8298892091848
 20
-724.32883470893034
 30
0.0
 11
2464.443390276434
 21
-724.32883499801505
 31
0.0
  0
LINE
  5
EB43
  8
01
 10
2457.8298883524999
 20
-747.71533487450074
 30
0.0
 11
2463.8298894197492
 21
-747.71533513676809
 31
0.0
  0
LINE
  5
EB44
  8
01
 10
2463.8298894197492
 20
-747.71533513676809
 30
0.0
 11
2464.8298894634599
 21
-746.71533518048022
 31
0.0
  0
LINE
  5
EB45
  8
01
 10
2454.8298911678098
 20
-720.71533938994003
 30
0.0
 11
2454.829889856459
 21
-750.71533009679035
 31
0.0
  0
LINE
  5
EB46
  8
01
 10
2457.8298893141491
 20
-725.71533487456975
 30
0.0
 11
2456.8298893141491
 21
-725.71533483085773
 31
0.0
  0
LINE
  5
EB47
  8
01
 10
2456.829888439921
 20
-745.71533483071755
 30
0.0
 11
2457.829888439921
 21
-745.7153348744298
 31
0.0
  0
LINE
  5
EB48
  8
01
 10
2457.8298883524999
 20
-747.71533487450074
 30
0.0
 11
2457.829888439921
 21
-745.7153348744298
 31
0.0
  0
LINE
  5
EB49
  8
01
 10
2457.8298893141491
 20
-725.71533487456975
 30
0.0
 11
2457.8298894015729
 21
-723.71533487450074
 31
0.0
  0
LINE
  5
EB4A
  8
01
 10
2464.8298896164479
 20
-743.21533518038564
 30
0.0
 11
2458.3298894066388
 21
-743.21533489626131
 31
0.0
  0
LINE
  5
EB4B
  8
01
 10
2458.3298900623022
 20
-728.21533489644855
 30
0.0
 11
2464.829890272119
 21
-728.21533518057299
 31
0.0
  0
LINE
  5
EB4C
  8
01
 10
2458.3298900623022
 20
-728.21533489644855
 30
0.0
 11
2458.3298894066388
 21
-743.21533489626131
 31
0.0
  0
LINE
  5
EB4D
  8
01
 10
2464.829890425096
 20
-724.71533518046556
 30
0.0
 11
2464.8298901911012
 21
-730.06859585617462
 31
0.0
  0
LINE
  5
EB4E
  8
01
 10
2464.8298896975411
 20
-741.36009800210309
 30
0.0
 11
2464.8298894634599
 21
-746.71533518048022
 31
0.0
  0
LINE
  5
EB4F
  8
01
 10
2463.8298904688199
 20
-723.7153351368263
 30
0.0
 11
2457.8298894015711
 21
-723.71533487455713
 31
0.0
  0
LINE
  5
EB50
  8
01
 10
2463.8298904688199
 20
-723.71533513676798
 30
0.0
 11
2464.8298904251078
 21
-724.71533518047841
 31
0.0
  0
LINE
  5
EB51
  8
01
 10
2456.8298882301069
 20
-750.51533018123268
 30
0.0
 11
2456.82988952396
 21
-720.91533948034055
 31
0.0
  0
LINE
  5
EB52
  8
01
 10
2454.829889856459
 20
-750.71533009679035
 30
0.0
 11
2456.6298882183842
 21
-750.71533017547085
 31
0.0
  0
LINE
  5
EB53
  8
01
 10
2456.6298895297259
 20
-720.71533946862041
 30
0.0
 11
2454.8298911678098
 21
-720.71533938994003
 31
0.0
  0
LINE
  5
EB54
  8
01
 10
2456.6298882183842
 20
-750.71533017547085
 30
0.0
 11
2456.8298882301069
 21
-750.51533018123268
 31
0.0
  0
LINE
  5
EB55
  8
01
 10
2456.8298895239641
 20
-720.91533948034453
 30
0.0
 11
2456.6298895297259
 21
-720.71533946862041
 31
0.0
  0
LINE
  5
EB56
  8
01
 10
2454.5298885324041
 20
-749.21533809607649
 30
0.0
 11
2454.8298899220258
 21
-749.21533808296272
 31
0.0
  0
LINE
  5
EB57
  8
01
 10
2454.5298885324041
 20
-749.21533809607649
 30
0.0
 11
2454.5298873521951
 21
-722.2153217698243
 31
0.0
  0
LINE
  5
EB58
  8
01
 10
2454.5298873521951
 20
-722.2153217698243
 30
0.0
 11
2454.829891102243
 21
-722.21532175671075
 31
0.0
  0
LINE
  5
EB59
  8
01
 10
2421.259513411027
 20
-739.71495276185055
 30
0.0
 11
2458.3298897344698
 21
-739.71460080475049
 31
0.0
  0
LINE
  5
EB5A
  8
01
 10
2420.6298975777008
 20
-739.08533839351117
 30
0.0
 11
2421.2598931801172
 21
-739.71533253005623
 31
0.0
  0
LINE
  5
EB5B
  8
01
 10
2420.6298818951059
 20
-732.34533839336405
 30
0.0
 11
2420.6298975777008
 21
-739.08533839351117
 31
0.0
  0
LINE
  5
EB5C
  8
01
 10
2461.8298967147398
 20
-742.71433873430328
 30
0.0
 11
2460.6298897344732
 21
-742.71433873430328
 31
0.0
  0
LINE
  5
EB5D
  8
01
 10
2420.6298818951059
 20
-732.34533839336405
 30
0.0
 11
2421.2603522089571
 21
-731.71485781060551
 31
0.0
  0
ARC
  5
EB5E
  8
01
 10
2461.8298967147398
 20
-738.71433873430328
 30
0.0
 40
4.0
 50
270.0
 51
0.0001333155250614
  0
LINE
  5
EB5F
  8
01
 10
2421.2602572666378
 20
-731.71495275447114
 30
0.0
 11
2458.3298897344712
 21
-731.71460080439385
 31
0.0
  0
LINE
  5
EB60
  8
01
 10
2465.8298827539602
 20
-732.71432942712374
 30
0.0
 11
2465.8298967147289
 21
-738.71432942712374
 31
0.0
  0
ARC
  5
EB61
  8
01
 10
2461.8298827539711
 20
-732.71433873430317
 30
0.0
 40
4.0
 50
0.0001333155250614
 51
90.0
  0
LINE
  5
EB62
  8
01
 10
2461.8298827539711
 20
-728.71433873430317
 30
0.0
 11
2460.6298897344732
 21
-728.71433873430317
 31
0.0
  0
LINE
  5
EB63
  8
01
 10
2458.3298897344698
 20
-729.31438908177665
 30
0.0
 11
2460.6298897344732
 21
-729.31438908177483
 31
0.0
  0
LINE
  5
EB64
  8
01
 10
2460.6298897344732
 20
-742.11438908177593
 30
0.0
 11
2458.3298897344698
 21
-742.11438908177593
 31
0.0
  0
LINE
  5
EB65
  8
01
 10
2458.3298897344698
 20
-729.31438908177665
 30
0.0
 11
2458.3298897344698
 21
-742.11438908177593
 31
0.0
  0
LINE
  5
EB66
  8
01
 10
2460.6298897344732
 20
-742.71433873430328
 30
0.0
 11
2460.6298897344732
 21
-728.71433873430317
 31
0.0
  0
LINE
  5
EB67
  8
01
 10
2460.6298897344732
 20
-735.81394380468123
 30
0.0
 11
2458.3298897344698
 21
-736.08189299711125
 31
0.0
  0
LINE
  5
EB68
  8
01
 10
2460.6298897344732
 20
-735.3636331544451
 30
0.0
 11
2458.3298897344698
 21
-735.63158234687512
 31
0.0
  0
LINE
  5
EB69
  8
01
 10
2420.6298975761551
 20
-739.0846737928415
 30
0.0
 11
2458.3298897344698
 21
-739.0846737928415
 31
0.0
  0
LINE
  5
EB6A
  8
01
 10
2420.6305464849511
 20
-732.34467379269449
 30
0.0
 11
2458.3298897344698
 21
-732.34467379269449
 31
0.0
  0
LINE
  5
EB6B
  8
01
 10
2421.2598931801172
 20
-739.71533253005623
 30
0.0
 11
2421.2598774974381
 21
-731.71533252985614
 31
0.0
  0
LINE
  5
EB6C
  8
01
 10
2457.029890987505
 20
-750.71533483949418
 30
0.0
 11
2467.3298812195399
 21
-750.71533528972532
 31
0.0
  0
LINE
  5
EB6F
  8
01
 10
2467.329898669017
 20
-720.71533528979
 30
0.0
 11
2457.0298922988482
 21
-720.71533483956705
 31
0.0
  0
LINE
  5
EB70
  8
01
 10
2456.8298909932669
 20
-750.51533482777199
 30
0.0
 11
2457.029890987505
 21
-750.71533483949418
 31
0.0
  0
LINE
  5
EB71
  8
01
 10
2457.0298922988482
 20
-720.71533483956705
 30
0.0
 11
2456.8298925684062
 21
-720.91533455252466
 31
0.0
  0
LINE
  5
EB77
  8
01
 10
2415.8272517131418
 20
-722.67616954133973
 30
0.0
 11
2415.8633376003058
 21
-722.64008365417556
 31
0.0
1001
ACAD
1010
0.0
1020
0.0
1030
0.0
  0
LINE
  5
EB78
  8
01
 10
2442.2298884213219
 20
-750.7153266609414
 30
0.0
 11
2431.2298662707549
 21
-750.71532714177215
 31
0.0
  0
LINE
  5
EB79
  8
01
 10
2412.2299162889171
 20
-750.71532862795505
 30
0.0
 11
2408.2298918763181
 21
-750.71532880280017
 31
0.0
  0
LINE
  5
EB7A
  8
01
 10
2408.229891876319
 20
-720.71532880286497
 30
0.0
 11
2412.2298961132419
 21
-720.71532862802178
 31
0.0
  0
LINE
  5
EB7B
  8
01
 10
2431.2298906833662
 20
-720.71532714183627
 30
0.0
 11
2442.2298871099629
 21
-720.71532666101587
 31
0.0
  0
LINE
  5
EB7C
  8
01
 10
2407.2298918763181
 20
-749.7153288465114
 30
0.0
 11
2407.2298918763181
 21
-721.7153288465762
 31
0.0
  0
LINE
  5
EB7D
  8
01
 10
2407.2298918763181
 20
-749.7153288465114
 30
0.0
 11
2408.2298918763181
 21
-750.71532880280017
 31
0.0
  0
LINE
  5
EB7E
  8
01
 10
2407.2298918763181
 20
-721.7153288465762
 30
0.0
 11
2408.229891876319
 21
-720.71532880286497
 31
0.0
  0
ARC
  5
EB7F
  8
01
 10
2421.7298923390708
 20
-764.25700942750336
 30
0.0
 40
16.541664481857069
 50
54.948968240494551
 51
125.0510407228933
  0
ARC
  5
EB80
  8
01
 10
2421.7298923390708
 20
-707.17366198245713
 30
0.0
 40
16.541664481857069
 50
234.9488739123976
 51
305.05113505099757
  0
LINE
  5
EB81
  8
01
 10
2412.2299162889171
 20
-750.71532862795505
 30
0.0
 11
2412.2298961132419
 21
-720.71532862802178
 31
0.0
  0
LINE
  5
EB82
  8
01
 10
2408.2298918763181
 20
-750.71532880280017
 30
0.0
 11
2408.2298918763181
 21
-720.71532880286577
 31
0.0
  0
LINE
  5
EB87
  8
01
 10
2442.5298883029182
 20
-765.99096882970787
 30
0.0
 11
2442.5298883029182
 21
-706.35452726732228
 31
0.0
  0
LINE
  5
EB88
  8
01
 10
2454.5298873521961
 20
-765.99096882970787
 30
0.0
 11
2454.5298873521961
 21
-706.35452726732228
 31
0.0
  0
LINE
  5
EB8E
  8
01
 10
2431.2298906833671
 20
-720.71532714183627
 30
0.0
 11
2431.229866270754
 21
-750.71532714177215
 31
0.0
  0
LINE
  5
EB92
  8
01
 10
2467.329856806929
 20
-720.71533528978932
 30
0.0
 11
2467.3298812195399
 21
-750.7153352897252
 31
0.0
  0
LINE
  5
EC0D
  8
01
 10
2468.3298905562419
 20
-721.71532726444059
 30
0.0
 11
2468.329889332324
 21
-749.71532726436237
 31
0.0
  0
LINE
  5
EC0E
  8
01
 10
2467.3298812195399
 20
-750.7153352897252
 30
0.0
 11
2468.329889332324
 21
-749.71532726436237
 31
0.0
  0
LINE
  5
EC0F
  8
01
 10
2468.3298905562419
 20
-721.71532726444059
 30
0.0
 11
2467.3298905999541
 21
-720.71532722072664
 31
0.0
  0
TEXT
  5
ED01
  8
01
 10
2247.2287788597669
 20
-573.58405685376181
 30
0.0
 40
7.999999999199999
  1
SH-015-XX-6
 41
0.8
  0
LINE
  5
ED02
  8
01
 10
2247.2287788597669
 20
-585.58405685256184
 30
0.0
 11
2282.2287788562671
 21
-585.58405685256173
 31
0.0
  0
LINE
  5
ED03
  8
01
 10
2282.228778856268
 20
-585.58405685256184
 30
0.0
 11
2317.2287788527678
 21
-585.58405685256184
 31
0.0
  0
TEXT
  5
ED04
  8
01
 10
2249.9097312404519
 20
-584.08405685271168
 30
0.0
 40
3.9999999995999991
  1
表面処理:脚部
 72
     1
 11
2264.728778858017
 21
-584.08405685271168
 31
0.0
  0
LINE
  5
ED05
  8
01
 10
2247.2287788597669
 20
-578.58405685326181
 30
0.0
 11
2282.228778856268
 21
-578.58405685326181
 31
0.0
  0
LINE
  5
ED06
  8
01
 10
2282.228778856268
 20
-578.58405685326181
 30
0.0
 11
2317.2287788527678
 21
-578.58405685326181
 31
0.0
  0
TEXT
  5
ED07
  8
01
 10
2292.962112188528
 20
-584.08405685271168
 30
0.0
 40
3.9999999995999991
  1
コード
 72
     1
 11
2299.6287788545278
 21
-584.08405685271168
 31
0.0
  0
LINE
  5
ED08
  8
01
 10
2282.228778856268
 20
-592.58405685186233
 30
0.0
 11
2317.2287788527678
 21
-592.58405685186165
 31
0.0
  0
TEXT
  5
ED09
  8
01
 10
2255.6621121922581
 20
-591.06195187199864
 30
0.0
 40
3.9999999995999991
  1
クローム
 72
     1
 11
2264.728778858017
 21
-591.06195187199864
 31
0.0
  0
LINE
  5
ED0A
  8
01
 10
2282.228778856268
 20
-578.58405685326181
 30
0.0
 11
2282.2287788562671
 21
-606.58405685046341
 31
0.0
  0
LINE
  5
ED0B
  8
01
 10
2247.2287788597669
 20
-578.58405685326181
 30
0.0
 11
2247.2287788597669
 21
-606.58405685046284
 31
0.0
  0
TEXT
  5
ED0C
  8
01
 10
2283.5621121894692
 20
-591.29841383563974
 30
0.0
 40
3.9999999995999991
  1
SH-015-XC-6
 41
0.7
 72
     1
 11
2299.6287788545292
 21
-591.29841383563974
 31
0.0
  0
LINE
  5
ED0D
  8
01
 10
2247.228778859766
 20
-592.58405685186233
 30
0.0
 11
2282.2287788562671
 21
-592.58405685186267
 31
0.0
  0
LINE
  5
ED0E
  8
01
 10
2317.2287788527678
 20
-578.58405685326181
 30
0.0
 11
2317.2287788527678
 21
-606.5840568504625
 31
0.0
  0
LINE
  5
ED0F
  8
01
 10
2282.228778856268
 20
-599.58405685116281
 30
0.0
 11
2317.2287788527678
 21
-599.58405685116225
 31
0.0
  0
TEXT
  5
ED10
  8
01
 10
2247.928778859698
 20
-598.06195187129936
 30
0.0
 40
3.9999999995999991
  1
ブラストシルバー
 41
0.9
 72
     1
 11
2264.728778858017
 21
-598.06195187129936
 31
0.0
  0
TEXT
  5
ED11
  8
01
 10
2283.628778856129
 20
-598.29841383494045
 30
0.0
 40
3.9999999995999991
  1
SH-015-XS-6
 41
0.7
 72
     1
 11
2299.6287788545292
 21
-598.29841383494045
 31
0.0
  0
LINE
  5
ED12
  8
01
 10
2247.228778859766
 20
-599.58405685116281
 30
0.0
 11
2282.2287788562671
 21
-599.58405685116315
 31
0.0
  0
LINE
  5
ED13
  8
01
 10
2282.228778856268
 20
-606.58405685046341
 30
0.0
 11
2317.2287788527678
 21
-606.5840568504625
 31
0.0
  0
TEXT
  5
ED14
  8
01
 10
2247.928778859698
 20
-605.06195187059961
 30
0.0
 40
3.9999999995999991
  1
ブラストブラック
 41
0.9
 72
     1
 11
2264.728778858017
 21
-605.06195187059961
 31
0.0
  0
TEXT
  5
ED15
  8
01
 10
2283.5621121894692
 20
-605.29841383424059
 30
0.0
 40
3.9999999995999991
  1
SH-015-XK-6
 41
0.7
 72
     1
 11
2299.6287788545292
 21
-605.29841383424059
 31
0.0
  0
LINE
  5
ED16
  8
01
 10
2247.228778859766
 20
-606.58405685046341
 30
0.0
 11
2282.2287788562671
 21
-606.58405685046375
 31
0.0
  0
LINE
  5
ED4D
  8
01
 10
2421.7298923390708
 20
-723.71532646431422
 30
0.0
 11
2394.3664629735422
 21
-723.71532646431422
 31
0.0
  0
LINE
  5
ED4E
  8
01
 10
2421.7298923390708
 20
-747.71534494564617
 30
0.0
 11
2394.3664629735422
 21
-747.71534494564617
 31
0.0
  0
LINE
  5
ED4F
  8
01
 10
2395.3664629735422
 20
-725.71532646431422
 30
0.0
 11
2395.3664629735422
 21
-745.71534494564628
 31
0.0
  0
LINE
  5
ED53
  8
01
 10
2433.2298906833671
 20
-709.88391073541493
 30
0.0
 11
2440.5298883029182
 21
-709.88391073541493
 31
0.0
  0
LINE
  5
ED57
  8
01
 10
2412.2298961132442
 20
-720.71532862802178
 30
0.0
 11
2412.2298961132442
 21
-708.88391073541493
 31
0.0
  0
LINE
  5
ED58
  8
01
 10
2431.2298906833671
 20
-720.71532714183468
 30
0.0
 11
2431.2298906833671
 21
-708.88391073541493
 31
0.0
  0
LINE
  5
ED59
  8
01
 10
2414.2298961132428
 20
-709.88391073541493
 30
0.0
 11
2429.2298906833671
 21
-709.88391073541493
 31
0.0
  0
LINE
  5
ED5D
  8
01
 10
2454.5298873521961
 20
-706.35452726732228
 30
0.0
 11
2454.5298873521961
 21
-701.15110624375734
 31
0.0
  0
LINE
  5
ED5E
  8
01
 10
2468.3299002207641
 20
-721.7153369289631
 30
0.0
 11
2468.3299002207641
 21
-701.15110624375734
 31
0.0
  0
LINE
  5
ED5F
  8
01
 10
2456.5298873521961
 20
-702.15110624375734
 30
0.0
 11
2466.3299002207641
 21
-702.15110624375734
 31
0.0
  0
LINE
  5
ED63
  8
01
 10
2407.2298918763181
 20
-721.7153288465762
 30
0.0
 11
2407.2298918763181
 21
-701.15110624375734
 31
0.0
  0
LINE
  5
ED64
  8
01
 10
2442.5298883029182
 20
-706.35452726732228
 30
0.0
 11
2442.5298883029182
 21
-701.15110624375734
 31
0.0
  0
LINE
  5
ED65
  8
01
 10
2409.2298918763181
 20
-702.15110624375734
 30
0.0
 11
2440.5298883029182
 21
-702.15110624375734
 31
0.0
  0
LINE
  5
ED69
  8
01
 10
2347.867631301327
 20
-735.71532666101825
 30
0.0
 11
2347.867631301327
 21
-701.15110624375734
 31
0.0
  0
LINE
  5
ED6A
  8
01
 10
2377.867631301327
 20
-735.71532666101825
 30
0.0
 11
2377.867631301327
 21
-701.15110624375734
 31
0.0
  0
LINE
  5
ED6B
  8
01
 10
2349.867631301327
 20
-702.15110624375734
 30
0.0
 11
2375.867631301327
 21
-702.15110624375734
 31
0.0
  0
TEXT
  5
ED6F
  8
01
 10
2372.9552847795449
 20
-603.76424935779517
 30
0.0
 40
3.5
  1
材質：アルミ
  0
TEXT
  5
ED70
  8
01
 10
2372.9552847795449
 20
-609.59758269112865
 30
0.0
 40
3.5
  1
仕上げ：各種仕上げ
  0
TEXT
  5
ED73
  8
01
 10
2388.3359208490451
 20
-680.55088716735725
 30
0.0
 40
3.5
  1
材質：アルミ
  0
TEXT
  5
ED74
  8
01
 10
2388.3359208490451
 20
-686.38422050069062
 30
0.0
 40
3.5
  1
仕上げ：各種仕上げ
  0
TEXT
  5
ED77
  8
01
 10
2302.8897240749989
 20
-621.51857476609212
 30
0.0
 40
3.5
  1
材質：ゴム
  0
TEXT
  5
ED78
  8
01
 10
2302.8897240749989
 20
-627.35190809942549
 30
0.0
 40
3.5
  1
仕上げ：ブラック
  0
LINE
  5
ED7B
  8
01
 10
2355.1176313013261
 20
-641.87510389845431
 30
0.0
 11
2371.5983253525551
 21
-622.23417755445575
 31
0.0
  0
LINE
  5
ED7C
  8
01
 10
2370.6176313013239
 20
-641.87510457598194
 30
0.0
 11
2387.0983259210661
 21
-622.23417755445575
 31
0.0
  0
LINE
  5
ED7D
  8
01
 10
2372.7592257213778
 20
-623.23417755445575
 30
0.0
 11
2384.2592262898902
 21
-623.23417755445575
 31
0.0
  0
LINE
  5
ED7E
  8
01
 10
2386.2592262898888
 20
-623.23417755445575
 30
0.0
 11
2433.6787247348329
 21
-623.23417755445575
 31
0.0
  0
TEXT
  5
ED82
  8
01
 10
2425.8869848947452
 20
-670.29935259871047
 30
0.0
 40
3.5
  1
ガラス扉対応厚8~12mm
  0
LINE
  5
ED85
  8
01
 10
2408.7439570518991
 20
-653.26697387946717
 30
0.0
 11
2423.1869848947458
 21
-670.99935259871063
 31
0.0
1001
ACAD
1000
DSTYLE
1002
{
1070
    40
1040
1.0
1002
}
  0
LINE
  5
ED86
  8
01
 10
2423.1869848947458
 20
-670.99935259871063
 30
0.0
 11
2425.8869848947452
 21
-670.99935259871063
 31
0.0
1001
ACAD
1000
DSTYLE
1002
{
1070
    40
1040
1.0
1002
}
  0
LINE
  5
ED87
  8
01
  6
BYBLOCK
 10
2408.32844589161
 20
-653.60540784549573
 30
0.0
 11
2407.4809042842148
 21
-651.71626510408623
 31
0.0
  0
LINE
  5
ED88
  8
01
  6
BYBLOCK
 10
2407.4809042842148
 20
-651.71626510408623
 30
0.0
 11
2409.159468212189
 21
-652.92853991343895
 31
0.0
  0
LINE
  5
ED89
  8
01
  6
BYBLOCK
 10
2407.4809042842148
 20
-651.71626510408623
 30
0.0
 11
2408.7439570518991
 21
-653.26697387946717
 31
0.0
  0
TEXT
  5
ED8A
  8
01
 10
2391.5453914015002
 20
-622.5341775544556
 30
0.0
 40
3.5
  1
ガラス扉穴加工:\U+03C616
  0
LINE
  5
ED8B
  8
01
  6
BYBLOCK
 10
2384.2592262898902
 20
-622.69827917445571
 30
0.0
 11
2386.2592262898888
 21
-623.23417755445575
 31
0.0
  0
LINE
  5
ED8C
  8
01
  6
BYBLOCK
 10
2386.2592262898888
 20
-623.23417755445575
 30
0.0
 11
2384.2592262898902
 21
-623.7700759344558
 31
0.0
  0
LINE
  5
ED8D
  8
01
  6
BYBLOCK
 10
2386.2592262898888
 20
-623.23417755445575
 30
0.0
 11
2384.2592262898902
 21
-623.23417755445575
 31
0.0
  0
LINE
  5
ED8E
  8
01
  6
BYBLOCK
 10
2372.7592257213778
 20
-623.7700759344558
 30
0.0
 11
2370.7592257213778
 21
-623.23417755445575
 31
0.0
  0
LINE
  5
ED8F
  8
01
  6
BYBLOCK
 10
2370.7592257213778
 20
-623.23417755445575
 30
0.0
 11
2372.7592257213778
 21
-622.69827917445571
 31
0.0
  0
LINE
  5
ED90
  8
01
  6
BYBLOCK
 10
2370.7592257213778
 20
-623.23417755445575
 30
0.0
 11
2372.7592257213778
 21
-623.23417755445575
 31
0.0
  0
LINE
  5
ED91
  8
01
 10
2356.452773415343
 20
-646.35125496872297
 30
0.0
 11
2338.2563907416661
 21
-628.05190809942553
 31
0.0
1001
ACAD
1000
DSTYLE
1002
{
1070
    40
1040
1.0
1002
}
  0
LINE
  5
ED92
  8
01
 10
2338.2563907416661
 20
-628.05190809942553
 30
0.0
 11
2335.5563907416658
 21
-628.05190809942553
 31
0.0
1001
ACAD
1000
DSTYLE
1002
{
1070
    40
1040
1.0
1002
}
  0
LINE
  5
ED93
  8
01
  6
BYBLOCK
 10
2356.8327783650388
 20
-645.97338817752211
 30
0.0
 11
2357.8629914913931
 21
-647.76945276098672
 31
0.0
  0
LINE
  5
ED94
  8
01
  6
BYBLOCK
 10
2357.8629914913931
 20
-647.76945276098672
 30
0.0
 11
2356.0727684656458
 21
-646.72912175992406
 31
0.0
  0
LINE
  5
ED95
  8
01
  6
BYBLOCK
 10
2357.8629914913931
 20
-647.76945276098672
 30
0.0
 11
2356.452773415343
 21
-646.35125496872297
 31
0.0
  0
LINE
  5
ED96
  8
01
 10
2373.1768593077209
 20
-672.21049034378393
 30
0.0
 11
2385.6359208490449
 21
-687.08422050069066
 31
0.0
1001
ACAD
1000
DSTYLE
1002
{
1070
    40
1040
1.0
1002
}
  0
LINE
  5
ED97
  8
01
 10
2385.6359208490449
 20
-687.08422050069066
 30
0.0
 11
2388.3359208490451
 21
-687.08422050069066
 31
0.0
1001
ACAD
1000
DSTYLE
1002
{
1070
    40
1040
1.0
1002
}
  0
LINE
  5
ED98
  8
01
  6
BYBLOCK
 10
2372.7660453467051
 20
-672.55461090858785
 30
0.0
 11
2371.8925838642922
 21
-670.67731175490258
 31
0.0
  0
LINE
  5
ED99
  8
01
  6
BYBLOCK
 10
2371.8925838642922
 20
-670.67731175490258
 30
0.0
 11
2373.5876732687379
 21
-671.86636977898013
 31
0.0
  0
LINE
  5
ED9A
  8
01
  6
BYBLOCK
 10
2371.8925838642922
 20
-670.67731175490258
 30
0.0
 11
2373.1768593077209
 21
-672.21049034378393
 31
0.0
  0
LINE
  5
ED9B
  8
01
 10
2357.9282535019861
 20
-626.36949938395844
 30
0.0
 11
2370.255284779545
 21
-610.29758269112858
 31
0.0
1001
ACAD
1000
DSTYLE
1002
{
1070
    40
1040
1.0
1002
}
  0
LINE
  5
ED9C
  8
01
 10
2370.255284779545
 20
-610.29758269112858
 30
0.0
 11
2372.9552847795449
 21
-610.29758269112858
 31
0.0
1001
ACAD
1000
DSTYLE
1002
{
1070
    40
1040
1.0
1002
}
  0
LINE
  5
ED9D
  8
01
  6
BYBLOCK
 10
2358.3534790614331
 20
-626.69564397962142
 30
0.0
 11
2356.7110652893148
 21
-627.95646279088771
 31
0.0
  0
LINE
  5
ED9E
  8
01
  6
BYBLOCK
 10
2356.7110652893148
 20
-627.95646279088771
 30
0.0
 11
2357.50302794254
 21
-626.04335478829535
 31
0.0
  0
LINE
  5
ED9F
  8
01
  6
BYBLOCK
 10
2356.7110652893148
 20
-627.95646279088771
 30
0.0
 11
2357.9282535019861
 21
-626.36949938395844
 31
0.0
  0
TEXT
  5
EDA0
  8
01
 10
2357.3342979679942
 20
-701.45110624375729
 30
0.0
 40
3.5
  1
\U+03C630
  0
LINE
  5
EDA1
  8
01
  6
BYBLOCK
 10
2375.867631301327
 20
-701.61520786375718
 30
0.0
 11
2377.867631301327
 21
-702.15110624375734
 31
0.0
  0
LINE
  5
EDA2
  8
01
  6
BYBLOCK
 10
2377.867631301327
 20
-702.15110624375734
 30
0.0
 11
2375.867631301327
 21
-702.68700462375739
 31
0.0
  0
LINE
  5
EDA3
  8
01
  6
BYBLOCK
 10
2377.867631301327
 20
-702.15110624375734
 30
0.0
 11
2375.867631301327
 21
-702.15110624375734
 31
0.0
  0
LINE
  5
EDA4
  8
01
  6
BYBLOCK
 10
2349.867631301327
 20
-702.68700462375739
 30
0.0
 11
2347.867631301327
 21
-702.15110624375734
 31
0.0
  0
LINE
  5
EDA5
  8
01
  6
BYBLOCK
 10
2347.867631301327
 20
-702.15110624375734
 30
0.0
 11
2349.867631301327
 21
-701.61520786375718
 31
0.0
  0
LINE
  5
EDA6
  8
01
  6
BYBLOCK
 10
2347.867631301327
 20
-702.15110624375734
 30
0.0
 11
2349.867631301327
 21
-702.15110624375734
 31
0.0
  0
TEXT
  5
EDA7
  8
01
 10
2421.5465567562851
 20
-701.45110624375729
 30
0.0
 40
3.5
  1
35
  0
LINE
  5
EDA8
  8
01
  6
BYBLOCK
 10
2440.5298883029182
 20
-701.61520786375718
 30
0.0
 11
2442.5298883029182
 21
-702.15110624375734
 31
0.0
  0
LINE
  5
EDA9
  8
01
  6
BYBLOCK
 10
2442.5298883029182
 20
-702.15110624375734
 30
0.0
 11
2440.5298883029182
 21
-702.68700462375739
 31
0.0
  0
LINE
  5
EDAA
  8
01
  6
BYBLOCK
 10
2442.5298883029182
 20
-702.15110624375734
 30
0.0
 11
2440.5298883029182
 21
-702.15110624375734
 31
0.0
  0
LINE
  5
EDAB
  8
01
  6
BYBLOCK
 10
2409.2298918763181
 20
-702.68700462375739
 30
0.0
 11
2407.2298918763181
 21
-702.15110624375734
 31
0.0
  0
LINE
  5
EDAC
  8
01
  6
BYBLOCK
 10
2407.2298918763181
 20
-702.15110624375734
 30
0.0
 11
2409.2298918763181
 21
-701.61520786375718
 31
0.0
  0
LINE
  5
EDAD
  8
01
  6
BYBLOCK
 10
2407.2298918763181
 20
-702.15110624375734
 30
0.0
 11
2409.2298918763181
 21
-702.15110624375734
 31
0.0
  0
TEXT
  5
EDAE
  8
01
 10
2457.7632271198131
 20
-701.45110624375729
 30
0.0
 40
3.5
  1
14
  0
LINE
  5
EDAF
  8
01
  6
BYBLOCK
 10
2466.3299002207641
 20
-701.61520786375718
 30
0.0
 11
2468.3299002207641
 21
-702.15110624375734
 31
0.0
  0
LINE
  5
EDB0
  8
01
  6
BYBLOCK
 10
2468.3299002207641
 20
-702.15110624375734
 30
0.0
 11
2466.3299002207641
 21
-702.68700462375739
 31
0.0
  0
LINE
  5
EDB1
  8
01
  6
BYBLOCK
 10
2468.3299002207641
 20
-702.15110624375734
 30
0.0
 11
2466.3299002207641
 21
-702.15110624375734
 31
0.0
  0
LINE
  5
EDB2
  8
01
  6
BYBLOCK
 10
2456.5298873521961
 20
-702.68700462375739
 30
0.0
 11
2454.5298873521961
 21
-702.15110624375734
 31
0.0
  0
LINE
  5
EDB3
  8
01
  6
BYBLOCK
 10
2454.5298873521961
 20
-702.15110624375734
 30
0.0
 11
2456.5298873521961
 21
-701.61520786375718
 31
0.0
  0
LINE
  5
EDB4
  8
01
  6
BYBLOCK
 10
2454.5298873521961
 20
-702.15110624375734
 30
0.0
 11
2456.5298873521961
 21
-702.15110624375734
 31
0.0
  0
TEXT
  5
EDB5
  8
01
 10
2418.2298933983052
 20
-709.18391073541477
 30
0.0
 40
3.5
  1
19
  0
LINE
  5
EDB6
  8
01
  6
BYBLOCK
 10
2429.2298906833671
 20
-709.34801235541477
 30
0.0
 11
2431.2298906833671
 21
-709.88391073541493
 31
0.0
  0
LINE
  5
EDB7
  8
01
  6
BYBLOCK
 10
2431.2298906833671
 20
-709.88391073541493
 30
0.0
 11
2429.2298906833671
 21
-710.41980911541498
 31
0.0
  0
LINE
  5
EDB8
  8
01
  6
BYBLOCK
 10
2431.2298906833671
 20
-709.88391073541493
 30
0.0
 11
2429.2298906833671
 21
-709.88391073541493
 31
0.0
  0
LINE
  5
EDB9
  8
01
  6
BYBLOCK
 10
2414.2298961132428
 20
-710.41980911541498
 30
0.0
 11
2412.2298961132442
 21
-709.88391073541493
 31
0.0
  0
LINE
  5
EDBA
  8
01
  6
BYBLOCK
 10
2412.2298961132442
 20
-709.88391073541493
 30
0.0
 11
2414.2298961132428
 21
-709.34801235541477
 31
0.0
  0
LINE
  5
EDBB
  8
01
  6
BYBLOCK
 10
2412.2298961132442
 20
-709.88391073541493
 30
0.0
 11
2414.2298961132428
 21
-709.88391073541493
 31
0.0
  0
TEXT
  5
EDBC
  8
01
 10
2433.7965561598089
 20
-709.18391073541477
 30
0.0
 40
3.5
  1
11
  0
LINE
  5
EDBD
  8
01
  6
BYBLOCK
 10
2440.5298883029182
 20
-709.34801235541477
 30
0.0
 11
2442.5298883029182
 21
-709.88391073541493
 31
0.0
  0
LINE
  5
EDBE
  8
01
  6
BYBLOCK
 10
2442.5298883029182
 20
-709.88391073541493
 30
0.0
 11
2440.5298883029182
 21
-710.41980911541498
 31
0.0
  0
LINE
  5
EDBF
  8
01
  6
BYBLOCK
 10
2442.5298883029182
 20
-709.88391073541493
 30
0.0
 11
2440.5298883029182
 21
-709.88391073541493
 31
0.0
  0
LINE
  5
EDC0
  8
01
  6
BYBLOCK
 10
2433.2298906833671
 20
-710.41980911541498
 30
0.0
 11
2431.2298906833671
 21
-709.88391073541493
 31
0.0
  0
LINE
  5
EDC1
  8
01
  6
BYBLOCK
 10
2431.2298906833671
 20
-709.88391073541493
 30
0.0
 11
2433.2298906833671
 21
-709.34801235541477
 31
0.0
  0
LINE
  5
EDC2
  8
01
  6
BYBLOCK
 10
2431.2298906833671
 20
-709.88391073541493
 30
0.0
 11
2433.2298906833671
 21
-709.88391073541493
 31
0.0
  0
TEXT
  5
EDC3
  8
01
 10
2394.6664629735419
 20
-741.33200237164635
 30
0.0
 40
3.5
  1
\U+03C624
 50
90.0
  0
LINE
  5
EDC4
  8
01
  6
BYBLOCK
 10
2395.9023613535419
 20
-745.71534494564628
 30
0.0
 11
2395.3664629735422
 21
-747.71534494564617
 31
0.0
  0
LINE
  5
EDC5
  8
01
  6
BYBLOCK
 10
2395.3664629735422
 20
-747.71534494564617
 30
0.0
 11
2394.830564593542
 21
-745.71534494564628
 31
0.0
  0
LINE
  5
EDC6
  8
01
  6
BYBLOCK
 10
2395.3664629735422
 20
-747.71534494564617
 30
0.0
 11
2395.3664629735422
 21
-745.71534494564628
 31
0.0
  0
LINE
  5
EDC7
  8
01
  6
BYBLOCK
 10
2394.830564593542
 20
-725.71532646431422
 30
0.0
 11
2395.3664629735422
 21
-723.71532646431422
 31
0.0
  0
LINE
  5
EDC8
  8
01
  6
BYBLOCK
 10
2395.3664629735422
 20
-723.71532646431422
 30
0.0
 11
2395.9023613535419
 21
-725.71532646431422
 31
0.0
  0
LINE
  5
EDC9
  8
01
  6
BYBLOCK
 10
2395.3664629735422
 20
-723.71532646431422
 30
0.0
 11
2395.3664629735422
 21
-725.71532646431422
 31
0.0
  0
VIEWPORT
  5
2FC
 67
     1
  8
0
 10
37.314308206721357
 20
9.220295062513955
 30
0.0
 40
588.30168351704594
 41
270.49124752694757
 68
     1
 69
     1
1001
ACAD
1000
MVIEW
1002
{
1070
    16
1010
0.0
1020
0.0
1030
0.0
1010
0.0
1020
0.0
1030
1.0
1040
0.0
1040
270.49124752694757
1040
37.314308206721357
1040
9.220295062513955
1040
50.0
1040
0.0
1040
0.0
1070
     0
1070
   100
1070
     1
1070
     1
1070
     0
1070
     0
1070
     0
1070
     0
1040
0.0
1040
0.0
1040
0.0
1040
10.0
1040
10.0
1040
10.0
1040
10.0
1070
     0
1002
{
1002
}
1002
}
  0
ENDSEC
  0
EOF
