  0
SECTION
  2
HEADER
  9
$ACADVER
  1
AC1009
  9
$INSBASE
 10
0.0
 20
0.0
 30
0.0
  9
$EXTMIN
 10
1865.5093935847599
 20
-765.99096882971253
 30
0.0
  9
$EXTMAX
 10
2114.5510699713291
 20
-564.88677656195659
 30
0.0
  9
$LIMMIN
 10
0.0
 20
0.0
  9
$LIMMAX
 10
12.0
 20
9.0
  9
$ORTHOMODE
 70
     0
  9
$REGENMODE
 70
     1
  9
$FILLMODE
 70
     1
  9
$QTEXTMODE
 70
     0
  9
$MIRRTEXT
 70
     0
  9
$DRAGMODE
 70
     2
  9
$LTSCALE
 40
0.5
  9
$OSMODE
 70
  2048
  9
$ATTMODE
 70
     1
  9
$TEXTSIZE
 40
12.0
  9
$TRACEWID
 40
0.05
  9
$TEXTSTYLE
  7
STANDARD
  9
$CLAYER
  8
1TEXT
  9
$CELTYPE
  6
BYLAYER
  9
$CECOLOR
 62
   256
  9
$DIMSCALE
 40
1.0
  9
$DIMASZ
 40
2.0
  9
$DIMEXO
 40
0.0
  9
$DIMDLI
 40
7.0
  9
$DIMRND
 40
0.0
  9
$DIMDLE
 40
0.0
  9
$DIMEXE
 40
1.0
  9
$DIMTP
 40
0.0
  9
$DIMTM
 40
0.0
  9
$DIMTXT
 40
3.5
  9
$DIMCEN
 40
0.0
  9
$DIMTSZ
 40
0.0
  9
$DIMTOL
 70
     0
  9
$DIMLIM
 70
     0
  9
$DIMTIH
 70
     0
  9
$DIMTOH
 70
     0
  9
$DIMSE1
 70
     0
  9
$DIMSE2
 70
     0
  9
$DIMTAD
 70
     1
  9
$DIMZIN
 70
     8
  9
$DIMBLK
  1

  9
$DIMASO
 70
     1
  9
$DIMSHO
 70
     1
  9
$DIMPOST
  1
 
  9
$DIMAPOST
  1

  9
$DIMALT
 70
     0
  9
$DIMALTD
 70
     2
  9
$DIMALTF
 40
25.399999999999999
  9
$DIMLFAC
 40
1.0
  9
$DIMTOFL
 70
     1
  9
$DIMTVP
 40
0.0
  9
$DIMTIX
 70
     0
  9
$DIMSOXD
 70
     0
  9
$DIMSAH
 70
     1
  9
$DIMBLK1
  1
OPEN30
  9
$DIMBLK2
  1
OPEN30
  9
$DIMSTYLE
  2
NEWX10
  9
$DIMCLRD
 70
   256
  9
$DIMCLRE
 70
   256
  9
$DIMCLRT
 70
   201
  9
$DIMTFAC
 40
0.7
  9
$DIMGAP
 40
0.7
  9
$LUNITS
 70
     2
  9
$LUPREC
 70
     4
  9
$SKETCHINC
 40
0.1
  9
$FILLETRAD
 40
0.0
  9
$AUNITS
 70
     0
  9
$AUPREC
 70
     2
  9
$MENU
  1
acad
  9
$ELEVATION
 40
0.0
  9
$PELEVATION
 40
0.0
  9
$THICKNESS
 40
0.0
  9
$LIMCHECK
 70
     0
  9
$BLIPMODE
 70
     0
  9
$CHAMFERA
 40
0.0
  9
$CHAMFERB
 40
0.0
  9
$SKPOLY
 70
     0
  9
$TDCREATE
 40
2448750.4870892358
  9
$TDUPDATE
 40
2457042.381503542
  9
$TDINDWG
 40
1.5672353472
  9
$TDUSRTIMER
 40
1.5672353472
  9
$USRTIMER
 70
     1
  9
$ANGBASE
 50
0.0
  9
$ANGDIR
 70
     0
  9
$PDMODE
 70
     0
  9
$PDSIZE
 40
0.0
  9
$PLINEWID
 40
1.0
  9
$COORDS
 70
     0
  9
$SPLFRAME
 70
     0
  9
$SPLINETYPE
 70
     6
  9
$SPLINESEGS
 70
     8
  9
$ATTDIA
 70
     0
  9
$ATTREQ
 70
     1
  9
$HANDLING
 70
     1
  9
$HANDSEED
  5
ECFA
  9
$SURFTAB1
 70
     6
  9
$SURFTAB2
 70
     6
  9
$SURFTYPE
 70
     6
  9
$SURFU
 70
     6
  9
$SURFV
 70
     6
  9
$UCSNAME
  2

  9
$UCSORG
 10
0.0
 20
0.0
 30
0.0
  9
$UCSXDIR
 10
1.0
 20
0.0
 30
0.0
  9
$UCSYDIR
 10
0.0
 20
1.0
 30
0.0
  9
$PUCSNAME
  2

  9
$PUCSORG
 10
0.0
 20
0.0
 30
0.0
  9
$PUCSXDIR
 10
1.0
 20
0.0
 30
0.0
  9
$PUCSYDIR
 10
0.0
 20
1.0
 30
0.0
  9
$USERI1
 70
     0
  9
$USERI2
 70
     0
  9
$USERI3
 70
     0
  9
$USERI4
 70
     0
  9
$USERI5
 70
     0
  9
$USERR1
 40
0.0
  9
$USERR2
 40
0.0
  9
$USERR3
 40
0.0
  9
$USERR4
 40
0.0
  9
$USERR5
 40
0.0
  9
$WORLDVIEW
 70
     1
  9
$SHADEDGE
 70
     3
  9
$SHADEDIF
 70
    70
  9
$TILEMODE
 70
     1
  9
$MAXACTVP
 70
    16
  9
$PLIMCHECK
 70
     0
  9
$PEXTMIN
 10
1.0000000000000000E+020
 20
1.0000000000000000E+020
 30
1.0000000000000000E+020
  9
$PEXTMAX
 10
-1.0000000000000000E+020
 20
-1.0000000000000000E+020
 30
-1.0000000000000000E+020
  9
$PLIMMIN
 10
-220.1847950731335
 20
-136.082518103414
  9
$PLIMMAX
 10
199.761860200304
 20
160.84347676963279
  9
$UNITMODE
 70
     0
  9
$VISRETAIN
 70
     0
  9
$PLINEGEN
 70
     0
  9
$PSLTSCALE
 70
     1
  0
ENDSEC
  0
SECTION
  2
TABLES
  0
TABLE
  2
VPORT
 70
     1
  0
VPORT
  2
*ACTIVE
 70
     0
 10
0.0
 20
0.0
 11
1.0
 21
1.0
 12
1989.9901567052009
 22
-665.43938947910806
 13
0.0
 23
0.0
 14
1.0
 24
1.0
 15
0.0
 25
0.0
 16
0.0
 26
0.0
 36
1.0
 17
0.0
 27
0.0
 37
0.0
 40
213.3115781231063
 41
2.1749379652605461
 42
50.0
 43
0.0
 44
0.0
 50
0.0
 51
0.0
 71
     0
 72
  1000
 73
     1
 74
     1
 75
     0
 76
     0
 77
     0
 78
     0
  0
ENDTAB
  0
TABLE
  2
LTYPE
 70
    14
  0
LTYPE
  2
CONTINUOUS
 70
     0
  3
Solid line
 72
    65
 73
     0
 40
0.0
  0
LTYPE
  2
A3WAKUDAKE|CENTER2
 70
    48
  3
Center (.5x) ___ _ ___ _ ___ _ ___ _ ___ _ ___
 72
    65
 73
     4
 40
28.574999999999999
 49
19.050000000000001
 49
-3.1749999999999989
 49
3.1749999999999989
 49
-3.1749999999999989
  0
LTYPE
  2
XREF1|CENTER2
 70
    48
  3
Center (.5x) ___ _ ___ _ ___ _ ___ _ ___ _ ___
 72
    65
 73
     4
 40
28.574999999999999
 49
19.050000000000001
 49
-3.1749999999999989
 49
3.1749999999999989
 49
-3.1749999999999989
  0
ENDTAB
  0
TABLE
  2
LAYER
 70
    50
  0
LAYER
  2
0
 70
     0
 62
     7
  6
CONTINUOUS
  0
LAYER
  2
1TEXT
 70
     0
 62
     7
  6
CONTINUOUS
  0
LAYER
  2
01
 70
     0
 62
     1
  6
CONTINUOUS
  0
LAYER
  2
A3WAKUDAKE|THICK
 70
    48
 62
     7
  6
CONTINUOUS
  0
LAYER
  2
A3WAKUDAKE|POINT
 70
    48
 62
     7
  6
CONTINUOUS
  0
LAYER
  2
A3WAKUDAKE|1CENTER
 70
    48
 62
     7
  6
CONTINUOUS
  0
LAYER
  2
A3WAKUDAKE|0-6
 70
    48
 62
     7
  6
CONTINUOUS
  0
LAYER
  2
A3WAKUDAKE|1DIM
 70
    48
 62
     7
  6
CONTINUOUS
  0
LAYER
  2
XREF1|1CENTER
 70
    48
 62
     7
  6
CONTINUOUS
  0
ENDTAB
  0
TABLE
  2
STYLE
 70
     8
  0
STYLE
  2
STANDARD
 70
     0
 40
0.0
 41
1.0
 50
0.0
 71
     0
 42
12.0
  3
romans.shx
  4
extfont2.shx
  0
ENDTAB
  0
TABLE
  2
VIEW
 70
     7
  0
ENDTAB
  0
TABLE
  2
UCS
 70
     5
  0
UCS
  2
U
 70
     0
 10
0.0
 20
0.0
 30
0.0
 11
1.0
 21
0.0
 31
0.0
 12
0.0
 22
0.0000000000000002
 32
1.0
  0
UCS
  2
L
 70
     0
 10
0.0
 20
0.0
 30
0.0
 11
-0.0000000000000002
 21
-1.0
 31
0.0000000000000002
 12
0.0
 22
0.0000000000000002
 32
1.0
  0
UCS
  2
R
 70
     0
 10
0.0
 20
0.0
 30
0.0
 11
0.0000000000000003
 21
1.0
 31
-0.0000000000000002
 12
0.0
 22
0.0000000000000002
 32
1.0
  0
UCS
  2
ISOME
 70
     0
 10
0.0
 20
0.0
 30
0.0
 11
0.7071450863198266
 21
-0.7070684729403536
 31
-0.0000383082461947
 12
0.4082704059428735
 22
0.4082704077401152
 32
0.8164744636514736
  0
UCS
  2
PERSPECTIVE
 70
     0
 10
0.0
 20
0.0
 30
0.0
 11
0.8191477691768963
 21
-0.5735823260466403
 31
-0.0004974931557765
 12
0.1584844715982971
 22
0.225502028986108
 32
0.961265575782966
  0
ENDTAB
  0
TABLE
  2
APPID
 70
    25
  0
APPID
  2
ACAD
 70
     0
  0
APPID
  2
CONTENTTABDATA
 70
     0
  0
APPID
  2
CONTENTCURRENTTAB
 70
     0
  0
APPID
  2
CONTENTBLOCKDESCRIPTION
 70
     0
  0
APPID
  2
CONTENTBLOCKICON
 70
     0
  0
APPID
  2
DRAWINGVARIABLESXDATA
 70
     0
  0
APPID
  2
CONTENTLONGBLOCKNAME
 70
     0
  0
APPID
  2
ACAD_MLEADERVER
 70
     0
  0
APPID
  2
ACAD_PSEXT
 70
     0
  0
APPID
  2
ACADANNOTATIVE
 70
     0
  0
APPID
  2
ACDBBLOCKREPETAG
 70
     0
  0
APPID
  2
ACDBDYNAMICBLOCKGUID
 70
     0
  0
APPID
  2
ACAUTHENVIRON
 70
     0
  0
APPID
  2
ACDBDYNAMICBLOCKTRUENAME
 70
     0
  0
APPID
  2
ACAD_EXEMPT_FROM_CAD_STANDARDS
 70
     0
  0
APPID
  2
ACADANNOAV
 70
     0
  0
APPID
  2
ACAD_DSTYLE_DIMRADIAL_EXTENSION
 70
     0
  0
APPID
  2
ACAD_DIMASSOC_CALC_DIMLFAC
 70
     0
  0
APPID
  2
ACAD_DIMASSOC_DIMLFAC
 70
     0
  0
APPID
  2
ACAD_DIMASSOC_OVERRIDDEN_D
 70
     0
  0
APPID
  2
ACAD_NAV_VCDISPLAY
 70
     0
  0
APPID
  2
ACLAYERTOOLS
 70
     0
  0
APPID
  2
GRADIENTCOLOR1ACI
 70
     0
  0
APPID
  2
GRADIENTCOLOR2ACI
 70
     0
  0
APPID
  2
ACAD_SPLINE_DATA
 70
     0
  0
ENDTAB
  0
TABLE
  2
DIMSTYLE
 70
     8
  0
DIMSTYLE
  2
NEWX10
 70
     0
  3
 
  4

  5

  6
OPEN30
  7
OPEN30
 40
1.0
 41
2.0
 42
0.0
 43
7.0
 44
1.0
 45
0.0
 46
0.0
 47
0.0
 48
0.0
140
3.5
141
0.0
142
0.0
143
25.399999999999999
144
1.0
145
0.0
146
0.7
147
0.7
 71
     0
 72
     0
 73
     0
 74
     0
 75
     0
 76
     0
 77
     1
 78
     8
170
     0
171
     2
172
     1
173
     1
174
     0
175
     0
176
   256
177
   256
178
   201
  0
ENDTAB
  0
ENDSEC
  0
SECTION
  2
BLOCKS
  0
BLOCK
  8
0
  2
$MODEL_SPACE
 70
     0
 10
0.0
 20
0.0
 30
0.0
  3
$MODEL_SPACE
  1

  0
ENDBLK
  5
1B
  8
0
  0
BLOCK
 67
     1
  8
0
  2
$PAPER_SPACE
 70
     0
 10
0.0
 20
0.0
 30
0.0
  3
$PAPER_SPACE
  1

  0
ENDBLK
  5
18
 67
     1
  8
0
  0
BLOCK
  8
0
  2
_OPEN30
 70
     0
 10
0.0
 20
0.0
 30
0.0
  3
_OPEN30
  1

  0
LINE
  5
391
  8
0
  6
BYBLOCK
 62
     0
 10
-1.0
 20
0.26794919
 30
0.0
 11
0.0
 21
0.0
 31
0.0
  0
LINE
  5
392
  8
0
  6
BYBLOCK
 62
     0
 10
0.0
 20
0.0
 30
0.0
 11
-1.0
 21
-0.26794919
 31
0.0
  0
LINE
  5
393
  8
0
  6
BYBLOCK
 62
     0
 10
0.0
 20
0.0
 30
0.0
 11
-1.0
 21
0.0
 31
0.0
  0
ENDBLK
  5
394
  8
0
  0
BLOCK
  8
0
  2
A3WAKUDAKE
 70
    36
 10
0.0
 20
0.0
 30
0.0
  3
A3WAKUDAKE
  1
D:\ACLT\FORMAT\A3WAKUdake.dwg
  0
ENDBLK
  5
B8D1
  8
0
  0
BLOCK
  8
0
  2
XREF1
 70
    36
 10
0.0
 20
0.0
 30
0.0
  3
XREF1
  1
D:\ACLT\FORMAT\KAWAJUN(9)図面用.dwg
  0
ENDBLK
  5
EBD7
  8
0
  0
ENDSEC
  0
SECTION
  2
ENTITIES
  0
LINE
  5
D5BD
  8
01
 10
1980.887046911078
 20
-599.87333854100439
 30
0.0
 11
1980.887046911078
 21
-645.52183825877046
 31
0.0
  0
LINE
  5
D5BE
  8
01
 10
1980.8870469110771
 20
-694.15754367208535
 30
0.0
 11
1980.887046911078
 21
-628.97123512466817
 31
0.0
  0
LINE
  5
D5C2
  8
01
 10
1995.8870550895581
 20
-639.37510191507874
 30
0.0
 11
1995.8870554742221
 21
-630.57510530815864
 31
0.0
  0
LINE
  5
D5C3
  8
01
 10
1965.8870554742871
 20
-630.5751053081591
 30
0.0
 11
1965.8870550896311
 21
-639.37510060373654
 31
0.0
  0
LINE
  5
D5C4
  8
01
 10
1995.687055077836
 20
-639.57510190931691
 30
0.0
 11
1995.8870550895581
 21
-639.37510191507874
 31
0.0
  0
LINE
  5
D5C5
  8
01
 10
1965.8870550896311
 20
-639.37510060373654
 30
0.0
 11
1966.08705480259
 21
-639.5751003341785
 31
0.0
  0
LINE
  5
D5C6
  8
01
 10
1965.8870596400029
 20
-641.57510173476567
 30
0.0
 11
1995.887050346854
 21
-641.57510304611606
 31
0.0
  0
LINE
  5
D5C7
  8
01
 10
1995.6870504312969
 20
-639.57510467247732
 30
0.0
 11
1966.0870597304061
 21
-639.57510337862277
 31
0.0
  0
LINE
  5
D5C8
  8
01
 10
1995.887050346854
 20
-641.57510304611606
 30
0.0
 11
1995.8870504255351
 21
-639.77510468420053
 31
0.0
  0
LINE
  5
D5C9
  8
01
 10
1965.8870597186849
 20
-639.77510337285833
 30
0.0
 11
1965.8870596400029
 21
-641.57510173476567
 31
0.0
  0
LINE
  5
D5CA
  8
01
 10
1995.8870504255351
 20
-639.77510468420053
 30
0.0
 11
1995.6870504312969
 21
-639.57510467247732
 31
0.0
  0
LINE
  5
D5CB
  8
01
 10
1966.0870597304061
 20
-639.57510337862277
 30
0.0
 11
1965.8870597186849
 21
-639.77510337285833
 31
0.0
  0
LINE
  5
D5CC
  8
01
 10
1994.387058346141
 20
-641.87510437017966
 30
0.0
 11
1994.3870583330261
 21
-641.57510298054876
 31
0.0
  0
LINE
  5
D5CD
  8
01
 10
1994.387058346141
 20
-641.87510437017966
 30
0.0
 11
1967.3870420198889
 21
-641.87510555038898
 31
0.0
  0
LINE
  5
D5CE
  8
01
 10
1967.3870420198889
 20
-641.87510555038898
 30
0.0
 11
1967.3870420067749
 21
-641.57510180033205
 31
0.0
  0
LINE
  5
D5CF
  8
01
 10
1966.08705480259
 20
-639.5751003341785
 30
0.0
 11
1995.687055077836
 21
-639.57510190931691
 31
0.0
  0
LINE
  5
D5D0
  8
01
 10
1965.8870554742871
 20
-630.5751053081591
 30
0.0
 11
1995.8870554742221
 21
-630.57510530815864
 31
0.0
  0
LINE
  5
D5D2
  8
01
 10
1995.887056960406
 20
-611.5751065011068
 30
0.0
 11
1995.88705713525
 21
-607.57510650111146
 31
0.0
  0
LINE
  5
D5D3
  8
01
 10
1965.887057135315
 20
-607.57510650111146
 30
0.0
 11
1965.8870569604719
 21
-611.5751065011068
 31
0.0
  0
LINE
  5
D5D4
  8
01
 10
1994.887057178961
 20
-606.57510650111135
 30
0.0
 11
1966.887057179026
 21
-606.57510650111135
 31
0.0
  0
LINE
  5
D5D5
  8
01
 10
1994.887057178961
 20
-606.57510650111135
 30
0.0
 11
1995.88705713525
 21
-607.57510650111146
 31
0.0
  0
LINE
  5
D5D6
  8
01
 10
1966.887057179026
 20
-606.57510650111135
 30
0.0
 11
1965.887057135315
 21
-607.57510650111146
 31
0.0
  0
LINE
  5
D5D7
  8
01
 10
1965.8870569604701
 20
-611.57510650110737
 30
0.0
 11
1995.8870569604039
 21
-611.57510650110737
 31
0.0
  0
LINE
  5
D5D8
  8
01
 10
1995.88705713525
 20
-607.57510650111146
 30
0.0
 11
1965.887057135315
 21
-607.57510650111146
 31
0.0
  0
ARC
  5
D5D9
  8
01
 10
2009.428720633601
 20
-621.07510696386385
 30
0.0
 40
16.541664481857069
 50
144.94885598565409
 51
215.05113505099089
  0
ARC
  5
D5DA
  8
01
 10
1952.345373188554
 20
-621.07510696386373
 30
0.0
 40
16.541664481857069
 50
324.94886494900908
 51
35.051144014345923
  0
LINE
  5
D5DD
  8
01
 10
2060.249301408398
 20
-750.71532666102235
 30
0.0
 11
2060.2493027197138
 21
-720.71532666102053
 31
0.0
  0
LINE
  5
D5E9
  8
01
 10
2060.5493038908139
 20
-743.46532718555966
 30
0.0
 11
2072.5493038908148
 21
-743.46532666102235
 31
0.0
  0
LINE
  5
D5EA
  8
01
 10
2072.5493032132858
 20
-727.96532666102325
 30
0.0
 11
2060.5493032132849
 21
-727.96532718555977
 31
0.0
  0
LINE
  5
D5ED
  8
01
 10
2060.5493039126691
 20
-722.21531859186894
 30
0.0
 11
2060.2493026541488
 21
-722.21531860498271
 31
0.0
  0
LINE
  5
D5EF
  8
01
 10
2060.5493050928781
 20
-749.21532587420745
 30
0.0
 11
2060.5493039126691
 21
-722.21531859186894
 31
0.0
  0
LINE
  5
D5F2
  8
01
 10
2060.2493014739639
 20
-749.21532588732134
 30
0.0
 11
2060.5493050928781
 21
-749.21532587420745
 31
0.0
  0
LINE
  5
D5F5
  8
01
 10
2020.2668648402471
 20
-735.71532666102337
 30
0.0
 11
2114.5510699713291
 21
-735.71532666101928
 31
0.0
  0
LINE
  5
D5F7
  8
01
 10
2075.8493038234969
 20
-747.10183470893412
 30
0.0
 11
2082.4628048907439
 21
-747.10183499802065
 31
0.0
  0
LINE
  5
D5F8
  8
01
 10
2075.8493048189362
 20
-724.32883470893478
 30
0.0
 11
2082.462805886184
 21
-724.3288349980196
 31
0.0
  0
LINE
  5
D5F9
  8
01
 10
2075.8493039622508
 20
-747.71533487450517
 30
0.0
 11
2081.8493050294992
 21
-747.71533513677264
 31
0.0
  0
LINE
  5
D5FA
  8
01
 10
2081.8493050294992
 20
-747.71533513677264
 30
0.0
 11
2082.84930507321
 21
-746.71533518048477
 31
0.0
  0
LINE
  5
D5FF
  8
01
 10
2072.8493067775612
 20
-720.71533938994457
 30
0.0
 11
2072.8493054662099
 21
-750.7153300967949
 31
0.0
  0
LINE
  5
D601
  8
01
 10
2075.8493049239
 20
-725.71533487457441
 30
0.0
 11
2074.8493049238991
 21
-725.71533483086216
 31
0.0
  0
LINE
  5
D602
  8
01
 10
2074.8493040496719
 20
-745.71533483072221
 30
0.0
 11
2075.849304049671
 21
-745.71533487443435
 31
0.0
  0
LINE
  5
D603
  8
01
 10
2075.8493039622508
 20
-747.71533487450517
 30
0.0
 11
2075.849304049671
 21
-745.71533487443435
 31
0.0
  0
LINE
  5
D604
  8
01
 10
2075.8493049239
 20
-725.71533487457441
 30
0.0
 11
2075.8493050113238
 21
-723.71533487450529
 31
0.0
  0
LINE
  5
D605
  8
01
 10
2082.8493052261979
 20
-743.21533518039018
 30
0.0
 11
2076.3493050163902
 21
-743.21533489626574
 31
0.0
  0
LINE
  5
D606
  8
01
 10
2076.3493056720531
 20
-728.21533489645321
 30
0.0
 11
2082.8493058818699
 21
-728.21533518057754
 31
0.0
  0
LINE
  5
D607
  8
01
 10
2076.3493056720531
 20
-728.21533489645321
 30
0.0
 11
2076.3493050163902
 21
-743.21533489626574
 31
0.0
  0
LINE
  5
D608
  8
01
 10
2082.849306034846
 20
-724.71533518047022
 30
0.0
 11
2082.8493058008521
 21
-730.06859585617917
 31
0.0
  0
LINE
  5
D609
  8
01
 10
2082.8493053072912
 20
-741.36009800210763
 30
0.0
 11
2082.84930507321
 21
-746.71533518048477
 31
0.0
  0
LINE
  5
D60A
  8
01
 10
2081.84930607857
 20
-723.71533513683084
 30
0.0
 11
2075.849305011322
 21
-723.71533487456156
 31
0.0
  0
LINE
  5
D60B
  8
01
 10
2081.84930607857
 20
-723.71533513677264
 30
0.0
 11
2082.8493060348592
 21
-724.71533518048295
 31
0.0
  0
LINE
  5
D610
  8
01
 10
2074.8493038398578
 20
-750.51533018123723
 30
0.0
 11
2074.84930513371
 21
-720.9153394803451
 31
0.0
  0
LINE
  5
D612
  8
01
 10
2072.8493054662099
 20
-750.7153300967949
 30
0.0
 11
2074.6493038281351
 21
-750.7153301754754
 31
0.0
  0
LINE
  5
D613
  8
01
 10
2074.6493051394768
 20
-720.71533946862485
 30
0.0
 11
2072.8493067775612
 21
-720.71533938994457
 31
0.0
  0
LINE
  5
D614
  8
01
 10
2074.6493038281351
 20
-750.7153301754754
 30
0.0
 11
2074.8493038398578
 21
-750.51533018123723
 31
0.0
  0
LINE
  5
D615
  8
01
 10
2074.849305133715
 20
-720.91533948034896
 30
0.0
 11
2074.6493051394768
 21
-720.71533946862485
 31
0.0
  0
LINE
  5
D61C
  8
01
 10
2072.5493041421551
 20
-749.21533809608104
 30
0.0
 11
2072.8493055317772
 21
-749.21533808296715
 31
0.0
  0
LINE
  5
D61E
  8
01
 10
2072.5493041421551
 20
-749.21533809608104
 30
0.0
 11
2072.5493029619461
 21
-722.21532176982896
 31
0.0
  0
LINE
  5
D621
  8
01
 10
2072.5493029619461
 20
-722.21532176982896
 30
0.0
 11
2072.8493067119939
 21
-722.2153217567153
 31
0.0
  0
LINE
  5
D626
  8
01
 10
2039.2789290207779
 20
-739.7149527618551
 30
0.0
 11
2076.3493053442212
 21
-739.71460080475504
 31
0.0
  0
LINE
  5
D627
  8
01
 10
2038.649313187452
 20
-739.08533839351571
 30
0.0
 11
2039.2793087898681
 21
-739.71533253006078
 31
0.0
  0
LINE
  5
D628
  8
01
 10
2038.649297504857
 20
-732.34533839336859
 30
0.0
 11
2038.649313187452
 21
-739.08533839351571
 31
0.0
  0
LINE
  5
D62B
  8
01
 10
2079.8493123244898
 20
-742.71433873430783
 30
0.0
 11
2078.6493053442241
 21
-742.71433873430783
 31
0.0
  0
LINE
  5
D62C
  8
01
 10
2038.649297504857
 20
-732.34533839336859
 30
0.0
 11
2039.279767818708
 21
-731.71485781061006
 31
0.0
  0
ARC
  5
D62D
  8
01
 10
2079.8493123244898
 20
-738.71433873430783
 30
0.0
 40
4.0
 50
270.0
 51
0.0001333155250614
  0
LINE
  5
D62E
  8
01
 10
2039.279672876389
 20
-731.71495275447558
 30
0.0
 11
2076.3493053442221
 21
-731.71460080439851
 31
0.0
  0
LINE
  5
D62F
  8
01
 10
2083.8492983637111
 20
-732.7143294271284
 30
0.0
 11
2083.8493123244798
 21
-738.71432942712829
 31
0.0
  0
ARC
  5
D630
  8
01
 10
2079.849298363722
 20
-732.71433873430783
 30
0.0
 40
4.0
 50
0.0001333155250614
 51
90.0
  0
LINE
  5
D631
  8
01
 10
2079.849298363722
 20
-728.71433873430783
 30
0.0
 11
2078.6493053442241
 21
-728.71433873430783
 31
0.0
  0
LINE
  5
D632
  8
01
 10
2076.3493053442212
 20
-729.3143890817812
 30
0.0
 11
2078.6493053442241
 21
-729.31438908177938
 31
0.0
  0
LINE
  5
D633
  8
01
 10
2078.6493053442241
 20
-742.11438908178047
 30
0.0
 11
2076.3493053442212
 21
-742.11438908178047
 31
0.0
  0
LINE
  5
D634
  8
01
 10
2076.3493053442212
 20
-729.3143890817812
 30
0.0
 11
2076.3493053442212
 21
-742.11438908178047
 31
0.0
  0
LINE
  5
D635
  8
01
 10
2078.6493053442241
 20
-742.71433873430783
 30
0.0
 11
2078.6493053442241
 21
-728.71433873430783
 31
0.0
  0
LINE
  5
D636
  8
01
 10
2078.6493053442241
 20
-735.81394380468566
 30
0.0
 11
2076.3493053442212
 21
-736.08189299711569
 31
0.0
  0
LINE
  5
D637
  8
01
 10
2078.6493053442241
 20
-735.36363315444964
 30
0.0
 11
2076.3493053442212
 21
-735.63158234687955
 31
0.0
  0
LINE
  5
D638
  8
01
 10
2038.6493131859061
 20
-739.08467379284616
 30
0.0
 11
2076.3493053442212
 21
-739.08467379284616
 31
0.0
  0
LINE
  5
D639
  8
01
 10
2038.649962094702
 20
-732.34467379269904
 30
0.0
 11
2076.3493053442212
 21
-732.34467379269904
 31
0.0
  0
LINE
  5
D63A
  8
01
 10
2039.2793087898681
 20
-739.71533253006078
 30
0.0
 11
2039.279293107189
 21
-731.71533252986058
 31
0.0
  0
LINE
  5
D64D
  8
01
 10
2075.049306597256
 20
-750.71533483949884
 30
0.0
 11
2083.8493276167851
 21
-750.71533522416337
 31
0.0
  0
LINE
  5
D64E
  8
01
 10
2102.8492775986242
 20
-750.71533671034638
 30
0.0
 11
2106.8493020112219
 21
-750.71533688519162
 31
0.0
  0
LINE
  5
D64F
  8
01
 10
2106.849302011221
 20
-720.71533688525642
 30
0.0
 11
2102.8492977742981
 21
-720.71533671041311
 31
0.0
  0
LINE
  5
D650
  8
01
 10
2083.8493032041738
 20
-720.7153352242276
 30
0.0
 11
2075.0493079085982
 21
-720.71533483957148
 31
0.0
  0
LINE
  5
D651
  8
01
 10
2074.8493066030178
 20
-750.51533482777654
 30
0.0
 11
2075.049306597256
 21
-750.71533483949884
 31
0.0
  0
LINE
  5
D652
  8
01
 10
2075.0493079085982
 20
-720.71533483957148
 30
0.0
 11
2074.8493081781562
 21
-720.9153345525292
 31
0.0
  0
LINE
  5
D65B
  8
01
 10
2107.8493020112219
 20
-749.71533692890284
 30
0.0
 11
2107.8493020112219
 21
-721.71533692896764
 31
0.0
  0
LINE
  5
D65C
  8
01
 10
2107.8493020112219
 20
-749.71533692890284
 30
0.0
 11
2106.8493020112219
 21
-750.71533688519162
 31
0.0
  0
LINE
  5
D65D
  8
01
 10
2107.8493020112219
 20
-721.71533692896764
 30
0.0
 11
2106.849302011221
 21
-720.71533688525642
 31
0.0
  0
ARC
  5
D65E
  8
01
 10
2093.3493015484692
 20
-764.25701750989458
 30
0.0
 40
16.541664481857069
 50
54.94895927710256
 51
125.05103175949419
  0
ARC
  5
D65F
  8
01
 10
2093.3493015484692
 20
-707.17367006484824
 30
0.0
 40
16.541664481857069
 50
234.9488649490099
 51
305.05112608758418
  0
LINE
  5
D660
  8
01
 10
2033.8466673228929
 20
-722.67616954134428
 30
0.0
 11
2033.882753210057
 21
-722.6400836541801
 31
0.0
1001
ACAD
1010
0.0
1020
0.0
1030
0.0
  0
LINE
  5
D661
  8
01
 10
2060.2493040310719
 20
-750.71532666094595
 30
0.0
 11
2049.2492818805058
 21
-750.7153271417767
 31
0.0
  0
LINE
  5
D662
  8
01
 10
2030.2493318986681
 20
-750.71532862795971
 30
0.0
 11
2026.249307486069
 21
-750.71532880280483
 31
0.0
  0
LINE
  5
D663
  8
01
 10
2026.2493074860699
 20
-720.71532880286964
 30
0.0
 11
2030.2493117229931
 21
-720.71532862802633
 31
0.0
  0
LINE
  5
D664
  8
01
 10
2049.2493062931171
 20
-720.71532714184082
 30
0.0
 11
2060.2493027197138
 21
-720.71532666102053
 31
0.0
  0
LINE
  5
D665
  8
01
 10
2025.249307486069
 20
-749.71532884651606
 30
0.0
 11
2025.249307486069
 21
-721.71532884658086
 31
0.0
  0
LINE
  5
D666
  8
01
 10
2025.249307486069
 20
-749.71532884651606
 30
0.0
 11
2026.249307486069
 21
-750.71532880280483
 31
0.0
  0
LINE
  5
D667
  8
01
 10
2025.249307486069
 20
-721.71532884658086
 30
0.0
 11
2026.2493074860699
 21
-720.71532880286964
 31
0.0
  0
ARC
  5
D668
  8
01
 10
2039.749307948822
 20
-764.25700942750791
 30
0.0
 40
16.541664481857069
 50
54.948968240493969
 51
125.0510407228971
  0
ARC
  5
D669
  8
01
 10
2039.749307948822
 20
-707.17366198246157
 30
0.0
 40
16.541664481857069
 50
234.9488739124057
 51
305.05113505099013
  0
LINE
  5
D66A
  8
01
 10
2030.2493318986681
 20
-750.71532862795971
 30
0.0
 11
2030.2493117229931
 21
-720.71532862802633
 31
0.0
  0
LINE
  5
D66B
  8
01
 10
2026.249307486069
 20
-750.71532880280483
 30
0.0
 11
2026.249307486069
 21
-720.71532880287043
 31
0.0
  0
CIRCLE
  5
D66D
  8
01
  6
BYBLOCK
 10
1980.887046911078
 20
-735.71532666101825
 30
0.0
 40
15.0
  0
CIRCLE
  5
D66E
  8
01
  6
BYBLOCK
 10
1980.887046911078
 20
-735.71532666101825
 30
0.0
 40
14.0
  0
LINE
  5
D66F
  8
01
 10
1961.3870469110771
 20
-735.71532666102291
 30
0.0
 11
2000.387046911078
 21
-735.71532666102291
 31
0.0
  0
LINE
  5
D670
  8
01
 10
1980.8870469110771
 20
-755.21532666102291
 30
0.0
 11
1980.8870469110771
 21
-716.2153266610228
 31
0.0
  0
LINE
  5
D671
  8
01
 10
1995.8870555441481
 20
-654.17510571911464
 30
0.0
 11
1995.887056986614
 21
-665.17510345707217
 31
0.0
  0
LINE
  5
D672
  8
01
 10
1965.8870569866799
 20
-665.17510607971792
 30
0.0
 11
1965.8870555442229
 21
-654.17510965311158
 31
0.0
  0
LINE
  5
D673
  8
01
 10
1965.8870555442229
 20
-654.17510965311158
 30
0.0
 11
1995.8870555441481
 21
-654.17510571911464
 31
0.0
  0
LINE
  5
D674
  8
01
 10
1994.38705887067
 20
-653.87510452618335
 30
0.0
 11
1994.3870588837819
 21
-654.17510591581413
 31
0.0
  0
LINE
  5
D675
  8
01
 10
1994.38705887067
 20
-653.87510452618335
 30
0.0
 11
1967.3870425444179
 21
-653.87510570635698
 31
0.0
  0
LINE
  5
D676
  8
01
 10
1967.3870425444179
 20
-653.87510570635698
 30
0.0
 11
1967.3870425575301
 21
-654.17510945641391
 31
0.0
  0
LINE
  5
D677
  8
01
 10
1965.8870569866799
 20
-665.17510607971792
 30
0.0
 11
1995.887056986614
 21
-665.17510345707217
 31
0.0
  0
LINE
  5
D678
  8
01
 10
1995.8870601338081
 20
-684.17510226412367
 30
0.0
 11
1995.887060658338
 21
-688.17510226411912
 31
0.0
  0
LINE
  5
D679
  8
01
 10
1965.887060658403
 20
-688.17510488676533
 30
0.0
 11
1965.887060133874
 21
-684.17510488676987
 31
0.0
  0
LINE
  5
D67A
  8
01
 10
1994.887060789471
 20
-689.17510235154054
 30
0.0
 11
1966.887060789536
 21
-689.17510479934367
 31
0.0
  0
LINE
  5
D67B
  8
01
 10
1994.887060789471
 20
-689.17510235154054
 30
0.0
 11
1995.887060658338
 21
-688.17510226411912
 31
0.0
  0
LINE
  5
D67C
  8
01
 10
1966.887060789536
 20
-689.17510479934367
 30
0.0
 11
1965.887060658403
 21
-688.17510488676533
 31
0.0
  0
LINE
  5
D67D
  8
01
 10
1965.887060133872
 20
-684.17510488676953
 30
0.0
 11
1995.887060133806
 21
-684.17510226412332
 31
0.0
  0
LINE
  5
D67E
  8
01
 10
1995.887060658338
 20
-688.17510226411912
 30
0.0
 11
1965.887060658403
 21
-688.17510488676533
 31
0.0
  0
ARC
  5
D67F
  8
01
 10
2009.4287229764971
 20
-674.67510061753364
 30
0.0
 40
16.541664481857069
 50
144.9488699578956
 51
215.05114902323231
  0
ARC
  5
D680
  8
01
 10
1952.345375531452
 20
-674.67510560784808
 30
0.0
 40
16.541664481857069
 50
324.94886099454089
 51
35.05114005987695
  0
LINE
  5
D791
  8
01
 10
2044.5937510949379
 20
-641.87510555038898
 30
0.0
 11
1918.6448097644791
 21
-641.87510555038898
 31
0.0
  0
LINE
  5
D792
  8
01
 10
2044.593751094937
 20
-653.87510511627033
 30
0.0
 11
1918.6448097644791
 21
-653.87510511627033
 31
0.0
  0
LINE
  5
D793
  8
01
 10
2060.5493039126691
 20
-765.99096882971253
 30
0.0
 11
2060.5493039126691
 21
-706.35452726732683
 31
0.0
  0
LINE
  5
D794
  8
01
 10
2072.549302961947
 20
-765.99096882971253
 30
0.0
 11
2072.549302961947
 21
-706.35452726732683
 31
0.0
  0
LINE
  5
D7D9
  8
01
 10
1988.6373979962009
 20
-653.87510260896579
 30
0.0
 11
1988.6373974716639
 21
-641.87510260896579
 31
0.0
  0
LINE
  5
D7DA
  8
01
 10
1973.1373974716651
 20
-641.87510328649489
 30
0.0
 11
1973.1373979962009
 21
-653.87510328649489
 31
0.0
  0
LINE
  5
D7DB
  8
01
 10
1987.8870469110791
 20
-634.5750029789773
 30
0.0
 11
1987.8870469110791
 21
-635.77500995924424
 31
0.0
  0
LINE
  5
D7DC
  8
01
 10
1977.4620469110771
 20
-638.0750099592475
 30
0.0
 11
1977.4620469110771
 21
-670.7750099592447
 31
0.0
  0
LINE
  5
D7DD
  8
01
 10
1984.31204691108
 20
-638.07500995924715
 30
0.0
 11
1984.31204691108
 21
-670.77500995924458
 31
0.0
  0
LINE
  5
D7DE
  8
01
 10
1976.8870469110771
 20
-638.0750099592475
 30
0.0
 11
1976.8870469110791
 21
-670.20000995924522
 31
0.0
  0
LINE
  5
D7DF
  8
01
 10
1984.887046911078
 20
-638.07500995924715
 30
0.0
 11
1984.887046911078
 21
-670.20000995924488
 31
0.0
  0
ARC
  5
D7E0
  8
01
 10
1983.887046911078
 20
-634.5750029789773
 30
0.0
 40
4.0
 50
0.0
 51
90.000133315420825
  0
LINE
  5
D7E1
  8
01
 10
1977.887037603899
 20
-630.57501693975735
 30
0.0
 11
1983.887037603899
 21
-630.57500297898821
 31
0.0
  0
ARC
  5
D7E2
  8
01
 10
1977.887046911078
 20
-634.57501693974643
 30
0.0
 40
4.0
 50
90.000133315420825
 51
180.0
  0
LINE
  5
D7E3
  8
01
 10
1973.887046911078
 20
-634.57501693974643
 30
0.0
 11
1973.887046911078
 21
-635.77500995924424
 31
0.0
  0
LINE
  5
D7E4
  8
01
 10
1974.487097258552
 20
-638.07500995924715
 30
0.0
 11
1974.48709725855
 21
-635.77500995924424
 31
0.0
  0
LINE
  5
D7E5
  8
01
 10
1987.2870972585511
 20
-635.77500995924424
 30
0.0
 11
1987.2870972585511
 21
-638.07500995924715
 31
0.0
  0
LINE
  5
D7E6
  8
01
 10
1974.487097258552
 20
-638.07500995924715
 30
0.0
 11
1987.2870972585511
 21
-638.07500995924715
 31
0.0
  0
LINE
  5
D7E7
  8
01
 10
1987.8870469110791
 20
-635.77500995924424
 30
0.0
 11
1973.887046911078
 21
-635.77500995924424
 31
0.0
  0
LINE
  5
D7E8
  8
01
 10
1984.31204691108
 20
-670.77500995924458
 30
0.0
 11
1977.4620469110771
 21
-670.7750099592447
 31
0.0
  0
LINE
  5
D7E9
  8
01
 10
1980.9866519814559
 20
-635.77500995924424
 30
0.0
 11
1981.2546011738871
 21
-638.07500995924715
 31
0.0
  0
LINE
  5
D7EA
  8
01
 10
1980.53634133122
 20
-635.77500995924424
 30
0.0
 11
1980.80429052365
 21
-638.07500995924715
 31
0.0
  0
LINE
  5
D7EB
  8
01
 10
1984.31204691108
 20
-670.77500995924458
 30
0.0
 11
1984.887046911078
 21
-670.20000995924488
 31
0.0
  0
LINE
  5
D7EC
  8
01
 10
1977.4620469110771
 20
-670.7750099592447
 30
0.0
 11
1976.8870469110791
 21
-670.20000995924488
 31
0.0
  0
LINE
  5
D7ED
  8
01
 10
1984.887046911078
 20
-670.20000995924488
 30
0.0
 11
1976.8870469110791
 21
-670.20000995924488
 31
0.0
  0
LINE
  5
EB11
  8
01
 10
2049.249306293118
 20
-720.71532714184082
 30
0.0
 11
2049.249281880504
 21
-750.7153271417767
 31
0.0
  0
LINE
  5
EB4C
  8
01
 10
2102.849297774294
 20
-720.71533671041425
 30
0.0
 11
2102.8492977742981
 21
-750.7153367103474
 31
0.0
  0
LINE
  5
EB4D
  8
01
 10
2106.849302011221
 20
-720.71533688525642
 30
0.0
 11
2106.8493020112219
 21
-750.71533688519162
 31
0.0
  0
LINE
  5
EB51
  8
01
 10
2083.8493032041761
 20
-720.7153352242276
 30
0.0
 11
2083.849327616786
 21
-750.71533522416337
 31
0.0
  0
TEXT
  5
EC06
  8
01
 10
1865.5093935847619
 20
-572.88677656115681
 30
0.0
 40
7.999999999199999
  1
SH-015-XX-5
 41
0.8
  0
LINE
  5
EC07
  8
01
 10
1865.5093935847619
 20
-584.88677655995684
 30
0.0
 11
1900.509393581262
 21
-584.88677655995673
 31
0.0
  0
LINE
  5
EC08
  8
01
 10
1900.509393581262
 20
-584.88677655995684
 30
0.0
 11
1935.509393577762
 21
-584.88677655995684
 31
0.0
  0
TEXT
  5
EC09
  8
01
 10
1868.1903459654461
 20
-583.3867765601068
 30
0.0
 40
3.9999999995999991
  1
表面処理:脚部
 72
     1
 11
1883.0093935830121
 21
-583.3867765601068
 31
0.0
  0
LINE
  5
EC0A
  8
01
 10
1865.5093935847619
 20
-577.88677656065681
 30
0.0
 11
1900.509393581262
 21
-577.88677656065681
 31
0.0
  0
LINE
  5
EC0B
  8
01
 10
1900.509393581262
 20
-577.88677656065681
 30
0.0
 11
1935.509393577762
 21
-577.88677656065681
 31
0.0
  0
TEXT
  5
EC0C
  8
01
 10
1911.2427269135219
 20
-583.3867765601068
 30
0.0
 40
3.9999999995999991
  1
コード
 72
     1
 11
1917.909393579522
 21
-583.3867765601068
 31
0.0
  0
LINE
  5
EC0D
  8
01
 10
1900.509393581262
 20
-591.88677655925721
 30
0.0
 11
1935.509393577762
 21
-591.88677655925665
 31
0.0
  0
TEXT
  5
EC0E
  8
01
 10
1873.942726917252
 20
-590.36467157939376
 30
0.0
 40
3.9999999995999991
  1
クローム
 72
     1
 11
1883.0093935830121
 21
-590.36467157939376
 31
0.0
  0
LINE
  5
EC0F
  8
01
 10
1900.509393581262
 20
-577.88677656065681
 30
0.0
 11
1900.5093935812611
 21
-605.8867765578583
 31
0.0
  0
LINE
  5
EC10
  8
01
 10
1865.5093935847619
 20
-577.88677656065681
 30
0.0
 11
1865.5093935847619
 21
-605.88677655785796
 31
0.0
  0
TEXT
  5
EC11
  8
01
 10
1901.8427269144629
 20
-590.60113354303473
 30
0.0
 40
3.9999999995999991
  1
SH-015-XC-5
 41
0.7
 72
     1
 11
1917.9093935795231
 21
-590.60113354303473
 31
0.0
  0
LINE
  5
EC12
  8
01
 10
1865.5093935847599
 20
-591.88677655925721
 30
0.0
 11
1900.5093935812611
 21
-591.88677655925778
 31
0.0
  0
LINE
  5
EC13
  8
01
 10
1935.509393577762
 20
-577.88677656065681
 30
0.0
 11
1935.509393577762
 21
-605.88677655785739
 31
0.0
  0
LINE
  5
EC14
  8
01
 10
1900.509393581262
 20
-598.8867765585577
 30
0.0
 11
1935.509393577762
 21
-598.88677655855724
 31
0.0
  0
TEXT
  5
EC15
  8
01
 10
1866.209393584692
 20
-597.36467157869436
 30
0.0
 40
3.9999999995999991
  1
ブラストシルバー
 41
0.9
 72
     1
 11
1883.0093935830121
 21
-597.36467157869436
 31
0.0
  0
TEXT
  5
EC16
  8
01
 10
1901.9093935811229
 20
-597.60113354233545
 30
0.0
 40
3.9999999995999991
  1
SH-015-XS-5
 41
0.7
 72
     1
 11
1917.9093935795231
 21
-597.60113354233545
 31
0.0
  0
LINE
  5
EC17
  8
01
 10
1865.5093935847599
 20
-598.8867765585577
 30
0.0
 11
1900.5093935812611
 21
-598.88677655855815
 31
0.0
  0
LINE
  5
EC18
  8
01
 10
1900.509393581262
 20
-605.8867765578583
 30
0.0
 11
1935.509393577762
 21
-605.88677655785739
 31
0.0
  0
TEXT
  5
EC19
  8
01
 10
1866.209393584692
 20
-604.36467157799461
 30
0.0
 40
3.9999999995999991
  1
ブラストブラック
 41
0.9
 72
     1
 11
1883.0093935830121
 21
-604.36467157799461
 31
0.0
  0
TEXT
  5
EC1A
  8
01
 10
1901.8427269144629
 20
-604.60113354163559
 30
0.0
 40
3.9999999995999991
  1
SH-015-XK-5
 41
0.7
 72
     1
 11
1917.9093935795231
 21
-604.60113354163559
 31
0.0
  0
LINE
  5
EC1B
  8
01
 10
1865.5093935847599
 20
-605.8867765578583
 30
0.0
 11
1900.5093935812611
 21
-605.88677655785887
 31
0.0
  0
LINE
  5
EC52
  8
01
 10
2039.749307948822
 20
-723.71532646431865
 30
0.0
 11
2012.3858785832931
 21
-723.71532646431865
 31
0.0
  0
LINE
  5
EC53
  8
01
 10
2039.749307948822
 20
-747.71534494565083
 30
0.0
 11
2012.3858785832931
 21
-747.71534494565083
 31
0.0
  0
LINE
  5
EC54
  8
01
 10
2013.3858785832931
 20
-725.71532646431865
 30
0.0
 11
2013.3858785832931
 21
-745.71534494565083
 31
0.0
  0
LINE
  5
EC58
  8
01
 10
2051.249306293118
 20
-709.88391073541936
 30
0.0
 11
2058.5493039126682
 21
-709.88391073541936
 31
0.0
  0
LINE
  5
EC5C
  8
01
 10
2030.249311722994
 20
-720.71532862802633
 30
0.0
 11
2030.249311722994
 21
-708.88391073541936
 31
0.0
  0
LINE
  5
EC5D
  8
01
 10
2049.249306293118
 20
-720.71532714183923
 30
0.0
 11
2049.249306293118
 21
-708.88391073541936
 31
0.0
  0
LINE
  5
EC5E
  8
01
 10
2032.2493117229949
 20
-709.88391073541936
 30
0.0
 11
2047.249306293118
 21
-709.88391073541936
 31
0.0
  0
LINE
  5
EC62
  8
01
 10
2072.549302961947
 20
-706.35452726732683
 30
0.0
 11
2072.549302961947
 21
-701.15110624376189
 31
0.0
  0
LINE
  5
EC63
  8
01
 10
2107.8493020112219
 20
-721.71533692896764
 30
0.0
 11
2107.8493020112219
 21
-701.15110624376189
 31
0.0
  0
LINE
  5
EC64
  8
01
 10
2074.5493029619461
 20
-702.15110624376177
 30
0.0
 11
2105.8493020112219
 21
-702.15110624376177
 31
0.0
  0
LINE
  5
EC68
  8
01
 10
2025.249307486069
 20
-721.71532884658086
 30
0.0
 11
2025.249307486069
 21
-701.15110624376189
 31
0.0
  0
LINE
  5
EC69
  8
01
 10
2060.5493039126691
 20
-706.35452726732683
 30
0.0
 11
2060.5493039126691
 21
-701.15110624376189
 31
0.0
  0
LINE
  5
EC6A
  8
01
 10
2027.249307486069
 20
-702.15110624376177
 30
0.0
 11
2058.5493039126682
 21
-702.15110624376177
 31
0.0
  0
TEXT
  5
EC6E
  8
01
 10
2006.355336458796
 20
-679.47433542632234
 30
0.0
 40
3.5
  1
材質：アルミ
  0
TEXT
  5
EC6F
  8
01
 10
2006.355336458796
 20
-685.30766875965571
 30
0.0
 40
3.5
  1
仕上げ：各種仕上げ
  0
TEXT
  5
EC72
  8
01
 10
1920.90913968475
 20
-621.51857476609212
 30
0.0
 40
3.5
  1
材質：ゴム
  0
TEXT
  5
EC73
  8
01
 10
1920.90913968475
 20
-627.35190809942549
 30
0.0
 40
3.5
  1
仕上げ：ブラック
  0
LINE
  5
EC76
  8
01
 10
1973.1370469110771
 20
-641.87510389845431
 30
0.0
 11
1997.9083063139731
 21
-612.35386651196859
 31
0.0
  0
LINE
  5
EC77
  8
01
 10
1988.6370469110741
 20
-641.87510457598194
 30
0.0
 11
2013.408306882485
 21
-612.35386651196859
 31
0.0
  0
LINE
  5
EC78
  8
01
 10
1999.069206682796
 20
-613.35386651196859
 30
0.0
 11
2010.569207251307
 21
-613.35386651196859
 31
0.0
  0
LINE
  5
EC79
  8
01
 10
2012.5692072513079
 20
-613.35386651196859
 30
0.0
 11
2057.402540584641
 21
-613.35386651196859
 31
0.0
  0
TEXT
  5
EC7D
  8
01
 10
2009.5903656755479
 20
-582.38289234495448
 30
0.0
 40
3.5
  1
材質：アルミ
  0
TEXT
  5
EC7E
  8
01
 10
2009.5903656755479
 20
-588.21622567828786
 30
0.0
 40
3.5
  1
仕上げ：各種仕上げ
  0
TEXT
  5
EC81
  8
01
 10
2043.9064005044961
 20
-670.29935259871047
 30
0.0
 40
3.5
  1
ガラス扉対応厚8~12mm
  0
LINE
  5
EC84
  8
01
 10
1965.887046911078
 20
-735.71532666102291
 30
0.0
 11
1965.887046911078
 21
-701.15110624376189
 31
0.0
  0
LINE
  5
EC85
  8
01
 10
1995.887046911078
 20
-735.71532666102291
 30
0.0
 11
1995.887046911078
 21
-701.15110624376189
 31
0.0
  0
LINE
  5
EC86
  8
01
 10
1967.887046911078
 20
-702.15110624376177
 30
0.0
 11
1993.887046911078
 21
-702.15110624376177
 31
0.0
  0
TEXT
  5
EC8A
  8
01
 10
1975.353713577744
 20
-701.45110624376184
 30
0.0
 40
3.5
  1
\U+03C630
  0
LINE
  5
EC8B
  8
01
  6
BYBLOCK
 10
1993.887046911078
 20
-701.61520786376184
 30
0.0
 11
1995.887046911078
 21
-702.15110624376177
 31
0.0
  0
LINE
  5
EC8C
  8
01
  6
BYBLOCK
 10
1995.887046911078
 20
-702.15110624376177
 30
0.0
 11
1993.887046911078
 21
-702.68700462376194
 31
0.0
  0
LINE
  5
EC8D
  8
01
  6
BYBLOCK
 10
1995.887046911078
 20
-702.15110624376177
 30
0.0
 11
1993.887046911078
 21
-702.15110624376177
 31
0.0
  0
LINE
  5
EC8E
  8
01
  6
BYBLOCK
 10
1967.887046911078
 20
-702.68700462376194
 30
0.0
 11
1965.887046911078
 21
-702.15110624376177
 31
0.0
  0
LINE
  5
EC8F
  8
01
  6
BYBLOCK
 10
1965.887046911078
 20
-702.15110624376177
 30
0.0
 11
1967.887046911078
 21
-701.61520786376184
 31
0.0
  0
LINE
  5
EC90
  8
01
  6
BYBLOCK
 10
1965.887046911078
 20
-702.15110624376177
 30
0.0
 11
1967.887046911078
 21
-702.15110624376177
 31
0.0
  0
LINE
  5
EC91
  8
01
 10
2026.76337266165
 20
-653.26697387946717
 30
0.0
 11
2041.2064005044961
 21
-670.99935259871063
 31
0.0
1001
ACAD
1000
DSTYLE
1002
{
1070
    40
1040
1.0
1002
}
  0
LINE
  5
EC92
  8
01
 10
2041.2064005044961
 20
-670.99935259871063
 30
0.0
 11
2043.9064005044961
 21
-670.99935259871063
 31
0.0
1001
ACAD
1000
DSTYLE
1002
{
1070
    40
1040
1.0
1002
}
  0
LINE
  5
EC93
  8
01
  6
BYBLOCK
 10
2026.347861501361
 20
-653.60540784549573
 30
0.0
 11
2025.500319893966
 21
-651.71626510408623
 31
0.0
  0
LINE
  5
EC94
  8
01
  6
BYBLOCK
 10
2025.500319893966
 20
-651.71626510408623
 30
0.0
 11
2027.1788838219391
 21
-652.92853991343895
 31
0.0
  0
LINE
  5
EC95
  8
01
  6
BYBLOCK
 10
2025.500319893966
 20
-651.71626510408623
 30
0.0
 11
2026.76337266165
 21
-653.26697387946717
 31
0.0
  0
LINE
  5
EC96
  8
01
 10
1994.5633343979889
 20
-604.98814237111765
 30
0.0
 11
2006.8903656755481
 21
-588.91622567828801
 31
0.0
1001
ACAD
1000
DSTYLE
1002
{
1070
    40
1040
1.0
1002
}
  0
LINE
  5
EC97
  8
01
 10
2006.8903656755481
 20
-588.91622567828801
 30
0.0
 11
2009.5903656755479
 21
-588.91622567828801
 31
0.0
1001
ACAD
1000
DSTYLE
1002
{
1070
    40
1040
1.0
1002
}
  0
LINE
  5
EC98
  8
01
  6
BYBLOCK
 10
1994.988559957435
 20
-605.31428696678086
 30
0.0
 11
1993.3461461853169
 21
-606.57510577804703
 31
0.0
  0
LINE
  5
EC99
  8
01
  6
BYBLOCK
 10
1993.3461461853169
 20
-606.57510577804703
 30
0.0
 11
1994.1381088385431
 21
-604.66199777545478
 31
0.0
  0
LINE
  5
EC9A
  8
01
  6
BYBLOCK
 10
1993.3461461853169
 20
-606.57510577804703
 30
0.0
 11
1994.5633343979889
 21
-604.98814237111765
 31
0.0
  0
TEXT
  5
EC9B
  8
01
 10
2015.269207251308
 20
-612.65386651196854
 30
0.0
 40
3.5
  1
ガラス扉穴加工:\U+03C616
  0
LINE
  5
EC9C
  8
01
  6
BYBLOCK
 10
2010.569207251307
 20
-612.81796813196854
 30
0.0
 11
2012.5692072513079
 21
-613.35386651196859
 31
0.0
  0
LINE
  5
EC9D
  8
01
  6
BYBLOCK
 10
2012.5692072513079
 20
-613.35386651196859
 30
0.0
 11
2010.569207251307
 21
-613.88976489196864
 31
0.0
  0
LINE
  5
EC9E
  8
01
  6
BYBLOCK
 10
2012.5692072513079
 20
-613.35386651196859
 30
0.0
 11
2010.569207251307
 21
-613.35386651196859
 31
0.0
  0
LINE
  5
EC9F
  8
01
  6
BYBLOCK
 10
1999.069206682796
 20
-613.88976489196864
 30
0.0
 11
1997.069206682796
 21
-613.35386651196859
 31
0.0
  0
LINE
  5
ECA0
  8
01
  6
BYBLOCK
 10
1997.069206682796
 20
-613.35386651196859
 30
0.0
 11
1999.069206682796
 21
-612.81796813196854
 31
0.0
  0
LINE
  5
ECA1
  8
01
  6
BYBLOCK
 10
1997.069206682796
 20
-613.35386651196859
 30
0.0
 11
1999.069206682796
 21
-613.35386651196859
 31
0.0
  0
LINE
  5
ECA2
  8
01
 10
1974.472189025093
 20
-646.35125496872286
 30
0.0
 11
1956.275806351417
 21
-628.05190809942553
 31
0.0
1001
ACAD
1000
DSTYLE
1002
{
1070
    40
1040
1.0
1002
}
  0
LINE
  5
ECA3
  8
01
 10
1956.275806351417
 20
-628.05190809942553
 30
0.0
 11
1953.575806351417
 21
-628.05190809942553
 31
0.0
1001
ACAD
1000
DSTYLE
1002
{
1070
    40
1040
1.0
1002
}
  0
LINE
  5
ECA4
  8
01
  6
BYBLOCK
 10
1974.85219397479
 20
-645.97338817752188
 30
0.0
 11
1975.8824071011429
 21
-647.76945276098672
 31
0.0
  0
LINE
  5
ECA5
  8
01
  6
BYBLOCK
 10
1975.8824071011429
 20
-647.76945276098672
 30
0.0
 11
1974.0921840753961
 21
-646.72912175992394
 31
0.0
  0
LINE
  5
ECA6
  8
01
  6
BYBLOCK
 10
1975.8824071011429
 20
-647.76945276098672
 30
0.0
 11
1974.472189025093
 21
-646.35125496872286
 31
0.0
  0
LINE
  5
ECA7
  8
01
 10
1991.196274917472
 20
-671.13393860274914
 30
0.0
 11
2003.655336458796
 21
-686.00766875965564
 31
0.0
1001
ACAD
1000
DSTYLE
1002
{
1070
    40
1040
1.0
1002
}
  0
LINE
  5
ECA8
  8
01
 10
2003.655336458796
 20
-686.00766875965564
 30
0.0
 11
2006.355336458796
 21
-686.00766875965564
 31
0.0
1001
ACAD
1000
DSTYLE
1002
{
1070
    40
1040
1.0
1002
}
  0
LINE
  5
ECA9
  8
01
  6
BYBLOCK
 10
1990.7854609564561
 20
-671.47805916755294
 30
0.0
 11
1989.9119994740429
 21
-669.60076001386778
 31
0.0
  0
LINE
  5
ECAA
  8
01
  6
BYBLOCK
 10
1989.9119994740429
 20
-669.60076001386778
 30
0.0
 11
1991.607088878488
 21
-670.78981803794511
 31
0.0
  0
LINE
  5
ECAB
  8
01
  6
BYBLOCK
 10
1989.9119994740429
 20
-669.60076001386778
 30
0.0
 11
1991.196274917472
 21
-671.13393860274914
 31
0.0
  0
TEXT
  5
ECAC
  8
01
 10
2039.565972366036
 20
-701.45110624376184
 30
0.0
 40
3.5
  1
35
  0
LINE
  5
ECAD
  8
01
  6
BYBLOCK
 10
2058.5493039126682
 20
-701.61520786376184
 30
0.0
 11
2060.5493039126691
 21
-702.15110624376177
 31
0.0
  0
LINE
  5
ECAE
  8
01
  6
BYBLOCK
 10
2060.5493039126691
 20
-702.15110624376177
 30
0.0
 11
2058.5493039126682
 21
-702.68700462376194
 31
0.0
  0
LINE
  5
ECAF
  8
01
  6
BYBLOCK
 10
2060.5493039126691
 20
-702.15110624376177
 30
0.0
 11
2058.5493039126682
 21
-702.15110624376177
 31
0.0
  0
LINE
  5
ECB0
  8
01
  6
BYBLOCK
 10
2027.249307486069
 20
-702.68700462376194
 30
0.0
 11
2025.249307486069
 21
-702.15110624376177
 31
0.0
  0
LINE
  5
ECB1
  8
01
  6
BYBLOCK
 10
2025.249307486069
 20
-702.15110624376177
 30
0.0
 11
2027.249307486069
 21
-701.61520786376184
 31
0.0
  0
LINE
  5
ECB2
  8
01
  6
BYBLOCK
 10
2025.249307486069
 20
-702.15110624376177
 30
0.0
 11
2027.249307486069
 21
-702.15110624376177
 31
0.0
  0
TEXT
  5
ECB3
  8
01
 10
2086.8659691532512
 20
-701.45110624376184
 30
0.0
 40
3.5
  1
35
  0
LINE
  5
ECB4
  8
01
  6
BYBLOCK
 10
2105.8493020112219
 20
-701.61520786376184
 30
0.0
 11
2107.8493020112219
 21
-702.15110624376177
 31
0.0
  0
LINE
  5
ECB5
  8
01
  6
BYBLOCK
 10
2107.8493020112219
 20
-702.15110624376177
 30
0.0
 11
2105.8493020112219
 21
-702.68700462376194
 31
0.0
  0
LINE
  5
ECB6
  8
01
  6
BYBLOCK
 10
2107.8493020112219
 20
-702.15110624376177
 30
0.0
 11
2105.8493020112219
 21
-702.15110624376177
 31
0.0
  0
LINE
  5
ECB7
  8
01
  6
BYBLOCK
 10
2074.5493029619461
 20
-702.68700462376194
 30
0.0
 11
2072.549302961947
 21
-702.15110624376177
 31
0.0
  0
LINE
  5
ECB8
  8
01
  6
BYBLOCK
 10
2072.549302961947
 20
-702.15110624376177
 30
0.0
 11
2074.5493029619461
 21
-701.61520786376184
 31
0.0
  0
LINE
  5
ECB9
  8
01
  6
BYBLOCK
 10
2072.549302961947
 20
-702.15110624376177
 30
0.0
 11
2074.5493029619461
 21
-702.15110624376177
 31
0.0
  0
TEXT
  5
ECBA
  8
01
 10
2036.2493090080559
 20
-709.18391073541943
 30
0.0
 40
3.5
  1
19
  0
LINE
  5
ECBB
  8
01
  6
BYBLOCK
 10
2047.249306293118
 20
-709.34801235541931
 30
0.0
 11
2049.249306293118
 21
-709.88391073541936
 31
0.0
  0
LINE
  5
ECBC
  8
01
  6
BYBLOCK
 10
2049.249306293118
 20
-709.88391073541936
 30
0.0
 11
2047.249306293118
 21
-710.41980911541953
 31
0.0
  0
LINE
  5
ECBD
  8
01
  6
BYBLOCK
 10
2049.249306293118
 20
-709.88391073541936
 30
0.0
 11
2047.249306293118
 21
-709.88391073541936
 31
0.0
  0
LINE
  5
ECBE
  8
01
  6
BYBLOCK
 10
2032.2493117229949
 20
-710.41980911541953
 30
0.0
 11
2030.249311722994
 21
-709.88391073541936
 31
0.0
  0
LINE
  5
ECBF
  8
01
  6
BYBLOCK
 10
2030.249311722994
 20
-709.88391073541936
 30
0.0
 11
2032.2493117229949
 21
-709.34801235541931
 31
0.0
  0
LINE
  5
ECC0
  8
01
  6
BYBLOCK
 10
2030.249311722994
 20
-709.88391073541936
 30
0.0
 11
2032.2493117229949
 21
-709.88391073541936
 31
0.0
  0
TEXT
  5
ECC1
  8
01
 10
2051.8159717695598
 20
-709.18391073541943
 30
0.0
 40
3.5
  1
11
  0
LINE
  5
ECC2
  8
01
  6
BYBLOCK
 10
2058.5493039126682
 20
-709.34801235541931
 30
0.0
 11
2060.5493039126691
 21
-709.88391073541936
 31
0.0
  0
LINE
  5
ECC3
  8
01
  6
BYBLOCK
 10
2060.5493039126691
 20
-709.88391073541936
 30
0.0
 11
2058.5493039126682
 21
-710.41980911541953
 31
0.0
  0
LINE
  5
ECC4
  8
01
  6
BYBLOCK
 10
2060.5493039126691
 20
-709.88391073541936
 30
0.0
 11
2058.5493039126682
 21
-709.88391073541936
 31
0.0
  0
LINE
  5
ECC5
  8
01
  6
BYBLOCK
 10
2051.249306293118
 20
-710.41980911541953
 30
0.0
 11
2049.249306293118
 21
-709.88391073541936
 31
0.0
  0
LINE
  5
ECC6
  8
01
  6
BYBLOCK
 10
2049.249306293118
 20
-709.88391073541936
 30
0.0
 11
2051.249306293118
 21
-709.34801235541931
 31
0.0
  0
LINE
  5
ECC7
  8
01
  6
BYBLOCK
 10
2049.249306293118
 20
-709.88391073541936
 30
0.0
 11
2051.249306293118
 21
-709.88391073541936
 31
0.0
  0
TEXT
  5
ECC8
  8
01
 10
2012.6858785832931
 20
-741.33200237165113
 30
0.0
 40
3.5
  1
\U+03C624
 50
90.0
  0
LINE
  5
ECC9
  8
01
  6
BYBLOCK
 10
2013.921776963293
 20
-745.71534494565083
 30
0.0
 11
2013.3858785832931
 21
-747.71534494565083
 31
0.0
  0
LINE
  5
ECCA
  8
01
  6
BYBLOCK
 10
2013.3858785832931
 20
-747.71534494565083
 30
0.0
 11
2012.8499802032929
 21
-745.71534494565083
 31
0.0
  0
LINE
  5
ECCB
  8
01
  6
BYBLOCK
 10
2013.3858785832931
 20
-747.71534494565083
 30
0.0
 11
2013.3858785832931
 21
-745.71534494565083
 31
0.0
  0
LINE
  5
ECCC
  8
01
  6
BYBLOCK
 10
2012.8499802032929
 20
-725.71532646431865
 30
0.0
 11
2013.3858785832931
 21
-723.71532646431865
 31
0.0
  0
LINE
  5
ECCD
  8
01
  6
BYBLOCK
 10
2013.3858785832931
 20
-723.71532646431865
 30
0.0
 11
2013.921776963293
 21
-725.71532646431865
 31
0.0
  0
LINE
  5
ECCE
  8
01
  6
BYBLOCK
 10
2013.3858785832931
 20
-723.71532646431865
 30
0.0
 11
2013.3858785832931
 21
-725.71532646431865
 31
0.0
  0
VIEWPORT
  5
2FC
 67
     1
  8
0
 10
37.314308206721357
 20
9.220295062513955
 30
0.0
 40
588.05329248446697
 41
270.37704149599568
 68
     1
 69
     1
1001
ACAD
1000
MVIEW
1002
{
1070
    16
1010
0.0
1020
0.0
1030
0.0
1010
0.0
1020
0.0
1030
1.0
1040
0.0
1040
270.37704149599568
1040
37.314308206721357
1040
9.220295062513955
1040
50.0
1040
0.0
1040
0.0
1070
     0
1070
   100
1070
     1
1070
     1
1070
     0
1070
     0
1070
     0
1070
     0
1040
0.0
1040
0.0
1040
0.0
1040
10.0
1040
10.0
1040
10.0
1040
10.0
1070
     0
1002
{
1002
}
1002
}
  0
ENDSEC
  0
EOF
