  0
SECTION
  2
HEADER
  9
$ACADVER
  1
AC1009
  9
$INSBASE
 10
0.0
 20
0.0
 30
0.0
  9
$EXTMIN
 10
862.49300124131139
 20
-994.57511029819204
 30
0.0
  9
$EXTMAX
 10
1582.723085114166
 20
-540.44590253395575
 30
0.0
  9
$LIMMIN
 10
0.0
 20
0.0
  9
$LIMMAX
 10
12.0
 20
9.0
  9
$ORTHOMODE
 70
     0
  9
$REGENMODE
 70
     1
  9
$FILLMODE
 70
     1
  9
$QTEXTMODE
 70
     0
  9
$MIRRTEXT
 70
     0
  9
$DRAGMODE
 70
     2
  9
$LTSCALE
 40
0.5
  9
$OSMODE
 70
    63
  9
$ATTMODE
 70
     1
  9
$TEXTSIZE
 40
12.0
  9
$TRACEWID
 40
0.05
  9
$TEXTSTYLE
  7
STANDARD
  9
$CLAYER
  8
1TEXT
  9
$CELTYPE
  6
BYLAYER
  9
$CECOLOR
 62
   256
  9
$DIMSCALE
 40
2.0
  9
$DIMASZ
 40
2.0
  9
$DIMEXO
 40
0.0
  9
$DIMDLI
 40
7.0
  9
$DIMRND
 40
0.0
  9
$DIMDLE
 40
0.0
  9
$DIMEXE
 40
1.0
  9
$DIMTP
 40
0.0
  9
$DIMTM
 40
0.0
  9
$DIMTXT
 40
3.5
  9
$DIMCEN
 40
0.0
  9
$DIMTSZ
 40
0.0
  9
$DIMTOL
 70
     0
  9
$DIMLIM
 70
     0
  9
$DIMTIH
 70
     0
  9
$DIMTOH
 70
     0
  9
$DIMSE1
 70
     0
  9
$DIMSE2
 70
     0
  9
$DIMTAD
 70
     1
  9
$DIMZIN
 70
     8
  9
$DIMBLK
  1

  9
$DIMASO
 70
     1
  9
$DIMSHO
 70
     1
  9
$DIMPOST
  1
 
  9
$DIMAPOST
  1

  9
$DIMALT
 70
     0
  9
$DIMALTD
 70
     2
  9
$DIMALTF
 40
25.399999999999999
  9
$DIMLFAC
 40
1.0
  9
$DIMTOFL
 70
     1
  9
$DIMTVP
 40
0.0
  9
$DIMTIX
 70
     0
  9
$DIMSOXD
 70
     0
  9
$DIMSAH
 70
     1
  9
$DIMBLK1
  1
OPEN30
  9
$DIMBLK2
  1
OPEN30
  9
$DIMSTYLE
  2
NEWX10
  9
$DIMCLRD
 70
   256
  9
$DIMCLRE
 70
   256
  9
$DIMCLRT
 70
   201
  9
$DIMTFAC
 40
0.7
  9
$DIMGAP
 40
0.7
  9
$LUNITS
 70
     2
  9
$LUPREC
 70
     4
  9
$SKETCHINC
 40
0.1
  9
$FILLETRAD
 40
0.0
  9
$AUNITS
 70
     0
  9
$AUPREC
 70
     2
  9
$MENU
  1
acad
  9
$ELEVATION
 40
0.0
  9
$PELEVATION
 40
0.0
  9
$THICKNESS
 40
0.0
  9
$LIMCHECK
 70
     0
  9
$BLIPMODE
 70
     0
  9
$CHAMFERA
 40
0.0
  9
$CHAMFERB
 40
0.0
  9
$SKPOLY
 70
     0
  9
$TDCREATE
 40
2448750.4870892358
  9
$TDUPDATE
 40
2456722.4618822341
  9
$TDINDWG
 40
1.5023267245
  9
$TDUSRTIMER
 40
1.5023267245
  9
$USRTIMER
 70
     1
  9
$ANGBASE
 50
0.0
  9
$ANGDIR
 70
     0
  9
$PDMODE
 70
     0
  9
$PDSIZE
 40
0.0
  9
$PLINEWID
 40
1.0
  9
$COORDS
 70
     0
  9
$SPLFRAME
 70
     0
  9
$SPLINETYPE
 70
     6
  9
$SPLINESEGS
 70
     8
  9
$ATTDIA
 70
     0
  9
$ATTREQ
 70
     1
  9
$HANDLING
 70
     1
  9
$HANDSEED
  5
DA3A
  9
$SURFTAB1
 70
     6
  9
$SURFTAB2
 70
     6
  9
$SURFTYPE
 70
     6
  9
$SURFU
 70
     6
  9
$SURFV
 70
     6
  9
$UCSNAME
  2

  9
$UCSORG
 10
0.0
 20
0.0
 30
0.0
  9
$UCSXDIR
 10
1.0
 20
0.0
 30
0.0
  9
$UCSYDIR
 10
0.0
 20
1.0
 30
0.0
  9
$PUCSNAME
  2

  9
$PUCSORG
 10
0.0
 20
0.0
 30
0.0
  9
$PUCSXDIR
 10
1.0
 20
0.0
 30
0.0
  9
$PUCSYDIR
 10
0.0
 20
1.0
 30
0.0
  9
$USERI1
 70
     0
  9
$USERI2
 70
     0
  9
$USERI3
 70
     0
  9
$USERI4
 70
     0
  9
$USERI5
 70
     0
  9
$USERR1
 40
0.0
  9
$USERR2
 40
0.0
  9
$USERR3
 40
0.0
  9
$USERR4
 40
0.0
  9
$USERR5
 40
0.0
  9
$WORLDVIEW
 70
     1
  9
$SHADEDGE
 70
     3
  9
$SHADEDIF
 70
    70
  9
$TILEMODE
 70
     1
  9
$MAXACTVP
 70
    16
  9
$PLIMCHECK
 70
     0
  9
$PEXTMIN
 10
1.0000000000000000E+020
 20
1.0000000000000000E+020
 30
1.0000000000000000E+020
  9
$PEXTMAX
 10
-1.0000000000000000E+020
 20
-1.0000000000000000E+020
 30
-1.0000000000000000E+020
  9
$PLIMMIN
 10
-220.1847950731335
 20
-136.082518103414
  9
$PLIMMAX
 10
199.761860200304
 20
160.84347676963279
  9
$UNITMODE
 70
     0
  9
$VISRETAIN
 70
     0
  9
$PLINEGEN
 70
     0
  9
$PSLTSCALE
 70
     1
  0
ENDSEC
  0
SECTION
  2
TABLES
  0
TABLE
  2
VPORT
 70
     1
  0
VPORT
  2
*ACTIVE
 70
     0
 10
0.0
 20
0.0
 11
1.0
 21
1.0
 12
1222.6279879738561
 22
-767.50888917277348
 13
0.0
 23
0.0
 14
1.0
 24
1.0
 15
0.0
 25
0.0
 16
0.0
 26
0.0
 36
1.0
 17
0.0
 27
0.0
 37
0.0
 40
481.62269051063862
 41
2.1771217712177111
 42
50.0
 43
0.0
 44
0.0
 50
0.0
 51
0.0
 71
     0
 72
  1000
 73
     1
 74
     1
 75
     0
 76
     0
 77
     0
 78
     0
  0
ENDTAB
  0
TABLE
  2
LTYPE
 70
    14
  0
LTYPE
  2
CONTINUOUS
 70
     0
  3
Solid line
 72
    65
 73
     0
 40
0.0
  0
LTYPE
  2
A3WAKUDAKE|CENTER2
 70
    48
  3
Center (.5x) ___ _ ___ _ ___ _ ___ _ ___ _ ___
 72
    65
 73
     4
 40
28.574999999999999
 49
19.050000000000001
 49
-3.1749999999999989
 49
3.1749999999999989
 49
-3.1749999999999989
  0
LTYPE
  2
XREF1|CENTER2
 70
    48
  3
Center (.5x) ___ _ ___ _ ___ _ ___ _ ___ _ ___
 72
    65
 73
     4
 40
28.574999999999999
 49
19.050000000000001
 49
-3.1749999999999989
 49
3.1749999999999989
 49
-3.1749999999999989
  0
ENDTAB
  0
TABLE
  2
LAYER
 70
    49
  0
LAYER
  2
0
 70
     0
 62
     7
  6
CONTINUOUS
  0
LAYER
  2
1TEXT
 70
     0
 62
     7
  6
CONTINUOUS
  0
LAYER
  2
01
 70
     0
 62
     1
  6
CONTINUOUS
  0
LAYER
  2
A3WAKUDAKE|THICK
 70
    48
 62
     7
  6
CONTINUOUS
  0
LAYER
  2
A3WAKUDAKE|POINT
 70
    48
 62
     7
  6
CONTINUOUS
  0
LAYER
  2
A3WAKUDAKE|1CENTER
 70
    48
 62
     7
  6
CONTINUOUS
  0
LAYER
  2
A3WAKUDAKE|0-6
 70
    48
 62
     7
  6
CONTINUOUS
  0
LAYER
  2
A3WAKUDAKE|1DIM
 70
    48
 62
     7
  6
CONTINUOUS
  0
LAYER
  2
XREF1|1CENTER
 70
    48
 62
     7
  6
CONTINUOUS
  0
ENDTAB
  0
TABLE
  2
STYLE
 70
     8
  0
STYLE
  2
STANDARD
 70
     0
 40
0.0
 41
1.0
 50
0.0
 71
     0
 42
12.0
  3
romans.shx
  4
extfont2.shx
  0
ENDTAB
  0
TABLE
  2
VIEW
 70
     5
  0
ENDTAB
  0
TABLE
  2
UCS
 70
     5
  0
UCS
  2
U
 70
     0
 10
0.0
 20
0.0
 30
0.0
 11
1.0
 21
0.0
 31
0.0
 12
0.0
 22
0.0000000000000002
 32
1.0
  0
UCS
  2
L
 70
     0
 10
0.0
 20
0.0
 30
0.0
 11
-0.0000000000000002
 21
-1.0
 31
0.0000000000000002
 12
0.0
 22
0.0000000000000002
 32
1.0
  0
UCS
  2
R
 70
     0
 10
0.0
 20
0.0
 30
0.0
 11
0.0000000000000003
 21
1.0
 31
-0.0000000000000002
 12
0.0
 22
0.0000000000000002
 32
1.0
  0
UCS
  2
ISOME
 70
     0
 10
0.0
 20
0.0
 30
0.0
 11
0.7071450863198266
 21
-0.7070684729403536
 31
-0.0000383082461947
 12
0.4082704059428735
 22
0.4082704077401152
 32
0.8164744636514736
  0
UCS
  2
PERSPECTIVE
 70
     0
 10
0.0
 20
0.0
 30
0.0
 11
0.8191477691768963
 21
-0.5735823260466403
 31
-0.0004974931557765
 12
0.1584844715982971
 22
0.225502028986108
 32
0.961265575782966
  0
ENDTAB
  0
TABLE
  2
APPID
 70
    21
  0
APPID
  2
ACAD
 70
     0
  0
APPID
  2
CONTENTTABDATA
 70
     0
  0
APPID
  2
CONTENTCURRENTTAB
 70
     0
  0
APPID
  2
CONTENTBLOCKDESCRIPTION
 70
     0
  0
APPID
  2
CONTENTBLOCKICON
 70
     0
  0
APPID
  2
DRAWINGVARIABLESXDATA
 70
     0
  0
APPID
  2
CONTENTLONGBLOCKNAME
 70
     0
  0
APPID
  2
ACAD_MLEADERVER
 70
     0
  0
APPID
  2
ACAD_PSEXT
 70
     0
  0
APPID
  2
ACADANNOTATIVE
 70
     0
  0
APPID
  2
ACDBBLOCKREPETAG
 70
     0
  0
APPID
  2
ACDBDYNAMICBLOCKGUID
 70
     0
  0
APPID
  2
ACAUTHENVIRON
 70
     0
  0
APPID
  2
ACDBDYNAMICBLOCKTRUENAME
 70
     0
  0
APPID
  2
ACAD_EXEMPT_FROM_CAD_STANDARDS
 70
     0
  0
APPID
  2
ACADANNOAV
 70
     0
  0
APPID
  2
ACAD_DSTYLE_DIMRADIAL_EXTENSION
 70
     0
  0
APPID
  2
ACAD_DIMASSOC_CALC_DIMLFAC
 70
     0
  0
APPID
  2
ACAD_DIMASSOC_DIMLFAC
 70
     0
  0
APPID
  2
ACAD_DIMASSOC_OVERRIDDEN_D
 70
     0
  0
APPID
  2
ACAD_NAV_VCDISPLAY
 70
     0
  0
ENDTAB
  0
TABLE
  2
DIMSTYLE
 70
     8
  0
DIMSTYLE
  2
NEWX10
 70
     0
  3
 
  4

  5

  6
OPEN30
  7
OPEN30
 40
1.0
 41
2.0
 42
0.0
 43
7.0
 44
1.0
 45
0.0
 46
0.0
 47
0.0
 48
0.0
140
3.5
141
0.0
142
0.0
143
25.399999999999999
144
1.0
145
0.0
146
0.7
147
0.7
 71
     0
 72
     0
 73
     0
 74
     0
 75
     0
 76
     0
 77
     1
 78
     8
170
     0
171
     2
172
     1
173
     1
174
     0
175
     0
176
   256
177
   256
178
   201
  0
ENDTAB
  0
ENDSEC
  0
SECTION
  2
BLOCKS
  0
BLOCK
  8
0
  2
$MODEL_SPACE
 70
     0
 10
0.0
 20
0.0
 30
0.0
  3
$MODEL_SPACE
  1

  0
ENDBLK
  5
1B
  8
0
  0
BLOCK
 67
     1
  8
0
  2
$PAPER_SPACE
 70
     0
 10
0.0
 20
0.0
 30
0.0
  3
$PAPER_SPACE
  1

  0
ENDBLK
  5
18
 67
     1
  8
0
  0
BLOCK
  8
0
  2
_OPEN30
 70
     0
 10
0.0
 20
0.0
 30
0.0
  3
_OPEN30
  1

  0
LINE
  5
391
  8
0
  6
BYBLOCK
 62
     0
 10
-1.0
 20
0.26794919
 30
0.0
 11
0.0
 21
0.0
 31
0.0
  0
LINE
  5
392
  8
0
  6
BYBLOCK
 62
     0
 10
0.0
 20
0.0
 30
0.0
 11
-1.0
 21
-0.26794919
 31
0.0
  0
LINE
  5
393
  8
0
  6
BYBLOCK
 62
     0
 10
0.0
 20
0.0
 30
0.0
 11
-1.0
 21
0.0
 31
0.0
  0
ENDBLK
  5
394
  8
0
  0
BLOCK
  8
0
  2
A3WAKUDAKE
 70
    36
 10
0.0
 20
0.0
 30
0.0
  3
A3WAKUDAKE
  1
D:\ACLT\FORMAT\A3WAKUdake.dwg
  0
ENDBLK
  5
B8D1
  8
0
  0
BLOCK
  8
0
  2
XREF1
 70
    36
 10
0.0
 20
0.0
 30
0.0
  3
XREF1
  1
D:\ACLT\FORMAT\KAWAJUN(9)図面用.dwg
  0
ENDBLK
  5
D570
  8
0
  0
ENDSEC
  0
SECTION
  2
ENTITIES
  0
LINE
  5
C80D
  8
01
  6
BYBLOCK
 10
1410.0487685972871
 20
-866.72840861385134
 30
0.0
 11
1430.0487685972901
 21
-866.72840861385225
 31
0.0
  0
ARC
  5
C80E
  8
01
 10
1410.0487685972871
 20
-867.72840861385134
 30
0.0
 40
1.0
 50
90.0
 51
180.0
  0
LINE
  5
C80F
  8
01
  6
BYBLOCK
 10
1410.0487685972871
 20
-888.72840861385225
 30
0.0
 11
1430.0487685972901
 21
-888.72840861385316
 31
0.0
  0
ARC
  5
C810
  8
01
 10
1430.0487685972901
 20
-887.72840861385316
 30
0.0
 40
1.0
 50
270.0
 51
0.000000000000007
  0
ARC
  5
C811
  8
01
 10
1410.0487685972871
 20
-887.72840861385225
 30
0.0
 40
1.0
 50
180.0
 51
270.0
  0
LINE
  5
C813
  8
01
 10
1431.0487685972901
 20
-870.72840861385225
 30
0.0
 11
1441.0487685972901
 21
-870.72840861385225
 31
0.0
  0
LINE
  5
C814
  8
01
 10
1431.0487685972901
 20
-884.72840861385134
 30
0.0
 11
1441.0487685972901
 21
-884.72840861385043
 31
0.0
  0
LINE
  5
C816
  8
01
 10
1473.248794114269
 20
-865.22916337456695
 30
0.0
 11
1473.2487944857769
 21
-873.72840861385055
 31
0.0
  0
LINE
  5
C817
  8
01
 10
1473.2487948354631
 20
-881.72840861385134
 30
0.0
 11
1473.248795207038
 21
-890.22916337456695
 31
0.0
  0
LINE
  5
C81A
  8
01
  6
BYBLOCK
 10
1371.874816548092
 20
-783.71372627250912
 30
0.0
 11
1371.8748165480961
 21
-763.71372627250912
 31
0.0
  0
LINE
  5
C81D
  8
01
 10
1370.874816548092
 20
-784.71372627250878
 30
0.0
 11
872.87481654809199
 21
-784.71372627250946
 31
0.0
  0
ARC
  5
C81E
  8
01
 10
1370.874816548092
 20
-783.71372627250889
 30
0.0
 40
1.0
 50
270.0
 51
359.99999999997402
  0
LINE
  5
C820
  8
01
 10
1370.8748165480949
 20
-762.71372627250889
 30
0.0
 11
907.87481654808187
 21
-762.71372627250855
 31
0.0
  0
LINE
  5
C821
  8
01
 10
902.87481654810654
 20
-762.71372627250912
 30
0.0
 11
900.97516710867728
 21
-762.71372627250912
 31
0.0
  0
LINE
  5
C822
  8
01
 10
892.77516710868076
 20
-762.71372627250889
 30
0.0
 11
872.8748165480938
 21
-762.71372627250889
 31
0.0
  0
ARC
  5
C823
  8
01
 10
1370.8748165480949
 20
-763.71372627250878
 30
0.0
 40
1.0
 50
359.99999999997402
 51
90.000000000000028
  0
LINE
  5
C826
  8
01
 10
872.8748165480938
 20
-888.88715399164084
 30
0.0
 11
1370.874816548094
 21
-888.88715399164039
 31
0.0
  0
ARC
  5
C827
  8
01
 10
872.8748165480938
 20
-887.88715399164084
 30
0.0
 40
1.0
 50
180.0
 51
270.0
  0
LINE
  5
C828
  8
01
 10
872.8748165480938
 20
-866.88715399163698
 30
0.0
 11
1370.874816548094
 21
-866.88715399163698
 31
0.0
  0
ARC
  5
C829
  8
01
 10
1370.874816548094
 20
-867.88715399163698
 30
0.0
 40
1.0
 50
0.0
 51
90.0
  0
LINE
  5
C82A
  8
01
 10
1359.3744659875069
 20
-720.51370075555678
 30
0.0
 11
1334.3744659875069
 21
-720.51369966277571
 31
0.0
  0
LINE
  5
C82C
  8
01
 10
1473.5487954382729
 20
-888.72902867337666
 30
0.0
 11
1473.5487957442811
 21
-881.72840861385134
 31
0.0
  0
LINE
  5
C82E
  8
01
 10
1473.548796093974
 20
-873.72840861385055
 30
0.0
 11
1473.5487963999269
 21
-866.72902867337655
 31
0.0
  0
LINE
  5
C82F
  8
01
  6
BYBLOCK
 10
1485.548795919128
 20
-869.97840861385225
 30
0.0
 11
1473.548795919128
 21
-869.9784096629262
 31
0.0
  0
LINE
  5
C830
  8
01
  6
BYBLOCK
 10
1473.5487959191289
 20
-885.47840966292517
 30
0.0
 11
1485.548795919128
 21
-885.47840861385225
 31
0.0
  0
LINE
  5
C831
  8
01
 10
1354.624817072629
 20
-720.21369838241912
 30
0.0
 11
1354.624816548092
 21
-708.21369838241912
 31
0.0
  0
LINE
  5
C832
  8
01
 10
1339.1248165480929
 20
-708.213699059948
 30
0.0
 11
1339.124817072629
 21
-720.213699059948
 31
0.0
  0
LINE
  5
C833
  8
01
  6
BYBLOCK
 10
871.8748165480938
 20
-867.88715399163698
 30
0.0
 11
871.8748165480938
 21
-887.88715399164084
 31
0.0
  0
ARC
  5
C834
  8
01
 10
872.8748165480938
 20
-867.88715399163698
 30
0.0
 40
1.0
 50
90.0
 51
180.0
  0
LINE
  5
C835
  8
01
  6
BYBLOCK
 10
1371.874816548094
 20
-867.88715399163698
 30
0.0
 11
1371.874816548094
 21
-887.88715399164028
 31
0.0
  0
ARC
  5
C836
  8
01
 10
1370.874816548094
 20
-887.88715399164028
 30
0.0
 40
1.0
 50
270.0
 51
0.0
  0
LINE
  5
C837
  8
01
 10
1409.048768597288
 20
-887.72840861385225
 30
0.0
 11
1409.048768597288
 21
-867.72840861385134
 31
0.0
  0
LINE
  5
C839
  8
01
 10
1431.048768597291
 20
-887.72840861385305
 30
0.0
 11
1431.0487685972901
 21
-867.72840861385225
 31
0.0
  0
ARC
  5
C83A
  8
01
 10
1430.0487685972901
 20
-867.72840861385225
 30
0.0
 40
1.0
 50
0.000000000000007
 51
90.0
  0
LINE
  5
C83C
  8
01
 10
1335.874165157393
 20
-708.21369905994743
 30
0.0
 11
1335.874165157393
 21
-707.91370021111265
 31
0.0
  0
LINE
  5
C83D
  8
01
 10
1357.874165157393
 20
-707.9136992494814
 30
0.0
 11
1357.874165157393
 21
-708.21369905994754
 31
0.0
  0
LINE
  5
C83E
  8
01
 10
1335.874165157393
 20
-708.21369905994743
 30
0.0
 11
1357.874165157393
 21
-708.213699059948
 31
0.0
  0
LINE
  5
C83F
  8
01
  6
BYBLOCK
 10
1485.5487958098479
 20
-888.72902867337666
 30
0.0
 11
1485.8487958098481
 21
-888.72902867337666
 31
0.0
  0
LINE
  5
C840
  8
01
  6
BYBLOCK
 10
1485.8487958098481
 20
-866.72902867337655
 30
0.0
 11
1485.5487958098479
 21
-866.72902867337655
 31
0.0
  0
LINE
  5
C841
  8
01
  6
BYBLOCK
 10
1485.5487958098479
 20
-888.72902867337666
 30
0.0
 11
1485.5487958098479
 21
-881.72840861385134
 31
0.0
  0
LINE
  5
C842
  8
01
  6
BYBLOCK
 10
1485.5487958098479
 20
-873.72840861385055
 30
0.0
 11
1485.5487958098479
 21
-866.72902867337655
 31
0.0
  0
LINE
  5
C843
  8
01
 10
1485.848795809849
 20
-890.22916337456695
 30
0.0
 11
1485.848795809849
 21
-888.72810778373776
 31
0.0
  0
LINE
  5
C844
  8
01
 10
1485.8487958098469
 20
-866.72902867337575
 30
0.0
 11
1485.8487958098469
 21
-865.22916337456695
 31
0.0
  0
LINE
  5
C845
  8
01
 10
1473.5487954382729
 20
-888.72902867337666
 30
0.0
 11
1473.248795141466
 21
-888.72902867337666
 31
0.0
  0
LINE
  5
C846
  8
01
 10
1473.5487963999269
 20
-866.72902867337655
 30
0.0
 11
1473.248794179829
 21
-866.72902867337655
 31
0.0
  0
LINE
  5
C847
  8
01
 10
1473.248795207038
 20
-890.22916337456695
 30
0.0
 11
1446.5495233580041
 21
-890.22916337456604
 31
0.0
  0
LINE
  5
C848
  8
01
 10
1473.248794114269
 20
-865.22916337456695
 30
0.0
 11
1446.5480138365731
 21
-865.22916337456775
 31
0.0
  0
LINE
  5
C849
  8
01
 10
1359.3744659875069
 20
-720.51370075555678
 30
0.0
 11
1359.374465987506
 21
-762.71372627250889
 31
0.0
  0
LINE
  5
C84A
  8
01
 10
1346.874465987506
 20
-690.16658727241429
 30
0.0
 11
1346.8744659875069
 21
-743.15718919680057
 31
0.0
  0
LINE
  5
C84B
  8
01
 10
1334.374465987506
 20
-720.51370075554439
 30
0.0
 11
1334.374465987506
 21
-762.71372627250889
 31
0.0
  0
LINE
  5
C84C
  8
01
 10
1335.874165157393
 20
-720.21370088972367
 30
0.0
 11
1335.874165157393
 21
-720.51369972832913
 31
0.0
  0
LINE
  5
C84D
  8
01
 10
1357.874165157393
 20
-720.51370068997664
 30
0.0
 11
1357.874165157393
 21
-720.21370088972526
 31
0.0
  0
LINE
  5
C84E
  8
01
 10
1335.874165157393
 20
-720.21370088972367
 30
0.0
 11
1357.874165157393
 21
-720.21370088972526
 31
0.0
  0
LINE
  5
C852
  8
01
 10
1446.549523358005
 20
-890.22916337456513
 30
0.0
 11
1441.048768597291
 21
-884.72840861385134
 31
0.0
  0
LINE
  5
C853
  8
01
 10
1446.548013836574
 20
-865.22916337456877
 30
0.0
 11
1441.048768597291
 21
-870.72840861385123
 31
0.0
  0
LINE
  5
C854
  8
01
 10
1470.9238482778251
 20
-881.15340861385141
 30
0.0
 11
1472.0488499814869
 21
-882.27841021916595
 31
0.0
  0
LINE
  5
C855
  8
01
 10
1473.5487958098511
 20
-869.97875969897518
 30
0.0
 11
1473.5487959737691
 21
-873.72875969897518
 31
0.0
  0
LINE
  5
C856
  8
01
 10
1473.5487963234309
 20
-881.72806992104563
 30
0.0
 11
1473.5487964873801
 21
-885.47875969897416
 31
0.0
  0
LINE
  5
C857
  8
01
 10
1485.5487958098511
 20
-869.97875917443866
 30
0.0
 11
1485.5487959737691
 21
-873.72875917443685
 31
0.0
  0
LINE
  5
C858
  8
01
 10
1485.5487963234309
 20
-881.72806939650741
 30
0.0
 11
1485.5487964873801
 21
-885.47875917443685
 31
0.0
  0
LINE
  5
C859
  8
01
 10
1510.5486638991979
 20
-888.32826400435511
 30
0.0
 11
1510.548708699381
 21
-884.72845896132503
 31
0.0
  0
LINE
  5
C85A
  8
01
 10
1510.548882931753
 20
-870.72845896132515
 30
0.0
 11
1510.54892771555
 21
-867.1299706215384
 31
0.0
  0
LINE
  5
C85B
  8
01
 10
1513.54870247961
 20
-885.22825155942496
 30
0.0
 11
1513.548889153242
 21
-870.22856566828034
 31
0.0
  0
LINE
  5
C85C
  8
01
 10
1488.5486526775401
 20
-889.22981497030526
 30
0.0
 11
1488.5486651454189
 21
-888.22799021063452
 31
0.0
  0
LINE
  5
C85D
  8
01
 10
1488.5489277172539
 20
-867.12969682780988
 30
0.0
 11
1488.5489389164361
 21
-866.22981497207877
 31
0.0
  0
LINE
  5
C85E
  8
01
 10
1488.5486639009009
 20
-888.32799021062658
 30
0.0
 11
1499.14868841462
 21
-888.32812212972817
 31
0.0
  0
LINE
  5
C85F
  8
01
 10
1488.5489277172539
 20
-867.12969682780988
 30
0.0
 11
1510.54892771555
 21
-867.1299706215384
 31
0.0
  0
LINE
  5
C861
  8
01
 10
1509.548677588959
 20
-887.22825155926944
 30
0.0
 11
1509.548709089891
 21
-884.69707412082153
 31
0.0
  0
LINE
  5
C862
  8
01
 10
1509.548882541377
 20
-870.75982019010416
 30
0.0
 11
1509.5489140259381
 21
-868.22995817628248
 31
0.0
  0
LINE
  5
C863
  8
01
 10
1508.5486651438659
 20
-888.22823911402315
 30
0.0
 11
1509.548677588959
 21
-887.22825155926944
 31
0.0
  0
LINE
  5
C864
  8
01
 10
1486.548655166725
 20
-889.02979007997578
 30
0.0
 11
1486.5487460379941
 21
-881.72805990269057
 31
0.0
  0
LINE
  5
C865
  8
01
 10
1486.5488455993491
 20
-873.72805990138988
 30
0.0
 11
1486.5489364275529
 21
-866.42979008172529
 31
0.0
  0
LINE
  5
C866
  8
01
 10
1486.5489364275529
 20
-866.42979008172529
 30
0.0
 11
1488.548936427399
 21
-866.42981497206415
 31
0.0
  0
LINE
  5
C867
  8
01
 10
1486.548655166725
 20
-889.02979007997578
 30
0.0
 11
1488.5486551665711
 21
-889.02981497031817
 31
0.0
  0
LINE
  5
C868
  8
01
 10
1501.1488060053589
 20
-878.77944157205673
 30
0.0
 11
1501.1486395301181
 21
-892.15613709134561
 31
0.0
  0
LINE
  5
C869
  8
01
 10
1488.548665145415
 20
-888.22799021063543
 30
0.0
 11
1499.1488190773291
 21
-888.22812213134637
 31
0.0
  0
LINE
  5
C86A
  8
01
 10
1488.5489264727339
 20
-867.22969682780308
 30
0.0
 11
1508.548926471185
 21
-867.22994573119161
 31
0.0
  0
LINE
  5
C86B
  8
01
 10
1509.5489140259381
 20
-868.22995817628248
 30
0.0
 11
1508.548926471185
 21
-867.22994573119161
 31
0.0
  0
LINE
  5
C86C
  8
01
 10
1488.548655166574
 20
-889.02981497031817
 30
0.0
 11
1488.5486651454189
 21
-888.22799021063452
 31
0.0
  0
LINE
  5
C86D
  8
01
 10
1488.5489264727339
 20
-867.22969682780126
 30
0.0
 11
1488.548936427399
 21
-866.42981497206415
 31
0.0
  0
LINE
  5
C86E
  8
01
 10
1486.548733571293
 20
-882.72979008045309
 30
0.0
 11
1489.3487335710761
 21
-882.72982492692665
 31
0.0
  0
LINE
  5
C86F
  8
01
 10
1486.548858022986
 20
-872.72979008122707
 30
0.0
 11
1489.348858022769
 21
-872.72982492770166
 31
0.0
  0
LINE
  5
C870
  8
01
 10
1489.3487024808619
 20
-885.22800016700307
 30
0.0
 11
1499.1488190773291
 21
-885.22812213111445
 31
0.0
  0
LINE
  5
C871
  8
01
 10
1489.348889137163
 20
-870.22970678370598
 30
0.0
 11
1509.548889135599
 21
-870.22995817612787
 31
0.0
  0
LINE
  5
C872
  8
01
 10
1489.348889137163
 20
-870.22970678370598
 30
0.0
 11
1489.348858022769
 21
-872.72982492770166
 31
0.0
  0
LINE
  5
C873
  8
01
 10
1489.3487460385429
 20
-881.72803331866157
 30
0.0
 11
1489.3487024808619
 21
-885.22800016700307
 31
0.0
  0
LINE
  5
C874
  8
01
 10
1485.5487958098511
 20
-866.72810778373764
 30
0.0
 11
1486.5487958098511
 21
-866.72810778373764
 31
0.0
  0
LINE
  5
C875
  8
01
 10
1486.5487958098511
 20
-888.72810778373776
 30
0.0
 11
1485.5487958098511
 21
-888.72810778373776
 31
0.0
  0
LINE
  5
C876
  8
01
 10
1485.5487958098511
 20
-866.72810778373764
 30
0.0
 11
1485.5487958098511
 21
-873.72806939615725
 31
0.0
  0
LINE
  5
C877
  8
01
 10
1485.5487958098511
 20
-881.72806939651286
 30
0.0
 11
1485.5487958098511
 21
-888.72810778373776
 31
0.0
  0
LINE
  5
C878
  8
01
 10
1486.5487958098511
 20
-871.72964745008778
 30
0.0
 11
1485.5487958098511
 21
-871.72964745008778
 31
0.0
  0
LINE
  5
C879
  8
01
 10
1486.5487958098511
 20
-883.72788988737625
 30
0.0
 11
1485.5487958098511
 21
-883.72788988737625
 31
0.0
  0
LINE
  5
C87A
  8
01
 10
1470.0488686653659
 20
-871.72840861385146
 30
0.0
 11
1451.078264264924
 21
-871.72840861385066
 31
0.0
  0
LINE
  5
C87B
  8
01
 10
1472.04888111069
 20
-870.72840861385225
 30
0.0
 11
1470.0488811105361
 21
-870.72840861385123
 31
0.0
  0
LINE
  5
C87C
  8
01
 10
1472.5486545984011
 20
-870.52840861385152
 30
0.0
 11
1469.54883381733
 21
-870.52840861385152
 31
0.0
  0
LINE
  5
C87D
  8
01
 10
1469.548821372161
 20
-871.52840861385152
 30
0.0
 11
1451.1013223409991
 21
-871.52840861385152
 31
0.0
  0
LINE
  5
C87E
  8
01
 10
1470.04886865664
 20
-883.72840861385134
 30
0.0
 11
1454.184212892369
 21
-883.72840861385134
 31
0.0
  0
LINE
  5
C87F
  8
01
 10
1472.0488811019641
 20
-884.72840861385043
 30
0.0
 11
1470.048881101809
 21
-884.72840861385134
 31
0.0
  0
LINE
  5
C880
  8
01
 10
1472.5488338088369
 20
-884.92840861385025
 30
0.0
 11
1469.548833808605
 21
-884.92840861385116
 31
0.0
  0
LINE
  5
C881
  8
01
 10
1469.548821363436
 20
-883.92840861385116
 30
0.0
 11
1454.207186679022
 21
-883.92840861385173
 31
0.0
  0
LINE
  5
C882
  8
01
 10
1473.5487934664941
 20
-881.72806939650741
 30
0.0
 11
1473.5487933025461
 21
-885.47875917443685
 31
0.0
  0
LINE
  5
C883
  8
01
 10
1473.248795163252
 20
-866.22978136832785
 30
0.0
 11
1472.5486011013661
 21
-866.22979008236109
 31
0.0
  0
LINE
  5
C884
  8
01
 10
1473.248794157905
 20
-889.22978137011955
 30
0.0
 11
1472.548887340258
 21
-889.22979008058041
 31
0.0
  0
LINE
  5
C885
  8
01
 10
1473.5487939800751
 20
-866.72810778373764
 30
0.0
 11
1472.5487939800751
 21
-866.72810778373764
 31
0.0
  0
LINE
  5
C886
  8
01
 10
1472.5487939800751
 20
-888.72810778373776
 30
0.0
 11
1473.5487939800751
 21
-888.72810778373776
 31
0.0
  0
LINE
  5
C887
  8
01
 10
1473.5487939800751
 20
-866.72810778373764
 30
0.0
 11
1473.5487939800751
 21
-873.72806939615725
 31
0.0
  0
LINE
  5
C888
  8
01
 10
1473.5487939800751
 20
-881.72806939651286
 30
0.0
 11
1473.5487939800751
 21
-888.72810778373776
 31
0.0
  0
LINE
  5
C889
  8
01
 10
1472.5487939800751
 20
-871.72964745008778
 30
0.0
 11
1473.5487939800751
 21
-871.72964745008778
 31
0.0
  0
LINE
  5
C88A
  8
01
 10
1472.5487939800751
 20
-883.72788988737625
 30
0.0
 11
1473.5487939800751
 21
-883.72788988737625
 31
0.0
  0
LINE
  5
C88B
  8
01
 10
1470.9238498237451
 20
-874.30340861385025
 30
0.0
 11
1472.0488515274069
 21
-873.17840700853571
 31
0.0
  0
LINE
  5
C88C
  8
01
 10
1472.0488811019641
 20
-884.72840861385043
 30
0.0
 11
1472.048843766456
 21
-881.72840861385134
 31
0.0
  0
LINE
  5
C88D
  8
01
 10
1470.048881101809
 20
-884.72840861385134
 30
0.0
 11
1470.04886865664
 21
-883.72840861385134
 31
0.0
  0
LINE
  5
C88E
  8
01
 10
1472.548887340258
 20
-889.22979008058041
 30
0.0
 11
1472.548793984296
 21
-881.72840861385146
 31
0.0
  0
LINE
  5
C88F
  8
01
 10
1472.5486944229431
 20
-873.72840861385055
 30
0.0
 11
1472.5486011013661
 21
-866.22979008236109
 31
0.0
  0
LINE
  5
C890
  8
01
 10
1469.548833808605
 20
-884.92840861385116
 30
0.0
 11
1469.548821363436
 21
-883.92840861385116
 31
0.0
  0
LINE
  5
C894
  8
01
 10
1472.04888111069
 20
-870.72840861385225
 30
0.0
 11
1472.0488437751819
 21
-873.72840861385077
 31
0.0
  0
LINE
  5
C895
  8
01
 10
1470.0488811105361
 20
-870.72840861385123
 30
0.0
 11
1470.0488686653659
 21
-871.72840861385146
 31
0.0
  0
LINE
  5
C896
  8
01
 10
1472.5487939800751
 20
-866.72810778373764
 30
0.0
 11
1472.5487939800739
 21
-873.72806939615725
 31
0.0
  0
LINE
  5
C897
  8
01
 10
1472.5487939800751
 20
-881.72806939651286
 30
0.0
 11
1472.5487939800751
 21
-888.72810778373776
 31
0.0
  0
LINE
  5
C898
  8
01
 10
1469.54883381733
 20
-870.52840861385152
 30
0.0
 11
1469.548821372161
 21
-871.52840861385152
 31
0.0
  0
LINE
  5
C89B
  8
01
 10
1510.0487888361561
 20
-870.72845896132515
 30
0.0
 11
1511.2487958164229
 21
-870.72845896132515
 31
0.0
  0
LINE
  5
C89C
  8
01
 10
1513.5487958164269
 20
-881.15345896132635
 30
0.0
 11
1541.2487958164229
 21
-881.15345896132635
 31
0.0
  0
LINE
  5
C89D
  8
01
 10
1513.548795816426
 20
-874.30345896132496
 30
0.0
 11
1541.2487958164229
 21
-874.30345896132587
 31
0.0
  0
LINE
  5
C89E
  8
01
 10
1513.5487958164269
 20
-881.72845896132617
 30
0.0
 11
1540.673795816424
 21
-881.72845896132526
 31
0.0
  0
LINE
  5
C89F
  8
01
 10
1513.548795816426
 20
-873.72845896132526
 30
0.0
 11
1540.673795816424
 21
-873.72845896132526
 31
0.0
  0
ARC
  5
C8A0
  8
01
 10
1510.0487888361561
 20
-874.72845896132515
 30
0.0
 40
4.0
 50
90.0
 51
180.00013331552509
  0
LINE
  5
C8A1
  8
01
 10
1506.048802796937
 20
-880.72846826850468
 30
0.0
 11
1506.048788836167
 21
-874.72846826850457
 31
0.0
  0
ARC
  5
C8A2
  8
01
 10
1510.0488027969261
 20
-880.72845896132526
 30
0.0
 40
4.0
 50
180.00013331552509
 51
270.0
  0
LINE
  5
C8A3
  8
01
 10
1510.0488027969261
 20
-884.72845896132515
 30
0.0
 11
1511.2487958164229
 21
-884.72845896132515
 31
0.0
  0
LINE
  5
C8A4
  8
01
 10
1513.548795816426
 20
-884.12840861385178
 30
0.0
 11
1511.2487958164229
 21
-884.12840861385382
 31
0.0
  0
LINE
  5
C8A5
  8
01
 10
1511.2487958164229
 20
-871.32840861385273
 30
0.0
 11
1513.548795816426
 21
-871.32840861385273
 31
0.0
  0
LINE
  5
C8A6
  8
01
 10
1513.548795816426
 20
-884.12840861385178
 30
0.0
 11
1513.548795816426
 21
-871.32840861385273
 31
0.0
  0
LINE
  5
C8A7
  8
01
 10
1511.2487958164229
 20
-870.72845896132515
 30
0.0
 11
1511.2487958164229
 21
-884.72845896132515
 31
0.0
  0
LINE
  5
C8A8
  8
01
 10
1541.2487958164229
 20
-874.30345896132496
 30
0.0
 11
1541.248795816424
 21
-881.15345896132544
 31
0.0
  0
LINE
  5
C8A9
  8
01
 10
1511.2487958164229
 20
-877.6288538909472
 30
0.0
 11
1513.548795816426
 21
-877.36090469851729
 31
0.0
  0
LINE
  5
C8AA
  8
01
 10
1511.2487958164229
 20
-878.07916454118345
 30
0.0
 11
1513.548795816426
 21
-877.81121534875331
 31
0.0
  0
LINE
  5
C8AD
  8
01
 10
1541.2487958164229
 20
-874.30345896132496
 30
0.0
 11
1540.673795816424
 21
-873.72845896132526
 31
0.0
  0
LINE
  5
C8AE
  8
01
 10
1541.248795816424
 20
-881.15345896132544
 30
0.0
 11
1540.673795816424
 21
-881.72845896132526
 31
0.0
  0
LINE
  5
C8AF
  8
01
 10
1540.673795816424
 20
-873.72845896132526
 30
0.0
 11
1540.673795816424
 21
-881.72845896132526
 31
0.0
  0
LINE
  5
C8B0
  8
01
 10
1470.9238498237451
 20
-874.30340861385025
 30
0.0
 11
1451.2538515581771
 21
-874.30340861385105
 31
0.0
  0
LINE
  5
C8B1
  8
01
 10
1470.9238482778251
 20
-881.15340861385141
 30
0.0
 11
1453.5878852008971
 21
-881.15340861385221
 31
0.0
  0
LINE
  5
C8B2
  8
01
 10
1471.4988498740099
 20
-873.72840861385134
 30
0.0
 11
1451.14865108154
 21
-873.72840861385009
 31
0.0
  0
LINE
  5
C8B3
  8
01
 10
1471.4988483280929
 20
-881.72840861385225
 30
0.0
 11
1453.761244890733
 21
-881.72840861385293
 31
0.0
  0
LINE
  5
C8D3
  8
01
 10
1499.1488190773291
 20
-885.22812213111388
 30
0.0
 11
1499.1488190773291
 21
-888.2281221313458
 31
0.0
  0
LINE
  5
C8D4
  8
01
 10
1503.1488190775081
 20
-885.22817191179161
 30
0.0
 11
1503.1488190775081
 21
-888.22817191202364
 31
0.0
  0
LINE
  5
C8D5
  8
01
 10
1502.7988190774929
 20
-885.22816755598217
 30
0.0
 11
1502.7988190774929
 21
-888.2281675562142
 31
0.0
  0
LINE
  5
C8D6
  8
01
 10
1499.4988190773449
 20
-885.22812648692309
 30
0.0
 11
1499.4988190773449
 21
-888.22812648715512
 31
0.0
  0
LINE
  5
C8D7
  8
01
 10
1499.148431568814
 20
-870.2292324903234
 30
0.0
 11
1499.1482765539331
 21
-867.2292324940961
 31
0.0
  0
LINE
  5
C8D8
  8
01
 10
1503.148431561081
 20
-870.22897602313765
 30
0.0
 11
1503.1482765461999
 21
-867.22897602691023
 31
0.0
  0
LINE
  5
C8D9
  8
01
 10
1502.7984315617589
 20
-870.22899846401629
 30
0.0
 11
1502.798276546878
 21
-867.22899846778876
 31
0.0
  0
LINE
  5
C8DA
  8
01
 10
1499.498431568137
 20
-870.22921004944385
 30
0.0
 11
1499.4982765532559
 21
-867.22921005321655
 31
0.0
  0
LINE
  5
C8DB
  8
01
 10
1528.0488212028581
 20
-870.72840861384952
 30
0.0
 11
1518.0488212028581
 21
-870.72840861385032
 31
0.0
  0
LINE
  5
C8DC
  8
01
 10
1528.048821202859
 20
-884.72840861384861
 30
0.0
 11
1518.048821202859
 21
-884.72840861384861
 31
0.0
  0
LINE
  5
C8DD
  8
01
 10
1485.8487956858789
 20
-865.22916337456695
 30
0.0
 11
1485.8487956203189
 21
-866.72902867337575
 31
0.0
  0
LINE
  5
C8DE
  8
01
 10
1485.848794658724
 20
-888.72810778373776
 30
0.0
 11
1485.848794593112
 21
-890.22916337456695
 31
0.0
  0
LINE
  5
C8DF
  8
01
 10
1485.848794593112
 20
-890.22916337456695
 30
0.0
 11
1512.5480664421459
 21
-890.22916337456422
 31
0.0
  0
LINE
  5
C8E0
  8
01
 10
1485.8487956858789
 20
-865.22916337456695
 30
0.0
 11
1512.5495759635751
 21
-865.22916337456604
 31
0.0
  0
LINE
  5
C8E1
  8
01
 10
1528.048821202859
 20
-884.72840861384861
 30
0.0
 11
1528.048821202859
 21
-881.7284589613256
 31
0.0
  0
LINE
  5
C8E2
  8
01
 10
1528.0488212028581
 20
-873.72845896132515
 30
0.0
 11
1528.0488212028581
 21
-870.72840861384952
 31
0.0
  0
LINE
  5
C8E3
  8
01
 10
1512.548066442145
 20
-890.22916337456331
 30
0.0
 11
1518.0488212028581
 21
-884.72840861384952
 31
0.0
  0
LINE
  5
C8E4
  8
01
 10
1512.5495759635739
 20
-865.22916337456695
 30
0.0
 11
1518.048821202857
 21
-870.72840861384952
 31
0.0
  0
LINE
  5
C8E5
  8
01
 10
1485.8487946368959
 20
-866.22978136832785
 30
0.0
 11
1488.5489389164361
 21
-866.22981497207877
 31
0.0
  0
LINE
  5
C8E6
  8
01
 10
1485.848795642245
 20
-889.22978137011955
 30
0.0
 11
1488.5486526775401
 21
-889.22981497030526
 31
0.0
  0
LINE
  5
C8E7
  8
01
 10
1359.374465987506
 20
-707.91369918390274
 30
0.0
 11
1334.374465987506
 21
-707.91370027666562
 31
0.0
  0
LINE
  5
C8E8
  8
01
 10
1359.374465987506
 20
-707.91369918390274
 30
0.0
 11
1359.3744659875031
 21
-665.71367366693835
 31
0.0
  0
LINE
  5
C8E9
  8
01
 10
1334.374465987506
 20
-707.91370027666562
 30
0.0
 11
1334.374465987504
 21
-665.71367366693994
 31
0.0
  0
LINE
  5
C8EC
  8
01
  6
BYBLOCK
 10
1371.8748165480879
 20
-644.71367366693744
 30
0.0
 11
1371.8748165480929
 21
-664.71367366693721
 31
0.0
  0
LINE
  5
C8EF
  8
01
 10
1370.874816548087
 20
-643.71367366693755
 30
0.0
 11
872.87481654808835
 21
-643.71367366696779
 31
0.0
  0
ARC
  5
C8F0
  8
01
 10
1370.874816548087
 20
-644.71367366693755
 30
0.0
 40
1.0
 50
0.0
 51
90.000000000000028
  0
LINE
  5
C8F2
  8
01
 10
1370.8748165480929
 20
-665.71367366693755
 30
0.0
 11
872.87481654808653
 21
-665.71367366696745
 31
0.0
  0
ARC
  5
C8F5
  8
01
 10
1370.8748165480929
 20
-664.71367366693755
 30
0.0
 40
1.0
 50
270.0
 51
0.0
  0
LINE
  5
C8F8
  8
01
  6
BYBLOCK
 10
1549.0488212028599
 20
-866.72840861384668
 30
0.0
 11
1529.0488212028581
 21
-866.72840861384952
 31
0.0
  0
ARC
  5
C8F9
  8
01
 10
1549.0488212028611
 20
-867.72840861384691
 30
0.0
 40
1.0
 50
0.000000000000007
 51
90.0
  0
LINE
  5
C8FA
  8
01
  6
BYBLOCK
 10
1549.048821202862
 20
-888.72840861384782
 30
0.0
 11
1529.0488212028599
 21
-888.72840861385055
 31
0.0
  0
ARC
  5
C8FB
  8
01
 10
1529.0488212028599
 20
-887.72840861385032
 30
0.0
 40
1.0
 50
180.0
 51
270.0
  0
ARC
  5
C8FC
  8
01
 10
1549.048821202862
 20
-887.72840861384771
 30
0.0
 40
1.0
 50
270.0
 51
0.000000000000007
  0
LINE
  5
C8FE
  8
01
 10
1550.048821202862
 20
-887.72840861384771
 30
0.0
 11
1550.0488212028611
 21
-867.72840861384691
 31
0.0
  0
LINE
  5
C8FF
  8
01
 10
1528.0488212028599
 20
-887.72840861385032
 30
0.0
 11
1528.048821202859
 21
-881.7284589613256
 31
0.0
  0
LINE
  5
C900
  8
01
 10
1528.0488212028581
 20
-873.72845896132515
 30
0.0
 11
1528.0488212028581
 21
-867.72840861384952
 31
0.0
  0
ARC
  5
C901
  8
01
 10
1529.0488212028581
 20
-867.72840861384952
 30
0.0
 40
1.0
 50
90.0
 51
180.0
  0
LINE
  5
C902
  8
01
  6
BYBLOCK
 10
1547.9737654184171
 20
-877.72840861384771
 30
0.0
 11
1544.548821202859
 21
-881.1534086138488
 31
0.0
  0
LINE
  5
C903
  8
01
  6
BYBLOCK
 10
1547.9737654184171
 20
-877.72840861384771
 30
0.0
 11
1544.5488212028499
 21
-874.30340861384661
 31
0.0
  0
LINE
  5
C904
  8
01
  6
BYBLOCK
 10
1529.123821202857
 20
-874.30340861384661
 30
0.0
 11
1544.548821202859
 21
-874.3034086138457
 31
0.0
  0
LINE
  5
C905
  8
01
  6
BYBLOCK
 10
1529.1238212028629
 20
-881.1534086138488
 30
0.0
 11
1544.548821202859
 21
-881.1534086138472
 31
0.0
  0
LINE
  5
C906
  8
01
  6
BYBLOCK
 10
1528.5488212028611
 20
-873.7284086138485
 30
0.0
 11
1542.0488212028581
 21
-873.72840861384714
 31
0.0
  0
LINE
  5
C907
  8
01
  6
BYBLOCK
 10
1528.548821202859
 20
-881.72840861385225
 30
0.0
 11
1542.048821202859
 21
-881.72840861384896
 31
0.0
  0
LINE
  5
C908
  8
01
  6
BYBLOCK
 10
1542.6238212028591
 20
-881.15340861384789
 30
0.0
 11
1542.6238212028579
 21
-874.30340861384752
 31
0.0
  0
LINE
  5
C909
  8
01
  6
BYBLOCK
 10
1542.6238212028591
 20
-881.15340861384789
 30
0.0
 11
1542.048821202859
 21
-881.72840861384759
 31
0.0
  0
LINE
  5
C90A
  8
01
  6
BYBLOCK
 10
1542.6238212028579
 20
-874.30340861384752
 30
0.0
 11
1542.048821202859
 21
-873.72840861384759
 31
0.0
  0
LINE
  5
C90B
  8
01
  6
BYBLOCK
 10
1542.048821202859
 20
-881.72840861384759
 30
0.0
 11
1542.048821202859
 21
-873.72840861384759
 31
0.0
  0
LINE
  5
C90C
  8
01
  6
BYBLOCK
 10
1544.548821202859
 20
-881.1534086138488
 30
0.0
 11
1544.548821202859
 21
-874.30340861384661
 31
0.0
  0
LINE
  5
C90D
  8
01
  6
BYBLOCK
 10
1528.048821202859
 20
-882.22840861385134
 30
0.0
 11
1529.1238212028629
 21
-881.1534086138488
 31
0.0
  0
LINE
  5
C90E
  8
01
  6
BYBLOCK
 10
1528.048821202859
 20
-873.2284086138468
 30
0.0
 11
1529.123821202857
 21
-874.30340861384661
 31
0.0
  0
LINE
  5
C90F
  8
01
 10
1510.548702479377
 20
-885.22825155942496
 30
0.0
 11
1513.54870247961
 21
-885.22825155942496
 31
0.0
  0
LINE
  5
C910
  8
01
 10
1510.548702479377
 20
-870.22856566828136
 30
0.0
 11
1513.548889153242
 21
-870.22856566828034
 31
0.0
  0
LINE
  5
C911
  8
01
 10
1513.5488468416211
 20
-873.62840861385371
 30
0.0
 11
1528.0488212028581
 21
-873.62840861385439
 31
0.0
  0
LINE
  5
C912
  8
01
 10
1513.5487447912319
 20
-881.82840861385159
 30
0.0
 11
1528.0488212028599
 21
-881.82840861384989
 31
0.0
  0
LINE
  5
C913
  8
01
 10
1492.848896117368
 20
-884.72840861385134
 30
0.0
 11
1491.6488891371009
 21
-884.72840861385134
 31
0.0
  0
LINE
  5
C914
  8
01
 10
1489.348889137098
 20
-874.30340861385025
 30
0.0
 11
1456.6488891371009
 21
-874.30340861385105
 31
0.0
  0
LINE
  5
C915
  8
01
 10
1489.348889137098
 20
-881.15340861385141
 30
0.0
 11
1456.6488891371009
 21
-881.15340861385141
 31
0.0
  0
LINE
  5
C916
  8
01
 10
1489.348889137098
 20
-873.72840861385055
 30
0.0
 11
1457.2238891371001
 21
-873.72840861385134
 31
0.0
  0
LINE
  5
C917
  8
01
 10
1489.348889137098
 20
-881.72840861385134
 30
0.0
 11
1457.2238891371001
 21
-881.72840861385134
 31
0.0
  0
ARC
  5
C918
  8
01
 10
1492.848896117368
 20
-880.72840861385146
 30
0.0
 40
4.0
 50
270.0
 51
0.0001333155250683
  0
LINE
  5
C919
  8
01
 10
1496.8488821565879
 20
-874.72839930667192
 30
0.0
 11
1496.8488961173571
 21
-880.7283993066718
 31
0.0
  0
ARC
  5
C91A
  8
01
 10
1492.8488821565991
 20
-874.72840861385134
 30
0.0
 40
4.0
 50
0.0001333155250683
 51
90.0
  0
LINE
  5
C91B
  8
01
 10
1492.8488821565991
 20
-870.72840861385123
 30
0.0
 11
1491.6488891371009
 21
-870.72840861385123
 31
0.0
  0
LINE
  5
C91C
  8
01
 10
1489.348889137098
 20
-871.3284589613246
 30
0.0
 11
1491.6488891371009
 21
-871.32845896132289
 31
0.0
  0
LINE
  5
C91D
  8
01
 10
1491.6488891371009
 20
-884.12845896132387
 30
0.0
 11
1489.348889137098
 21
-884.12845896132387
 31
0.0
  0
LINE
  5
C91E
  8
01
 10
1489.348889137098
 20
-871.3284589613246
 30
0.0
 11
1489.348889137098
 21
-884.12845896132387
 31
0.0
  0
LINE
  5
C91F
  8
01
 10
1491.6488891371009
 20
-884.72840861385134
 30
0.0
 11
1491.6488891371009
 21
-870.72840861385123
 31
0.0
  0
LINE
  5
C920
  8
01
 10
1456.6488891371009
 20
-881.15340861385141
 30
0.0
 11
1456.6488891371009
 21
-874.30340861385105
 31
0.0
  0
LINE
  5
C921
  8
01
 10
1491.6488891371009
 20
-877.82801368422918
 30
0.0
 11
1489.348889137098
 21
-878.09596287665931
 31
0.0
  0
LINE
  5
C922
  8
01
 10
1491.6488891371009
 20
-877.37770303399316
 30
0.0
 11
1489.348889137098
 21
-877.64565222642307
 31
0.0
  0
LINE
  5
C923
  8
01
 10
1456.6488891371009
 20
-881.15340861385141
 30
0.0
 11
1457.2238891371001
 21
-881.72840861385134
 31
0.0
  0
LINE
  5
C924
  8
01
 10
1456.6488891371009
 20
-874.30340861385105
 30
0.0
 11
1457.2238891371001
 21
-873.72840861385134
 31
0.0
  0
LINE
  5
C925
  8
01
 10
1457.2238891371001
 20
-881.72840861385134
 30
0.0
 11
1457.2238891371001
 21
-873.72840861385134
 31
0.0
  0
LINE
  5
C926
  8
01
  6
BYBLOCK
 10
871.87481654809335
 20
-783.71372627252265
 30
0.0
 11
871.87481654809005
 21
-763.71372627252265
 31
0.0
  0
ARC
  5
C927
  8
01
 10
872.8748165480938
 20
-783.71372627252254
 30
0.0
 40
1.0
 50
180.00000000002601
 51
270.0
  0
LINE
  5
C928
  8
01
 10
903.27481654809151
 20
-769.71372627252038
 30
0.0
 11
907.47481654809235
 21
-769.71372627252026
 31
0.0
  0
ARC
  5
C929
  8
01
 10
872.87481654809005
 20
-763.71372627252254
 30
0.0
 40
1.0
 50
90.000000000000028
 51
180.00000000002601
  0
LINE
  5
C92A
  8
01
 10
884.37516710867556
 20
-720.51370075555735
 30
0.0
 11
885.37379435240837
 21
-720.51370071190695
 31
0.0
  0
LINE
  5
C92B
  8
01
 10
908.37379435420007
 20
-720.51369970655855
 30
0.0
 11
909.37516710867556
 21
-720.5136996627873
 31
0.0
  0
LINE
  5
C92C
  8
01
 10
893.45016710867628
 20
-722.83864659198593
 30
0.0
 11
892.32516550336356
 21
-721.71364488832398
 31
0.0
  0
LINE
  5
C92E
  8
01
 10
889.12481602355354
 20
-720.21369838243174
 30
0.0
 11
889.12481654809005
 21
-708.21369838243186
 31
0.0
  0
LINE
  5
C92F
  8
01
 10
904.62481654809017
 20
-708.21369905995994
 30
0.0
 11
904.62481602355365
 21
-720.21369905995994
 31
0.0
  0
LINE
  5
C930
  8
01
 10
904.62481602355194
 20
-720.21369905995994
 30
0.0
 11
900.87481602355172
 21
-720.21369889604193
 31
0.0
  0
LINE
  5
C931
  8
01
 10
892.87550580148297
 20
-720.21369854637976
 30
0.0
 11
889.12481602355354
 21
-720.21369838243174
 31
0.0
  0
LINE
  5
C932
  8
01
 10
904.62481654809017
 20
-708.21369905995994
 30
0.0
 11
900.87481654809017
 21
-708.21369889604193
 31
0.0
  0
LINE
  5
C933
  8
01
 10
892.87550632602131
 20
-708.21369854637976
 30
0.0
 11
889.12481654809005
 21
-708.21369838243186
 31
0.0
  0
LINE
  5
C936
  8
01
 10
885.37376075222528
 20
-705.21384219227184
 30
0.0
 11
886.27558551189941
 21
-705.21383096891009
 31
0.0
  0
LINE
  5
C937
  8
01
 10
907.47387889471611
 20
-705.21356715255615
 30
0.0
 11
908.37376075044813
 21
-705.21355595337468
 31
0.0
  0
LINE
  5
C938
  8
01
 10
908.37379435240473
 20
-707.913555953166
 30
0.0
 11
908.37376075044813
 21
-705.21355595337468
 31
0.0
  0
LINE
  5
C939
  8
01
 10
885.37379435418552
 20
-707.91384219206327
 30
0.0
 11
885.37376075222528
 21
-705.21384219227275
 31
0.0
  0
LINE
  5
C93A
  8
01
 10
886.27558551189941
 20
-705.21383096891009
 30
0.0
 11
886.27540740450331
 21
-690.90246330108971
 31
0.0
  0
LINE
  5
C93B
  8
01
 10
907.47387889471611
 20
-705.21356715255615
 30
0.0
 11
907.47368391188184
 21
-689.54621648410057
 31
0.0
  0
LINE
  5
C940
  8
01
 10
885.57378564255134
 20
-707.21383970308671
 30
0.0
 11
892.87551581983655
 21
-707.21374883181716
 31
0.0
  0
LINE
  5
C941
  8
01
 10
900.87551582113872
 20
-707.21364927046193
 30
0.0
 11
908.17378564080354
 21
-707.21355844225707
 31
0.0
  0
LINE
  5
C942
  8
01
 10
908.17378564080354
 20
-707.21355844225707
 30
0.0
 11
908.17376075046366
 21
-705.21355844241134
 31
0.0
  0
LINE
  5
C943
  8
01
 10
885.57378564255134
 20
-707.21383970308671
 30
0.0
 11
885.57376075220964
 21
-705.21383970324075
 31
0.0
  0
LINE
  5
C944
  8
01
 10
902.13492195483923
 20
-692.61361032562809
 30
0.0
 11
891.26023376352521
 21
-692.6137456629649
 31
0.0
  0
LINE
  5
C945
  8
01
 10
886.37558551189238
 20
-705.21382972439619
 30
0.0
 11
886.37540659399428
 21
-690.83733617121811
 31
0.0
  0
LINE
  5
C946
  8
01
 10
907.37387889472495
 20
-705.21356839707641
 30
0.0
 11
907.37368452007684
 21
-689.59508704900941
 31
0.0
  0
LINE
  5
C948
  8
01
 10
885.57376075220964
 20
-705.21383970323757
 30
0.0
 11
886.37558551189431
 21
-705.21382972439255
 31
0.0
  0
LINE
  5
C949
  8
01
 10
907.37387889472666
 20
-705.21356839707676
 30
0.0
 11
908.17376075046366
 21
-705.21355844241134
 31
0.0
  0
CIRCLE
  5
C94A
  8
01
 10
896.87450622368135
 20
-692.61367579239197
 30
0.0
 40
1.650000000074457
  0
CIRCLE
  5
C94B
  8
01
 10
896.87450622368135
 20
-692.61367579239254
 30
0.0
 40
2.000000000089686
  0
LINE
  5
C94C
  8
01
 10
891.87378564207381
 20
-707.21376129851842
 30
0.0
 11
891.87375079560115
 21
-704.41376129873515
 31
0.0
  0
LINE
  5
C94D
  8
01
 10
901.87378564130086
 20
-707.21363684682501
 30
0.0
 11
901.87375079482615
 21
-704.41363684704174
 31
0.0
  0
LINE
  5
C94E
  8
01
 10
889.37557555552485
 20
-704.41379238894945
 30
0.0
 11
889.37538893920805
 21
-689.41871195380679
 31
0.0
  0
LINE
  5
C94F
  8
01
 10
904.37386893882285
 20
-704.41360573264751
 30
0.0
 11
904.37369908262997
 21
-690.7652426162698
 31
0.0
  0
LINE
  5
C950
  8
01
 10
904.37386893882285
 20
-704.41360573264751
 30
0.0
 11
901.87375079482615
 21
-704.41363684704152
 31
0.0
  0
LINE
  5
C951
  8
01
 10
892.87554240386635
 20
-704.41374883126878
 30
0.0
 11
889.37557555552485
 21
-704.41379238894945
 31
0.0
  0
LINE
  5
C952
  8
01
 10
907.87546793878926
 20
-708.21369905995971
 30
0.0
 11
907.87546793878926
 21
-707.21369905995971
 31
0.0
  0
LINE
  5
C953
  8
01
 10
885.87546793878937
 20
-707.21369905996062
 30
0.0
 11
885.87546793878937
 21
-708.21369905996062
 31
0.0
  0
LINE
  5
C954
  8
01
 10
907.87546793878926
 20
-708.21369905995971
 30
0.0
 11
900.87550632637056
 21
-708.21369905995971
 31
0.0
  0
LINE
  5
C955
  8
01
 10
892.87550632601403
 20
-708.21369905996039
 30
0.0
 11
885.87546793878937
 21
-708.21369905996096
 31
0.0
  0
LINE
  5
C956
  8
01
 10
902.87392827244003
 20
-707.21369905995971
 30
0.0
 11
902.87392827244003
 21
-708.21369905995971
 31
0.0
  0
LINE
  5
C957
  8
01
 10
890.87568583515156
 20
-707.21369905996062
 30
0.0
 11
890.87568583515156
 21
-708.21369905996005
 31
0.0
  0
LINE
  5
C958
  8
01
 10
884.37516710867556
 20
-720.51370075555735
 30
0.0
 11
884.37516710867919
 21
-762.71372627252163
 31
0.0
  0
LINE
  5
C959
  8
01
 10
902.87516710867749
 20
-723.71362620444495
 30
0.0
 11
902.87516710867919
 21
-750.71372627251799
 31
0.0
  0
LINE
  5
C95A
  8
01
 10
903.87516710867567
 20
-721.71361375912045
 30
0.0
 11
903.87516710867749
 21
-723.71361375927506
 31
0.0
  0
LINE
  5
C95B
  8
01
 10
904.07516710867651
 20
-721.21384027140971
 30
0.0
 11
904.07516710867651
 21
-724.21366105248069
 31
0.0
  0
LINE
  5
C95C
  8
01
 10
903.07516710867628
 20
-724.21367349765001
 30
0.0
 11
903.07516710867833
 21
-750.71372627251753
 31
0.0
  0
LINE
  5
C95D
  8
01
 10
890.87516710867737
 20
-723.71362621317144
 30
0.0
 11
890.87516710867931
 21
-750.71372627251844
 31
0.0
  0
LINE
  5
C95E
  8
01
 10
889.87516710867931
 20
-721.71361376784716
 30
0.0
 11
889.87516710867737
 21
-723.71361376800223
 31
0.0
  0
LINE
  5
C95F
  8
01
 10
889.67516710867858
 20
-721.21366106097435
 30
0.0
 11
889.67516710867858
 21
-724.21366106120649
 31
0.0
  0
LINE
  5
C960
  8
01
 10
890.67516710867858
 20
-724.21367350637559
 30
0.0
 11
890.67516710867858
 21
-750.71372627251844
 31
0.0
  0
LINE
  5
C961
  8
01
 10
896.87516710867635
 20
-684.67536975216888
 30
0.0
 11
896.87516710867919
 21
-786.45602071926123
 31
0.0
  0
LINE
  5
C962
  8
01
 10
909.37516710867556
 20
-720.5137007555561
 30
0.0
 11
909.37516710867885
 21
-762.71372627250855
 31
0.0
  0
LINE
  5
C963
  8
01
 10
892.87550632602131
 20
-720.21370140331692
 30
0.0
 11
889.12481654809005
 21
-720.21370156726528
 31
0.0
  0
LINE
  5
C964
  8
01
 10
908.37379435420007
 20
-720.51369970655855
 30
0.0
 11
908.37378564016751
 21
-721.21389376844422
 31
0.0
  0
LINE
  5
C965
  8
01
 10
885.37379435240837
 20
-720.51370071190695
 30
0.0
 11
885.3737856419483
 21
-721.21360752955411
 31
0.0
  0
LINE
  5
C966
  8
01
 10
907.87546793878926
 20
-720.21370088973515
 30
0.0
 11
907.87546793879108
 21
-721.21370088973515
 31
0.0
  0
LINE
  5
C967
  8
01
 10
885.87546793879119
 20
-721.21370088973708
 30
0.0
 11
885.87546793878937
 21
-720.21370088973708
 31
0.0
  0
LINE
  5
C968
  8
01
 10
907.87546793878926
 20
-720.21370088973515
 30
0.0
 11
900.87550632637056
 21
-720.21370088973606
 31
0.0
  0
LINE
  5
C969
  8
01
 10
892.87550632601403
 20
-720.2137008897364
 30
0.0
 11
885.87546793878937
 21
-720.21370088973663
 31
0.0
  0
LINE
  5
C96A
  8
01
 10
902.87392827244173
 20
-721.21370088973617
 30
0.0
 11
902.87392827244003
 21
-720.21370088973606
 31
0.0
  0
LINE
  5
C96B
  8
01
 10
890.87568583515156
 20
-721.21370088973617
 30
0.0
 11
890.87568583515156
 21
-720.21370088973663
 31
0.0
  0
LINE
  5
C96C
  8
01
 10
900.30016710867847
 20
-722.83864504606538
 30
0.0
 11
901.425168713993
 21
-721.71364334240366
 31
0.0
  0
LINE
  5
C96D
  8
01
 10
889.87516710867931
 20
-721.71361376784716
 30
0.0
 11
892.87516710867703
 21
-721.71365110335501
 31
0.0
  0
LINE
  5
C96E
  8
01
 10
889.87516710867737
 20
-723.71361376800223
 30
0.0
 11
890.87516710867737
 21
-723.71362621317144
 31
0.0
  0
LINE
  5
C96F
  8
01
 10
885.3737856419483
 20
-721.21360752955411
 30
0.0
 11
892.87550631398062
 21
-721.21370088973708
 31
0.0
  0
LINE
  5
C970
  8
01
 10
900.87516710867749
 20
-721.21380044686805
 30
0.0
 11
908.37378564016751
 21
-721.21389376844422
 31
0.0
  0
LINE
  5
C971
  8
01
 10
889.67516710867858
 20
-724.21366106120649
 30
0.0
 11
890.67516710867858
 21
-724.21367350637559
 31
0.0
  0
LINE
  5
C972
  8
01
 10
884.37516710867919
 20
-762.71372627252185
 30
0.0
 11
892.37516710867567
 21
-762.71372627252106
 31
0.0
  0
LINE
  5
C973
  8
01
 10
890.87446678714332
 20
-750.71372627251856
 30
0.0
 11
902.87516710867919
 21
-750.71372627251765
 31
0.0
  0
LINE
  5
C974
  8
01
 10
893.45016710867628
 20
-753.13872627252204
 30
0.0
 11
900.30016710868222
 21
-753.13872627252135
 31
0.0
  0
LINE
  5
C975
  8
01
 10
903.87516710867567
 20
-721.71361375912045
 30
0.0
 11
900.87516710867749
 21
-721.71365109462931
 31
0.0
  0
LINE
  5
C976
  8
01
 10
903.87516710867749
 20
-723.71361375927506
 30
0.0
 11
902.87516710867749
 21
-723.71362620444495
 31
0.0
  0
LINE
  5
C977
  8
01
 10
907.87546793879108
 20
-721.21370088973572
 30
0.0
 11
900.87550632637056
 21
-721.21370088973663
 31
0.0
  0
LINE
  5
C978
  8
01
 10
892.87550632601597
 20
-721.21370088973686
 30
0.0
 11
885.87546793879119
 21
-721.21370088973708
 31
0.0
  0
LINE
  5
C979
  8
01
 10
904.07516710867651
 20
-724.21366105248069
 30
0.0
 11
903.07516710867628
 21
-724.21367349765001
 31
0.0
  0
LINE
  5
C97A
  8
01
 10
890.67446678714623
 20
-750.71372627251856
 30
0.0
 11
903.07516710867833
 21
-750.71372627251753
 31
0.0
  0
LINE
  5
C97B
  8
01
 10
903.3748165480938
 20
-753.71372627252094
 30
0.0
 11
903.3748165480938
 21
-762.21372627252094
 31
0.0
  0
LINE
  5
C97C
  8
01
 10
903.3748165480938
 20
-756.06372627252063
 30
0.0
 11
903.72481654809235
 21
-755.7137262725206
 31
0.0
  0
LINE
  5
C97D
  8
01
 10
903.3748165480938
 20
-767.36372627252081
 30
0.0
 11
903.72481654809235
 21
-767.71372627252072
 31
0.0
  0
LINE
  5
C97E
  8
01
 10
903.72481654809235
 20
-755.7137262725206
 30
0.0
 11
907.02481654809174
 21
-755.7137262725206
 31
0.0
  0
LINE
  5
C97F
  8
01
 10
903.72481654809235
 20
-767.71372627252072
 30
0.0
 11
907.02481654809174
 21
-767.71372627252072
 31
0.0
  0
LINE
  5
C980
  8
01
 10
907.02481654809174
 20
-755.7137262725206
 30
0.0
 11
907.37481654809369
 21
-756.0637262725204
 31
0.0
  0
LINE
  5
C981
  8
01
 10
907.02481654809174
 20
-767.71372627252072
 30
0.0
 11
907.37481654809369
 21
-767.36372627252035
 31
0.0
  0
LINE
  5
C982
  8
01
 10
907.37481654809017
 20
-753.71372627252015
 30
0.0
 11
907.37481654809369
 21
-762.21372627252038
 31
0.0
  0
LINE
  5
C983
  8
01
 10
907.02481654809174
 20
-751.71372627251935
 30
0.0
 11
907.02481654809355
 21
-761.86372627252013
 31
0.0
  0
LINE
  5
C984
  8
01
 10
903.72481654809235
 20
-751.71372627251969
 30
0.0
 11
903.72481654809235
 21
-761.86372627252149
 31
0.0
  0
LINE
  5
C985
  8
01
 10
905.37481654809199
 20
-749.04488624063379
 30
0.0
 11
905.37481654809369
 21
-772.85489829370329
 31
0.0
  0
LINE
  5
C986
  8
01
 10
903.3748165480938
 20
-756.06372627252063
 30
0.0
 11
907.37481654809369
 21
-756.0637262725204
 31
0.0
  0
LINE
  5
C987
  8
01
 10
903.3748165480938
 20
-767.36372627252081
 30
0.0
 11
907.37481654809369
 21
-767.36372627252035
 31
0.0
  0
LINE
  5
C988
  8
01
 10
903.72481654809235
 20
-751.71372627251969
 30
0.0
 11
905.37481654809369
 21
-750.0637262725229
 31
0.0
  0
LINE
  5
C989
  8
01
 10
903.72481654809235
 20
-751.71372627252015
 30
0.0
 11
907.02481654809174
 21
-751.71372627252049
 31
0.0
  0
LINE
  5
C98A
  8
01
 10
905.37481654809369
 20
-750.0637262725229
 30
0.0
 11
907.02481654809174
 21
-751.71372627251935
 31
0.0
  0
LINE
  5
C98B
  8
01
 10
903.37481654809199
 20
-753.71372627252094
 30
0.0
 11
903.72481654809235
 21
-753.36372627252103
 31
0.0
  0
LINE
  5
C98C
  8
01
 10
903.72481654809235
 20
-753.36372627252103
 30
0.0
 11
907.02481654809174
 21
-753.36372627252103
 31
0.0
  0
LINE
  5
C98D
  8
01
 10
907.02481654809174
 20
-753.36372627252103
 30
0.0
 11
907.37481654809187
 21
-753.71372627252072
 31
0.0
  0
LINE
  5
C98E
  8
01
 10
903.3748165480938
 20
-753.71372627252094
 30
0.0
 11
907.37481654809017
 21
-753.71372627252038
 31
0.0
  0
LINE
  5
C98F
  8
01
 10
902.87481654810654
 20
-762.71372627250912
 30
0.0
 11
903.72481654809235
 21
-761.86372627252149
 31
0.0
  0
LINE
  5
C990
  8
01
 10
907.02481654809355
 20
-761.86372627252013
 30
0.0
 11
907.87481654808187
 21
-762.71372627250855
 31
0.0
  0
LINE
  5
C991
  8
01
  6
BYBLOCK
 10
903.3748165480938
 20
-767.36372627252081
 30
0.0
 11
903.3748165480938
 21
-756.0637262725196
 31
0.0
  0
LINE
  5
C992
  8
01
  6
BYBLOCK
 10
903.27481654809151
 20
-769.71372627252026
 30
0.0
 11
903.27481654809151
 21
-763.21372627252094
 31
0.0
  0
LINE
  5
C993
  8
01
  6
BYBLOCK
 10
907.37481654809369
 20
-767.36372627252035
 30
0.0
 11
907.37481654809369
 21
-756.0637262725204
 31
0.0
  0
LINE
  5
C994
  8
01
  6
BYBLOCK
 10
907.4748165480928
 20
-769.7137262725214
 30
0.0
 11
907.47481654809417
 21
-763.21372627251844
 31
0.0
  0
LINE
  5
C995
  8
01
 10
903.72481654809235
 20
-755.7137262725206
 30
0.0
 11
903.72481654809235
 21
-767.71372627252072
 31
0.0
  0
LINE
  5
C996
  8
01
 10
907.02481654809174
 20
-755.7137262725206
 30
0.0
 11
907.02481654809174
 21
-767.71372627252072
 31
0.0
  0
LINE
  5
C997
  8
01
 10
889.87516710867556
 20
-700.91359875244325
 30
0.0
 11
889.87516710867556
 21
-702.11360573271031
 31
0.0
  0
LINE
  5
C998
  8
01
 10
900.30016710867847
 20
-704.41360573271265
 30
0.0
 11
900.30016710867847
 21
-737.11360573271008
 31
0.0
  0
LINE
  5
C999
  8
01
 10
893.45016710867628
 20
-704.41360573271288
 30
0.0
 11
893.45016710867628
 21
-737.1136057327102
 31
0.0
  0
LINE
  5
C99A
  8
01
 10
900.87516710867749
 20
-704.41360573271265
 30
0.0
 11
900.87516710867749
 21
-736.53860573271038
 31
0.0
  0
LINE
  5
C99B
  8
01
 10
892.87516710867556
 20
-704.41360573271288
 30
0.0
 11
892.87516710867749
 21
-736.53860573271072
 31
0.0
  0
ARC
  5
C99C
  8
01
 10
893.87516710867567
 20
-700.91359875244302
 30
0.0
 40
4.0
 50
89.999866684474966
 51
180.0
  0
LINE
  5
C99D
  8
01
 10
899.87517641585509
 20
-696.91361271322262
 30
0.0
 11
893.87517641585509
 21
-696.91359875245394
 31
0.0
  0
ARC
  5
C99E
  8
01
 10
899.87516710867556
 20
-700.91361271321171
 30
0.0
 40
4.0
 50
0.0
 51
89.999866684474966
  0
LINE
  5
C99F
  8
01
 10
903.87516710867567
 20
-700.91361271321148
 30
0.0
 11
903.87516710867567
 21
-702.1136057327094
 31
0.0
  0
LINE
  5
C9A0
  8
01
 10
903.275116761204
 20
-704.41360573271231
 30
0.0
 11
903.275116761204
 21
-702.1136057327094
 31
0.0
  0
LINE
  5
C9A1
  8
01
 10
890.47511676120303
 20
-702.11360573271031
 30
0.0
 11
890.47511676120473
 21
-704.41360573271322
 31
0.0
  0
LINE
  5
C9A2
  8
01
 10
903.275116761204
 20
-704.41360573271231
 30
0.0
 11
890.47511676120473
 21
-704.41360573271322
 31
0.0
  0
LINE
  5
C9A3
  8
01
 10
889.87516710867556
 20
-702.11360573271031
 30
0.0
 11
903.87516710867567
 21
-702.1136057327094
 31
0.0
  0
LINE
  5
C9A4
  8
01
 10
893.45016710867628
 20
-737.1136057327102
 30
0.0
 11
900.30016710867847
 21
-737.11360573271008
 31
0.0
  0
LINE
  5
C9A5
  8
01
 10
896.77556203829772
 20
-702.11360573270974
 30
0.0
 11
896.50761284586758
 21
-704.41360573271265
 31
0.0
  0
LINE
  5
C9A6
  8
01
 10
897.22587268853385
 20
-702.11360573270974
 30
0.0
 11
896.95792349610565
 21
-704.41360573271265
 31
0.0
  0
LINE
  5
C9A7
  8
01
 10
896.87516710867919
 20
-749.1385579746792
 30
0.0
 11
893.45016710867628
 21
-745.71361375912124
 31
0.0
  0
LINE
  5
C9A8
  8
01
 10
896.87516710867919
 20
-749.1385579746792
 30
0.0
 11
900.30016710867847
 21
-745.7136137591126
 31
0.0
  0
LINE
  5
C9A9
  8
01
 10
893.45016710867628
 20
-737.1136057327102
 30
0.0
 11
892.87516710867749
 21
-736.53860573271072
 31
0.0
  0
LINE
  5
C9AA
  8
01
 10
900.30016710867847
 20
-737.11360573271008
 30
0.0
 11
900.87516710867749
 21
-736.53860573271027
 31
0.0
  0
LINE
  5
C9AB
  8
01
 10
892.87516710867749
 20
-736.53860573271072
 30
0.0
 11
900.87516710867749
 21
-736.53860573271027
 31
0.0
  0
LINE
  5
C9AC
  8
01
 10
900.30016710867847
 20
-722.83864504606538
 30
0.0
 11
900.30016710867847
 21
-745.71361375912068
 31
0.0
  0
LINE
  5
C9AD
  8
01
 10
893.45016710867628
 20
-722.83864659198593
 30
0.0
 11
893.45016710867628
 21
-745.71361375912102
 31
0.0
  0
LINE
  5
C9AE
  8
01
 10
900.87516710867749
 20
-722.26364499580063
 30
0.0
 11
900.87516710867931
 21
-742.71361375912068
 31
0.0
  0
LINE
  5
C9AF
  8
01
 10
892.87516710867556
 20
-722.26364654171789
 30
0.0
 11
892.87516710867556
 21
-742.71361375911783
 31
0.0
  0
LINE
  5
C9B0
  8
01
 10
893.4501671086781
 20
-743.28861375912084
 30
0.0
 11
900.30016710867847
 21
-743.28861375912049
 31
0.0
  0
LINE
  5
C9B1
  8
01
 10
893.4501671086781
 20
-743.28861375912084
 30
0.0
 11
892.87516710867931
 21
-742.71361375912124
 31
0.0
  0
LINE
  5
C9B2
  8
01
 10
900.30016710867847
 20
-743.28861375912049
 30
0.0
 11
900.87516710867931
 21
-742.71361375912068
 31
0.0
  0
LINE
  5
C9B3
  8
01
 10
892.87516710867931
 20
-742.71361375912124
 30
0.0
 11
900.87516710867931
 21
-742.71361375912068
 31
0.0
  0
LINE
  5
C9B4
  8
01
 10
893.45016710867628
 20
-745.71361375912124
 30
0.0
 11
900.30016710867847
 21
-745.71361375912068
 31
0.0
  0
LINE
  5
C9B5
  8
01
  6
BYBLOCK
 10
900.30016710868222
 20
-763.78872627251963
 30
0.0
 11
900.30016710868165
 21
-779.21372629294365
 31
0.0
  0
LINE
  5
C9B6
  8
01
  6
BYBLOCK
 10
893.45016710868015
 20
-763.78872627252565
 30
0.0
 11
893.45016710868015
 21
-779.21372629294365
 31
0.0
  0
LINE
  5
C9B7
  8
01
  6
BYBLOCK
 10
900.87516710867931
 20
-763.2137262725231
 30
0.0
 11
900.87516710868113
 21
-776.71372629294137
 31
0.0
  0
LINE
  5
C9B8
  8
01
  6
BYBLOCK
 10
892.87516710867556
 20
-763.2137262725214
 30
0.0
 11
892.8751671086784
 21
-776.71372629294774
 31
0.0
  0
LINE
  5
C9B9
  8
01
 10
900.30016710868222
 20
-750.71372627251731
 30
0.0
 11
900.30016710868051
 21
-775.71360573270965
 31
0.0
  0
LINE
  5
C9BA
  8
01
 10
893.45016710867628
 20
-750.71372627251822
 30
0.0
 11
893.45016710868015
 21
-775.71360573270954
 31
0.0
  0
LINE
  5
C9BB
  8
01
 10
900.87516710867931
 20
-753.71372627251787
 30
0.0
 11
900.87516710867931
 21
-775.13860573271018
 31
0.0
  0
LINE
  5
C9BC
  8
01
 10
900.97516710867785
 20
-750.71372627251753
 30
0.0
 11
900.97516710867728
 21
-762.71372627250912
 31
0.0
  0
LINE
  5
C9BD
  8
01
 10
892.87516710868067
 20
-753.71372627251912
 30
0.0
 11
892.87516710867931
 21
-775.13860573271074
 31
0.0
  0
LINE
  5
C9BE
  8
01
 10
892.77516710868076
 20
-750.71372627251844
 30
0.0
 11
892.77516710868076
 21
-762.71372627250889
 31
0.0
  0
LINE
  5
C9BF
  8
01
 10
893.45016710868015
 20
-775.71360573271022
 30
0.0
 11
900.30016710868051
 21
-775.71360573270999
 31
0.0
  0
LINE
  5
C9C0
  8
01
 10
893.45016710868015
 20
-775.71360573271022
 30
0.0
 11
892.87516710867931
 21
-775.13860573271063
 31
0.0
  0
LINE
  5
C9C1
  8
01
 10
900.30016710868051
 20
-775.71360573270999
 30
0.0
 11
900.87516710867931
 21
-775.13860573271018
 31
0.0
  0
LINE
  5
C9C2
  8
01
 10
892.87516710867931
 20
-775.13860573271063
 30
0.0
 11
900.87516710867931
 21
-775.13860573271018
 31
0.0
  0
LINE
  5
C9C3
  8
01
 10
900.30016710868222
 20
-753.13872627252135
 30
0.0
 11
900.87516710867931
 21
-753.71372627251753
 31
0.0
  0
LINE
  5
C9C4
  8
01
 10
893.45016710867628
 20
-753.13872627252215
 30
0.0
 11
892.87516710868113
 21
-753.71372627251844
 31
0.0
  0
LINE
  5
C9C5
  8
01
 10
892.87516710868113
 20
-753.71372627251844
 30
0.0
 11
900.87516710867931
 21
-753.71372627251787
 31
0.0
  0
LINE
  5
C9C6
  8
01
  6
BYBLOCK
 10
905.37481654809369
 20
-771.81372627252063
 30
0.0
 11
903.27481654809151
 21
-769.71372627252026
 31
0.0
  0
LINE
  5
C9C7
  8
01
  6
BYBLOCK
 10
905.37481654809369
 20
-771.81372627252131
 30
0.0
 11
907.4748165480928
 21
-769.7137262725214
 31
0.0
  0
LINE
  5
C9C8
  8
01
  6
BYBLOCK
 10
892.37516710867567
 20
-762.7137262725214
 30
0.0
 11
893.45016710868015
 21
-763.78872627252565
 31
0.0
  0
LINE
  5
C9C9
  8
01
  6
BYBLOCK
 10
901.37516710868113
 20
-762.7137262725214
 30
0.0
 11
900.30016710868222
 21
-763.78872627251963
 31
0.0
  0
LINE
  5
C9CA
  8
01
  6
BYBLOCK
 10
907.47481654809417
 20
-763.21372627251844
 30
0.0
 11
907.97481654810554
 21
-762.71372627250889
 31
0.0
  0
LINE
  5
C9CB
  8
01
  6
BYBLOCK
 10
903.27481654809151
 20
-763.21372627252094
 30
0.0
 11
902.77481654807798
 21
-762.71372627250912
 31
0.0
  0
LINE
  5
C9CC
  8
01
 10
884.37516710867556
 20
-707.91369918391558
 30
0.0
 11
885.37379435240837
 21
-707.91369922756621
 31
0.0
  0
LINE
  5
C9CD
  8
01
 10
908.37379435420007
 20
-707.91370023291324
 30
0.0
 11
909.37516710867556
 21
-707.91370027668472
 31
0.0
  0
LINE
  5
C9CE
  8
01
 10
884.37516710867556
 20
-707.91369918391558
 30
0.0
 11
884.37516710867556
 21
-665.71367366696791
 31
0.0
  0
LINE
  5
C9CF
  8
01
 10
909.37516710867556
 20
-707.91369918391592
 30
0.0
 11
909.37516710867624
 21
-665.71367366696575
 31
0.0
  0
LINE
  5
C9DF
  8
01
  6
BYBLOCK
 10
871.87481654809153
 20
-644.71367366695097
 30
0.0
 11
871.87481654808664
 21
-664.71367366695085
 31
0.0
  0
ARC
  5
C9E0
  8
01
 10
872.87481654809199
 20
-644.71367366695131
 30
0.0
 40
1.0
 50
90.000000000000028
 51
180.0
  0
ARC
  5
C9E2
  8
01
 10
872.87481654808653
 20
-664.71367366695131
 30
0.0
 40
1.0
 50
180.0
 51
270.0
  0
POLYLINE
  8
01
  5
D7F4
  66
     1
 10
0.000000
 20
0.000000
 30
0.000000
  70
     8
  0
VERTEX
  8
01
  5
D7F5
 10
923.080
 20
-784.714
 30
0.000000
  70
    32
  0
VERTEX
  8
01
  5
D7F6
 10
923.197
 20
-784.621
 30
0.000000
  70
    32
  0
VERTEX
  8
01
  5
D7F7
 10
923.311
 20
-784.527
 30
0.000000
  70
    32
  0
VERTEX
  8
01
  5
D7F8
 10
923.423
 20
-784.433
 30
0.000000
  70
    32
  0
VERTEX
  8
01
  5
D7F9
 10
923.533
 20
-784.339
 30
0.000000
  70
    32
  0
VERTEX
  8
01
  5
D7FA
 10
923.641
 20
-784.245
 30
0.000000
  70
    32
  0
VERTEX
  8
01
  5
D7FB
 10
923.746
 20
-784.149
 30
0.000000
  70
    32
  0
VERTEX
  8
01
  5
D7FC
 10
923.849
 20
-784.054
 30
0.000000
  70
    32
  0
VERTEX
  8
01
  5
D7FD
 10
923.950
 20
-783.958
 30
0.000000
  70
    32
  0
VERTEX
  8
01
  5
D7FE
 10
924.048
 20
-783.862
 30
0.000000
  70
    32
  0
VERTEX
  8
01
  5
D7FF
 10
924.144
 20
-783.765
 30
0.000000
  70
    32
  0
VERTEX
  8
01
  5
D800
 10
924.237
 20
-783.668
 30
0.000000
  70
    32
  0
VERTEX
  8
01
  5
D801
 10
924.328
 20
-783.570
 30
0.000000
  70
    32
  0
VERTEX
  8
01
  5
D802
 10
924.416
 20
-783.472
 30
0.000000
  70
    32
  0
VERTEX
  8
01
  5
D803
 10
924.502
 20
-783.374
 30
0.000000
  70
    32
  0
VERTEX
  8
01
  5
D804
 10
924.586
 20
-783.275
 30
0.000000
  70
    32
  0
VERTEX
  8
01
  5
D805
 10
924.666
 20
-783.176
 30
0.000000
  70
    32
  0
VERTEX
  8
01
  5
D806
 10
924.744
 20
-783.076
 30
0.000000
  70
    32
  0
VERTEX
  8
01
  5
D807
 10
924.820
 20
-782.975
 30
0.000000
  70
    32
  0
VERTEX
  8
01
  5
D808
 10
924.892
 20
-782.875
 30
0.000000
  70
    32
  0
VERTEX
  8
01
  5
D809
 10
924.962
 20
-782.773
 30
0.000000
  70
    32
  0
VERTEX
  8
01
  5
D80A
 10
925.029
 20
-782.671
 30
0.000000
  70
    32
  0
VERTEX
  8
01
  5
D80B
 10
925.094
 20
-782.569
 30
0.000000
  70
    32
  0
VERTEX
  8
01
  5
D80C
 10
925.155
 20
-782.466
 30
0.000000
  70
    32
  0
VERTEX
  8
01
  5
D80D
 10
925.214
 20
-782.363
 30
0.000000
  70
    32
  0
VERTEX
  8
01
  5
D80E
 10
925.269
 20
-782.259
 30
0.000000
  70
    32
  0
VERTEX
  8
01
  5
D80F
 10
925.322
 20
-782.155
 30
0.000000
  70
    32
  0
VERTEX
  8
01
  5
D810
 10
925.372
 20
-782.050
 30
0.000000
  70
    32
  0
VERTEX
  8
01
  5
D811
 10
925.419
 20
-781.945
 30
0.000000
  70
    32
  0
VERTEX
  8
01
  5
D812
 10
925.463
 20
-781.839
 30
0.000000
  70
    32
  0
VERTEX
  8
01
  5
D813
 10
925.504
 20
-781.732
 30
0.000000
  70
    32
  0
VERTEX
  8
01
  5
D814
 10
925.541
 20
-781.625
 30
0.000000
  70
    32
  0
VERTEX
  8
01
  5
D815
 10
925.576
 20
-781.518
 30
0.000000
  70
    32
  0
VERTEX
  8
01
  5
D816
 10
925.607
 20
-781.410
 30
0.000000
  70
    32
  0
VERTEX
  8
01
  5
D817
 10
925.635
 20
-781.301
 30
0.000000
  70
    32
  0
VERTEX
  8
01
  5
D818
 10
925.660
 20
-781.192
 30
0.000000
  70
    32
  0
VERTEX
  8
01
  5
D819
 10
925.682
 20
-781.082
 30
0.000000
  70
    32
  0
VERTEX
  8
01
  5
D81A
 10
925.701
 20
-780.971
 30
0.000000
  70
    32
  0
VERTEX
  8
01
  5
D81B
 10
925.716
 20
-780.860
 30
0.000000
  70
    32
  0
VERTEX
  8
01
  5
D81C
 10
925.728
 20
-780.749
 30
0.000000
  70
    32
  0
VERTEX
  8
01
  5
D81D
 10
925.736
 20
-780.637
 30
0.000000
  70
    32
  0
VERTEX
  8
01
  5
D81E
 10
925.741
 20
-780.524
 30
0.000000
  70
    32
  0
VERTEX
  8
01
  5
D81F
 10
925.743
 20
-780.410
 30
0.000000
  70
    32
  0
VERTEX
  8
01
  5
D820
 10
925.741
 20
-780.296
 30
0.000000
  70
    32
  0
VERTEX
  8
01
  5
D821
 10
925.736
 20
-780.182
 30
0.000000
  70
    32
  0
VERTEX
  8
01
  5
D822
 10
925.727
 20
-780.066
 30
0.000000
  70
    32
  0
VERTEX
  8
01
  5
D823
 10
925.714
 20
-779.951
 30
0.000000
  70
    32
  0
VERTEX
  8
01
  5
D824
 10
925.698
 20
-779.834
 30
0.000000
  70
    32
  0
VERTEX
  8
01
  5
D825
 10
925.678
 20
-779.717
 30
0.000000
  70
    32
  0
VERTEX
  8
01
  5
D826
 10
925.655
 20
-779.599
 30
0.000000
  70
    32
  0
VERTEX
  8
01
  5
D827
 10
925.628
 20
-779.481
 30
0.000000
  70
    32
  0
VERTEX
  8
01
  5
D828
 10
925.597
 20
-779.361
 30
0.000000
  70
    32
  0
VERTEX
  8
01
  5
D829
 10
925.563
 20
-779.242
 30
0.000000
  70
    32
  0
VERTEX
  8
01
  5
D82A
 10
925.524
 20
-779.121
 30
0.000000
  70
    32
  0
VERTEX
  8
01
  5
D82B
 10
925.483
 20
-779.000
 30
0.000000
  70
    32
  0
VERTEX
  8
01
  5
D82C
 10
925.438
 20
-778.879
 30
0.000000
  70
    32
  0
VERTEX
  8
01
  5
D82D
 10
925.390
 20
-778.756
 30
0.000000
  70
    32
  0
VERTEX
  8
01
  5
D82E
 10
925.338
 20
-778.633
 30
0.000000
  70
    32
  0
VERTEX
  8
01
  5
D82F
 10
925.284
 20
-778.510
 30
0.000000
  70
    32
  0
VERTEX
  8
01
  5
D830
 10
925.226
 20
-778.386
 30
0.000000
  70
    32
  0
VERTEX
  8
01
  5
D831
 10
925.166
 20
-778.262
 30
0.000000
  70
    32
  0
VERTEX
  8
01
  5
D832
 10
925.103
 20
-778.137
 30
0.000000
  70
    32
  0
VERTEX
  8
01
  5
D833
 10
925.038
 20
-778.011
 30
0.000000
  70
    32
  0
VERTEX
  8
01
  5
D834
 10
924.969
 20
-777.886
 30
0.000000
  70
    32
  0
VERTEX
  8
01
  5
D835
 10
924.899
 20
-777.759
 30
0.000000
  70
    32
  0
VERTEX
  8
01
  5
D836
 10
924.826
 20
-777.632
 30
0.000000
  70
    32
  0
VERTEX
  8
01
  5
D837
 10
924.751
 20
-777.505
 30
0.000000
  70
    32
  0
VERTEX
  8
01
  5
D838
 10
924.673
 20
-777.378
 30
0.000000
  70
    32
  0
VERTEX
  8
01
  5
D839
 10
924.594
 20
-777.250
 30
0.000000
  70
    32
  0
VERTEX
  8
01
  5
D83A
 10
924.513
 20
-777.121
 30
0.000000
  70
    32
  0
VERTEX
  8
01
  5
D83B
 10
924.430
 20
-776.993
 30
0.000000
  70
    32
  0
VERTEX
  8
01
  5
D83C
 10
924.346
 20
-776.864
 30
0.000000
  70
    32
  0
VERTEX
  8
01
  5
D83D
 10
924.259
 20
-776.734
 30
0.000000
  70
    32
  0
VERTEX
  8
01
  5
D83E
 10
924.172
 20
-776.604
 30
0.000000
  70
    32
  0
VERTEX
  8
01
  5
D83F
 10
924.083
 20
-776.475
 30
0.000000
  70
    32
  0
VERTEX
  8
01
  5
D840
 10
923.992
 20
-776.344
 30
0.000000
  70
    32
  0
VERTEX
  8
01
  5
D841
 10
923.901
 20
-776.214
 30
0.000000
  70
    32
  0
VERTEX
  8
01
  5
D842
 10
923.808
 20
-776.083
 30
0.000000
  70
    32
  0
VERTEX
  8
01
  5
D843
 10
923.715
 20
-775.952
 30
0.000000
  70
    32
  0
VERTEX
  8
01
  5
D844
 10
923.621
 20
-775.821
 30
0.000000
  70
    32
  0
VERTEX
  8
01
  5
D845
 10
923.526
 20
-775.690
 30
0.000000
  70
    32
  0
VERTEX
  8
01
  5
D846
 10
923.430
 20
-775.558
 30
0.000000
  70
    32
  0
VERTEX
  8
01
  5
D847
 10
923.334
 20
-775.427
 30
0.000000
  70
    32
  0
VERTEX
  8
01
  5
D848
 10
923.238
 20
-775.295
 30
0.000000
  70
    32
  0
VERTEX
  8
01
  5
D849
 10
923.141
 20
-775.163
 30
0.000000
  70
    32
  0
VERTEX
  8
01
  5
D84A
 10
923.044
 20
-775.031
 30
0.000000
  70
    32
  0
VERTEX
  8
01
  5
D84B
 10
922.946
 20
-774.899
 30
0.000000
  70
    32
  0
VERTEX
  8
01
  5
D84C
 10
922.849
 20
-774.767
 30
0.000000
  70
    32
  0
VERTEX
  8
01
  5
D84D
 10
922.752
 20
-774.635
 30
0.000000
  70
    32
  0
VERTEX
  8
01
  5
D84E
 10
922.656
 20
-774.502
 30
0.000000
  70
    32
  0
VERTEX
  8
01
  5
D84F
 10
922.559
 20
-774.370
 30
0.000000
  70
    32
  0
VERTEX
  8
01
  5
D850
 10
922.463
 20
-774.238
 30
0.000000
  70
    32
  0
VERTEX
  8
01
  5
D851
 10
922.368
 20
-774.106
 30
0.000000
  70
    32
  0
VERTEX
  8
01
  5
D852
 10
922.273
 20
-773.973
 30
0.000000
  70
    32
  0
VERTEX
  8
01
  5
D853
 10
922.179
 20
-773.841
 30
0.000000
  70
    32
  0
VERTEX
  8
01
  5
D854
 10
922.086
 20
-773.709
 30
0.000000
  70
    32
  0
VERTEX
  8
01
  5
D855
 10
921.993
 20
-773.577
 30
0.000000
  70
    32
  0
VERTEX
  8
01
  5
D856
 10
921.902
 20
-773.445
 30
0.000000
  70
    32
  0
VERTEX
  8
01
  5
D857
 10
921.812
 20
-773.314
 30
0.000000
  70
    32
  0
VERTEX
  8
01
  5
D858
 10
921.724
 20
-773.182
 30
0.000000
  70
    32
  0
VERTEX
  8
01
  5
D859
 10
921.636
 20
-773.051
 30
0.000000
  70
    32
  0
VERTEX
  8
01
  5
D85A
 10
921.551
 20
-772.919
 30
0.000000
  70
    32
  0
VERTEX
  8
01
  5
D85B
 10
921.466
 20
-772.788
 30
0.000000
  70
    32
  0
VERTEX
  8
01
  5
D85C
 10
921.384
 20
-772.657
 30
0.000000
  70
    32
  0
VERTEX
  8
01
  5
D85D
 10
921.303
 20
-772.526
 30
0.000000
  70
    32
  0
VERTEX
  8
01
  5
D85E
 10
921.224
 20
-772.396
 30
0.000000
  70
    32
  0
VERTEX
  8
01
  5
D85F
 10
921.148
 20
-772.266
 30
0.000000
  70
    32
  0
VERTEX
  8
01
  5
D860
 10
921.073
 20
-772.136
 30
0.000000
  70
    32
  0
VERTEX
  8
01
  5
D861
 10
921.001
 20
-772.006
 30
0.000000
  70
    32
  0
VERTEX
  8
01
  5
D862
 10
920.931
 20
-771.877
 30
0.000000
  70
    32
  0
VERTEX
  8
01
  5
D863
 10
920.863
 20
-771.748
 30
0.000000
  70
    32
  0
VERTEX
  8
01
  5
D864
 10
920.798
 20
-771.619
 30
0.000000
  70
    32
  0
VERTEX
  8
01
  5
D865
 10
920.736
 20
-771.491
 30
0.000000
  70
    32
  0
VERTEX
  8
01
  5
D866
 10
920.676
 20
-771.363
 30
0.000000
  70
    32
  0
VERTEX
  8
01
  5
D867
 10
920.620
 20
-771.235
 30
0.000000
  70
    32
  0
VERTEX
  8
01
  5
D868
 10
920.566
 20
-771.108
 30
0.000000
  70
    32
  0
VERTEX
  8
01
  5
D869
 10
920.515
 20
-770.981
 30
0.000000
  70
    32
  0
VERTEX
  8
01
  5
D86A
 10
920.468
 20
-770.855
 30
0.000000
  70
    32
  0
VERTEX
  8
01
  5
D86B
 10
920.424
 20
-770.729
 30
0.000000
  70
    32
  0
VERTEX
  8
01
  5
D86C
 10
920.383
 20
-770.604
 30
0.000000
  70
    32
  0
VERTEX
  8
01
  5
D86D
 10
920.346
 20
-770.479
 30
0.000000
  70
    32
  0
VERTEX
  8
01
  5
D86E
 10
920.313
 20
-770.354
 30
0.000000
  70
    32
  0
VERTEX
  8
01
  5
D86F
 10
920.283
 20
-770.230
 30
0.000000
  70
    32
  0
VERTEX
  8
01
  5
D870
 10
920.257
 20
-770.107
 30
0.000000
  70
    32
  0
VERTEX
  8
01
  5
D871
 10
920.235
 20
-769.984
 30
0.000000
  70
    32
  0
VERTEX
  8
01
  5
D872
 10
920.216
 20
-769.862
 30
0.000000
  70
    32
  0
VERTEX
  8
01
  5
D873
 10
920.202
 20
-769.740
 30
0.000000
  70
    32
  0
VERTEX
  8
01
  5
D874
 10
920.191
 20
-769.619
 30
0.000000
  70
    32
  0
VERTEX
  8
01
  5
D875
 10
920.184
 20
-769.498
 30
0.000000
  70
    32
  0
VERTEX
  8
01
  5
D876
 10
920.181
 20
-769.378
 30
0.000000
  70
    32
  0
VERTEX
  8
01
  5
D877
 10
920.181
 20
-769.258
 30
0.000000
  70
    32
  0
VERTEX
  8
01
  5
D878
 10
920.185
 20
-769.139
 30
0.000000
  70
    32
  0
VERTEX
  8
01
  5
D879
 10
920.192
 20
-769.021
 30
0.000000
  70
    32
  0
VERTEX
  8
01
  5
D87A
 10
920.203
 20
-768.903
 30
0.000000
  70
    32
  0
VERTEX
  8
01
  5
D87B
 10
920.218
 20
-768.785
 30
0.000000
  70
    32
  0
VERTEX
  8
01
  5
D87C
 10
920.236
 20
-768.668
 30
0.000000
  70
    32
  0
VERTEX
  8
01
  5
D87D
 10
920.257
 20
-768.551
 30
0.000000
  70
    32
  0
VERTEX
  8
01
  5
D87E
 10
920.282
 20
-768.435
 30
0.000000
  70
    32
  0
VERTEX
  8
01
  5
D87F
 10
920.310
 20
-768.319
 30
0.000000
  70
    32
  0
VERTEX
  8
01
  5
D880
 10
920.341
 20
-768.204
 30
0.000000
  70
    32
  0
VERTEX
  8
01
  5
D881
 10
920.376
 20
-768.089
 30
0.000000
  70
    32
  0
VERTEX
  8
01
  5
D882
 10
920.414
 20
-767.975
 30
0.000000
  70
    32
  0
VERTEX
  8
01
  5
D883
 10
920.455
 20
-767.861
 30
0.000000
  70
    32
  0
VERTEX
  8
01
  5
D884
 10
920.499
 20
-767.747
 30
0.000000
  70
    32
  0
VERTEX
  8
01
  5
D885
 10
920.546
 20
-767.634
 30
0.000000
  70
    32
  0
VERTEX
  8
01
  5
D886
 10
920.597
 20
-767.522
 30
0.000000
  70
    32
  0
VERTEX
  8
01
  5
D887
 10
920.650
 20
-767.409
 30
0.000000
  70
    32
  0
VERTEX
  8
01
  5
D888
 10
920.707
 20
-767.298
 30
0.000000
  70
    32
  0
VERTEX
  8
01
  5
D889
 10
920.766
 20
-767.186
 30
0.000000
  70
    32
  0
VERTEX
  8
01
  5
D88A
 10
920.828
 20
-767.075
 30
0.000000
  70
    32
  0
VERTEX
  8
01
  5
D88B
 10
920.893
 20
-766.965
 30
0.000000
  70
    32
  0
VERTEX
  8
01
  5
D88C
 10
920.961
 20
-766.855
 30
0.000000
  70
    32
  0
VERTEX
  8
01
  5
D88D
 10
921.032
 20
-766.745
 30
0.000000
  70
    32
  0
VERTEX
  8
01
  5
D88E
 10
921.105
 20
-766.636
 30
0.000000
  70
    32
  0
VERTEX
  8
01
  5
D88F
 10
921.182
 20
-766.527
 30
0.000000
  70
    32
  0
VERTEX
  8
01
  5
D890
 10
921.260
 20
-766.418
 30
0.000000
  70
    32
  0
VERTEX
  8
01
  5
D891
 10
921.342
 20
-766.310
 30
0.000000
  70
    32
  0
VERTEX
  8
01
  5
D892
 10
921.426
 20
-766.202
 30
0.000000
  70
    32
  0
VERTEX
  8
01
  5
D893
 10
921.513
 20
-766.094
 30
0.000000
  70
    32
  0
VERTEX
  8
01
  5
D894
 10
921.602
 20
-765.987
 30
0.000000
  70
    32
  0
VERTEX
  8
01
  5
D895
 10
921.694
 20
-765.881
 30
0.000000
  70
    32
  0
VERTEX
  8
01
  5
D896
 10
921.788
 20
-765.774
 30
0.000000
  70
    32
  0
VERTEX
  8
01
  5
D897
 10
921.884
 20
-765.668
 30
0.000000
  70
    32
  0
VERTEX
  8
01
  5
D898
 10
921.983
 20
-765.562
 30
0.000000
  70
    32
  0
VERTEX
  8
01
  5
D899
 10
922.084
 20
-765.457
 30
0.000000
  70
    32
  0
VERTEX
  8
01
  5
D89A
 10
922.188
 20
-765.352
 30
0.000000
  70
    32
  0
VERTEX
  8
01
  5
D89B
 10
922.294
 20
-765.247
 30
0.000000
  70
    32
  0
VERTEX
  8
01
  5
D89C
 10
922.402
 20
-765.142
 30
0.000000
  70
    32
  0
VERTEX
  8
01
  5
D89D
 10
922.512
 20
-765.038
 30
0.000000
  70
    32
  0
VERTEX
  8
01
  5
D89E
 10
922.624
 20
-764.934
 30
0.000000
  70
    32
  0
VERTEX
  8
01
  5
D89F
 10
922.738
 20
-764.831
 30
0.000000
  70
    32
  0
VERTEX
  8
01
  5
D8A0
 10
922.855
 20
-764.727
 30
0.000000
  70
    32
  0
VERTEX
  8
01
  5
D8A1
 10
922.973
 20
-764.624
 30
0.000000
  70
    32
  0
VERTEX
  8
01
  5
D8A2
 10
923.094
 20
-764.522
 30
0.000000
  70
    32
  0
VERTEX
  8
01
  5
D8A3
 10
923.216
 20
-764.419
 30
0.000000
  70
    32
  0
VERTEX
  8
01
  5
D8A4
 10
923.341
 20
-764.317
 30
0.000000
  70
    32
  0
VERTEX
  8
01
  5
D8A5
 10
923.467
 20
-764.215
 30
0.000000
  70
    32
  0
VERTEX
  8
01
  5
D8A6
 10
923.595
 20
-764.113
 30
0.000000
  70
    32
  0
VERTEX
  8
01
  5
D8A7
 10
923.724
 20
-764.012
 30
0.000000
  70
    32
  0
VERTEX
  8
01
  5
D8A8
 10
923.856
 20
-763.911
 30
0.000000
  70
    32
  0
VERTEX
  8
01
  5
D8A9
 10
923.989
 20
-763.810
 30
0.000000
  70
    32
  0
VERTEX
  8
01
  5
D8AA
 10
924.124
 20
-763.709
 30
0.000000
  70
    32
  0
VERTEX
  8
01
  5
D8AB
 10
924.261
 20
-763.609
 30
0.000000
  70
    32
  0
VERTEX
  8
01
  5
D8AC
 10
924.399
 20
-763.508
 30
0.000000
  70
    32
  0
VERTEX
  8
01
  5
D8AD
 10
924.539
 20
-763.408
 30
0.000000
  70
    32
  0
VERTEX
  8
01
  5
D8AE
 10
924.680
 20
-763.308
 30
0.000000
  70
    32
  0
VERTEX
  8
01
  5
D8AF
 10
924.822
 20
-763.209
 30
0.000000
  70
    32
  0
VERTEX
  8
01
  5
D8B0
 10
924.967
 20
-763.109
 30
0.000000
  70
    32
  0
VERTEX
  8
01
  5
D8B1
 10
925.112
 20
-763.010
 30
0.000000
  70
    32
  0
VERTEX
  8
01
  5
D8B2
 10
925.259
 20
-762.911
 30
0.000000
  70
    32
  0
VERTEX
  8
01
  5
D8B3
 10
925.407
 20
-762.812
 30
0.000000
  70
    32
  0
VERTEX
  8
01
  5
D8B4
 10
925.557
 20
-762.714
 30
0.000000
  70
    32
  0
SEQEND
  8
01
  5
D8B5
  0
LINE
  5
CA44
  8
01
 10
1380.8616411595719
 20
-720.21370088972344
 30
0.0
 11
862.49300124131139
 21
-720.21370088972344
 31
0.0
  0
LINE
  5
CA45
  8
01
 10
1380.8616411595719
 20
-708.21369905994743
 30
0.0
 11
862.49300124131139
 21
-708.21369905994743
 31
0.0
  0
LINE
  5
CA5B
  8
01
 10
1501.348797298373
 20
-887.19465497511158
 30
0.0
 11
1501.348797298373
 21
-894.21443429170506
 31
0.0
  0
LINE
  5
CA5C
  8
01
 10
1498.1486634216319
 20
-890.2291634019906
 30
0.0
 11
1498.1486634216319
 21
-889.72916340199072
 31
0.0
  0
LINE
  5
CA5D
  8
01
 10
1499.0987972957801
 20
-888.7790294706316
 30
0.0
 11
1499.0987972957801
 21
-888.32812150909535
 31
0.0
  0
LINE
  5
CA5E
  8
01
 10
1498.148663364422
 20
-889.72916340199072
 30
0.0
 11
1499.0987972957801
 21
-888.7790294706316
 31
0.0
  0
LINE
  5
CA5F
  8
01
 10
1499.0987972957801
 20
-888.77902947063126
 30
0.0
 11
1499.0988221855989
 21
-888.77902947063126
 31
0.0
  0
LINE
  5
CA60
  8
01
 10
1504.5489311751139
 20
-890.27015507035571
 30
0.0
 11
1504.5489311751139
 21
-889.72916340198981
 31
0.0
  0
LINE
  5
CA61
  8
01
 10
1504.5489312323241
 20
-889.72916340199072
 30
0.0
 11
1503.598797300966
 21
-888.77902947063126
 31
0.0
  0
LINE
  5
CA62
  8
01
 10
1503.598797300966
 20
-888.77902947063126
 30
0.0
 11
1503.598797300966
 21
-888.32812150909535
 31
0.0
  0
LINE
  5
CA70
  8
01
  6
BYBLOCK
 10
896.8751671086751
 20
-782.63867050850195
 30
0.0
 11
893.45016710867628
 21
-779.21372629294365
 31
0.0
  0
LINE
  5
CA71
  8
01
  6
BYBLOCK
 10
896.8751671086751
 20
-782.63867050850195
 30
0.0
 11
900.30016710867847
 21
-779.21372629293546
 31
0.0
  0
LINE
  5
CA72
  8
01
  6
BYBLOCK
 10
893.45016710867628
 20
-777.28872629294324
 30
0.0
 11
892.87516710867521
 21
-776.71372629294399
 31
0.0
  0
LINE
  5
CA73
  8
01
  6
BYBLOCK
 10
900.30016710867665
 20
-777.28872629294335
 30
0.0
 11
900.87516710867749
 21
-776.71372629294137
 31
0.0
  0
LINE
  5
CA74
  8
01
 10
892.87516710867521
 20
-776.71372629294399
 30
0.0
 11
900.87516710867749
 21
-776.71372629294137
 31
0.0
  0
LINE
  5
CA75
  8
01
 10
893.45016710867628
 20
-779.21372629294365
 30
0.0
 11
900.30016710867847
 21
-779.21372629294365
 31
0.0
  0
LINE
  5
CA76
  8
01
 10
893.45016710867628
 20
-777.28872629294324
 30
0.0
 11
900.30016710867665
 21
-777.28872629294335
 31
0.0
  0
LINE
  5
CA77
  8
01
  6
BYBLOCK
 10
1359.3744659875031
 20
-866.22916337456695
 30
0.0
 11
1359.374465987504
 21
-866.88715399163698
 31
0.0
  0
LINE
  5
CA78
  8
01
  6
BYBLOCK
 10
1359.3744659875031
 20
-888.88715399164005
 30
0.0
 11
1359.3744659875031
 21
-889.2291638537813
 31
0.0
  0
LINE
  5
CA79
  8
01
  6
BYBLOCK
 10
1334.374465987504
 20
-866.22916337456695
 30
0.0
 11
1334.374465987504
 21
-866.88715399163698
 31
0.0
  0
LINE
  5
CA7A
  8
01
  6
BYBLOCK
 10
1334.374465987504
 20
-888.88715399164005
 30
0.0
 11
1334.374465987504
 21
-889.2291638537813
 31
0.0
  0
LINE
  5
CA7B
  8
01
  6
BYBLOCK
 10
1335.3744659875031
 20
-865.22916337456695
 30
0.0
 11
1358.374465987504
 21
-865.22916337456695
 31
0.0
  0
LINE
  5
CA7C
  8
01
  6
BYBLOCK
 10
1358.374465987504
 20
-890.22916385378119
 30
0.0
 11
1335.3744659875031
 21
-890.22916385378119
 31
0.0
  0
ARC
  5
CA7D
  8
01
  6
BYBLOCK
 10
1335.3744659875031
 20
-866.22916337456695
 30
0.0
 40
1.0
 50
89.999999999973952
 51
180.0
  0
ARC
  5
CA7E
  8
01
  6
BYBLOCK
 10
1358.3744659875031
 20
-866.22916337456718
 30
0.0
 40
1.0
 50
0.0
 51
89.999999999973952
  0
ARC
  5
CA7F
  8
01
  6
BYBLOCK
 10
1358.3744659875031
 20
-889.22916385378085
 30
0.0
 40
1.0
 50
270.00000000002598
 51
359.99999999997402
  0
ARC
  5
CA80
  8
01
  6
BYBLOCK
 10
1335.3744659875031
 20
-889.22916385378107
 30
0.0
 40
1.0
 50
180.0
 51
270.0
  0
LINE
  5
CA81
  8
01
  6
BYBLOCK
 10
884.37516710868385
 20
-866.22916337456695
 30
0.0
 11
884.37516710868385
 21
-866.88715399163698
 31
0.0
  0
LINE
  5
CA82
  8
01
  6
BYBLOCK
 10
884.37516710868385
 20
-888.88715399164005
 30
0.0
 11
884.37516710868385
 21
-889.2291638537813
 31
0.0
  0
LINE
  5
CA83
  8
01
  6
BYBLOCK
 10
909.37516710868385
 20
-866.22916337456695
 30
0.0
 11
909.37516710868385
 21
-866.88715399163698
 31
0.0
  0
LINE
  5
CA84
  8
01
  6
BYBLOCK
 10
909.37516710868385
 20
-888.88715399164005
 30
0.0
 11
909.37516710868385
 21
-889.2291638537813
 31
0.0
  0
LINE
  5
CA85
  8
01
  6
BYBLOCK
 10
908.37516710868385
 20
-865.22916337456695
 30
0.0
 11
885.37516710868385
 21
-865.22916337456695
 31
0.0
  0
LINE
  5
CA86
  8
01
  6
BYBLOCK
 10
885.37516710868385
 20
-890.22916385378119
 30
0.0
 11
908.37516710868385
 21
-890.22916385378119
 31
0.0
  0
ARC
  5
CA87
  8
01
  6
BYBLOCK
 10
908.37516710868385
 20
-866.22916337456695
 30
0.0
 40
1.0
 50
0.0
 51
90.000000000026048
  0
ARC
  5
CA88
  8
01
  6
BYBLOCK
 10
885.37516710868431
 20
-866.22916337456718
 30
0.0
 40
1.0
 50
90.000000000026048
 51
179.99999999997391
  0
ARC
  5
CA89
  8
01
  6
BYBLOCK
 10
885.37516710868431
 20
-889.22916385378085
 30
0.0
 40
1.0
 50
180.00000000002601
 51
269.99999999997391
  0
ARC
  5
CA8A
  8
01
  6
BYBLOCK
 10
908.37516710868385
 20
-889.22916385378107
 30
0.0
 40
1.0
 50
270.0
 51
359.99999999997402
  0
CIRCLE
  5
D0E6
  8
01
 10
896.87481654809562
 20
-877.88715399163868
 30
0.0
 40
5.001030906021696
  0
CIRCLE
  5
D0E7
  8
01
 10
1346.8748165480949
 20
-877.88715399160958
 30
0.0
 40
5.001030906021696
  0
POLYLINE
  8
01
  5
D8B6
  66
     1
 10
0.000000
 20
0.000000
 30
0.000000
  70
     8
  0
VERTEX
  8
01
  5
D8B7
 10
884.375
 20
-692.297
 30
0.000000
  70
    32
  0
VERTEX
  8
01
  5
D8B8
 10
884.492
 20
-692.204
 30
0.000000
  70
    32
  0
VERTEX
  8
01
  5
D8B9
 10
884.609
 20
-692.112
 30
0.000000
  70
    32
  0
VERTEX
  8
01
  5
D8BA
 10
884.727
 20
-692.020
 30
0.000000
  70
    32
  0
VERTEX
  8
01
  5
D8BB
 10
884.844
 20
-691.929
 30
0.000000
  70
    32
  0
VERTEX
  8
01
  5
D8BC
 10
884.962
 20
-691.839
 30
0.000000
  70
    32
  0
VERTEX
  8
01
  5
D8BD
 10
885.079
 20
-691.750
 30
0.000000
  70
    32
  0
VERTEX
  8
01
  5
D8BE
 10
885.197
 20
-691.661
 30
0.000000
  70
    32
  0
VERTEX
  8
01
  5
D8BF
 10
885.315
 20
-691.574
 30
0.000000
  70
    32
  0
VERTEX
  8
01
  5
D8C0
 10
885.433
 20
-691.487
 30
0.000000
  70
    32
  0
VERTEX
  8
01
  5
D8C1
 10
885.551
 20
-691.401
 30
0.000000
  70
    32
  0
VERTEX
  8
01
  5
D8C2
 10
885.670
 20
-691.317
 30
0.000000
  70
    32
  0
VERTEX
  8
01
  5
D8C3
 10
885.788
 20
-691.233
 30
0.000000
  70
    32
  0
VERTEX
  8
01
  5
D8C4
 10
885.907
 20
-691.151
 30
0.000000
  70
    32
  0
VERTEX
  8
01
  5
D8C5
 10
886.026
 20
-691.069
 30
0.000000
  70
    32
  0
VERTEX
  8
01
  5
D8C6
 10
886.145
 20
-690.989
 30
0.000000
  70
    32
  0
VERTEX
  8
01
  5
D8C7
 10
886.264
 20
-690.910
 30
0.000000
  70
    32
  0
VERTEX
  8
01
  5
D8C8
 10
886.383
 20
-690.832
 30
0.000000
  70
    32
  0
VERTEX
  8
01
  5
D8C9
 10
886.503
 20
-690.756
 30
0.000000
  70
    32
  0
VERTEX
  8
01
  5
D8CA
 10
886.623
 20
-690.680
 30
0.000000
  70
    32
  0
VERTEX
  8
01
  5
D8CB
 10
886.743
 20
-690.607
 30
0.000000
  70
    32
  0
VERTEX
  8
01
  5
D8CC
 10
886.863
 20
-690.534
 30
0.000000
  70
    32
  0
VERTEX
  8
01
  5
D8CD
 10
886.984
 20
-690.463
 30
0.000000
  70
    32
  0
VERTEX
  8
01
  5
D8CE
 10
887.104
 20
-690.393
 30
0.000000
  70
    32
  0
VERTEX
  8
01
  5
D8CF
 10
887.225
 20
-690.325
 30
0.000000
  70
    32
  0
VERTEX
  8
01
  5
D8D0
 10
887.346
 20
-690.259
 30
0.000000
  70
    32
  0
VERTEX
  8
01
  5
D8D1
 10
887.468
 20
-690.194
 30
0.000000
  70
    32
  0
VERTEX
  8
01
  5
D8D2
 10
887.589
 20
-690.130
 30
0.000000
  70
    32
  0
VERTEX
  8
01
  5
D8D3
 10
887.711
 20
-690.069
 30
0.000000
  70
    32
  0
VERTEX
  8
01
  5
D8D4
 10
887.833
 20
-690.009
 30
0.000000
  70
    32
  0
VERTEX
  8
01
  5
D8D5
 10
887.956
 20
-689.950
 30
0.000000
  70
    32
  0
VERTEX
  8
01
  5
D8D6
 10
888.079
 20
-689.894
 30
0.000000
  70
    32
  0
VERTEX
  8
01
  5
D8D7
 10
888.202
 20
-689.839
 30
0.000000
  70
    32
  0
VERTEX
  8
01
  5
D8D8
 10
888.325
 20
-689.786
 30
0.000000
  70
    32
  0
VERTEX
  8
01
  5
D8D9
 10
888.448
 20
-689.735
 30
0.000000
  70
    32
  0
VERTEX
  8
01
  5
D8DA
 10
888.572
 20
-689.686
 30
0.000000
  70
    32
  0
VERTEX
  8
01
  5
D8DB
 10
888.696
 20
-689.639
 30
0.000000
  70
    32
  0
VERTEX
  8
01
  5
D8DC
 10
888.821
 20
-689.594
 30
0.000000
  70
    32
  0
VERTEX
  8
01
  5
D8DD
 10
888.945
 20
-689.551
 30
0.000000
  70
    32
  0
VERTEX
  8
01
  5
D8DE
 10
889.070
 20
-689.510
 30
0.000000
  70
    32
  0
VERTEX
  8
01
  5
D8DF
 10
889.196
 20
-689.471
 30
0.000000
  70
    32
  0
VERTEX
  8
01
  5
D8E0
 10
889.322
 20
-689.434
 30
0.000000
  70
    32
  0
VERTEX
  8
01
  5
D8E1
 10
889.448
 20
-689.399
 30
0.000000
  70
    32
  0
VERTEX
  8
01
  5
D8E2
 10
889.574
 20
-689.367
 30
0.000000
  70
    32
  0
VERTEX
  8
01
  5
D8E3
 10
889.701
 20
-689.336
 30
0.000000
  70
    32
  0
VERTEX
  8
01
  5
D8E4
 10
889.828
 20
-689.309
 30
0.000000
  70
    32
  0
VERTEX
  8
01
  5
D8E5
 10
889.955
 20
-689.283
 30
0.000000
  70
    32
  0
VERTEX
  8
01
  5
D8E6
 10
890.083
 20
-689.260
 30
0.000000
  70
    32
  0
VERTEX
  8
01
  5
D8E7
 10
890.211
 20
-689.239
 30
0.000000
  70
    32
  0
VERTEX
  8
01
  5
D8E8
 10
890.340
 20
-689.221
 30
0.000000
  70
    32
  0
VERTEX
  8
01
  5
D8E9
 10
890.469
 20
-689.205
 30
0.000000
  70
    32
  0
VERTEX
  8
01
  5
D8EA
 10
890.598
 20
-689.191
 30
0.000000
  70
    32
  0
VERTEX
  8
01
  5
D8EB
 10
890.728
 20
-689.181
 30
0.000000
  70
    32
  0
VERTEX
  8
01
  5
D8EC
 10
890.858
 20
-689.172
 30
0.000000
  70
    32
  0
VERTEX
  8
01
  5
D8ED
 10
890.988
 20
-689.166
 30
0.000000
  70
    32
  0
VERTEX
  8
01
  5
D8EE
 10
891.119
 20
-689.163
 30
0.000000
  70
    32
  0
VERTEX
  8
01
  5
D8EF
 10
891.250
 20
-689.162
 30
0.000000
  70
    32
  0
VERTEX
  8
01
  5
D8F0
 10
891.382
 20
-689.163
 30
0.000000
  70
    32
  0
VERTEX
  8
01
  5
D8F1
 10
891.514
 20
-689.166
 30
0.000000
  70
    32
  0
VERTEX
  8
01
  5
D8F2
 10
891.646
 20
-689.172
 30
0.000000
  70
    32
  0
VERTEX
  8
01
  5
D8F3
 10
891.779
 20
-689.179
 30
0.000000
  70
    32
  0
VERTEX
  8
01
  5
D8F4
 10
891.911
 20
-689.189
 30
0.000000
  70
    32
  0
VERTEX
  8
01
  5
D8F5
 10
892.045
 20
-689.200
 30
0.000000
  70
    32
  0
VERTEX
  8
01
  5
D8F6
 10
892.178
 20
-689.214
 30
0.000000
  70
    32
  0
VERTEX
  8
01
  5
D8F7
 10
892.312
 20
-689.229
 30
0.000000
  70
    32
  0
VERTEX
  8
01
  5
D8F8
 10
892.446
 20
-689.246
 30
0.000000
  70
    32
  0
VERTEX
  8
01
  5
D8F9
 10
892.580
 20
-689.265
 30
0.000000
  70
    32
  0
VERTEX
  8
01
  5
D8FA
 10
892.715
 20
-689.285
 30
0.000000
  70
    32
  0
VERTEX
  8
01
  5
D8FB
 10
892.850
 20
-689.307
 30
0.000000
  70
    32
  0
VERTEX
  8
01
  5
D8FC
 10
892.985
 20
-689.331
 30
0.000000
  70
    32
  0
VERTEX
  8
01
  5
D8FD
 10
893.121
 20
-689.356
 30
0.000000
  70
    32
  0
VERTEX
  8
01
  5
D8FE
 10
893.256
 20
-689.382
 30
0.000000
  70
    32
  0
VERTEX
  8
01
  5
D8FF
 10
893.392
 20
-689.410
 30
0.000000
  70
    32
  0
VERTEX
  8
01
  5
D900
 10
893.528
 20
-689.439
 30
0.000000
  70
    32
  0
VERTEX
  8
01
  5
D901
 10
893.665
 20
-689.469
 30
0.000000
  70
    32
  0
VERTEX
  8
01
  5
D902
 10
893.801
 20
-689.500
 30
0.000000
  70
    32
  0
VERTEX
  8
01
  5
D903
 10
893.938
 20
-689.533
 30
0.000000
  70
    32
  0
VERTEX
  8
01
  5
D904
 10
894.075
 20
-689.566
 30
0.000000
  70
    32
  0
VERTEX
  8
01
  5
D905
 10
894.212
 20
-689.601
 30
0.000000
  70
    32
  0
VERTEX
  8
01
  5
D906
 10
894.349
 20
-689.636
 30
0.000000
  70
    32
  0
VERTEX
  8
01
  5
D907
 10
894.487
 20
-689.673
 30
0.000000
  70
    32
  0
VERTEX
  8
01
  5
D908
 10
894.624
 20
-689.710
 30
0.000000
  70
    32
  0
VERTEX
  8
01
  5
D909
 10
894.762
 20
-689.747
 30
0.000000
  70
    32
  0
VERTEX
  8
01
  5
D90A
 10
894.900
 20
-689.786
 30
0.000000
  70
    32
  0
VERTEX
  8
01
  5
D90B
 10
895.038
 20
-689.825
 30
0.000000
  70
    32
  0
VERTEX
  8
01
  5
D90C
 10
895.176
 20
-689.864
 30
0.000000
  70
    32
  0
VERTEX
  8
01
  5
D90D
 10
895.314
 20
-689.904
 30
0.000000
  70
    32
  0
VERTEX
  8
01
  5
D90E
 10
895.453
 20
-689.945
 30
0.000000
  70
    32
  0
VERTEX
  8
01
  5
D90F
 10
895.591
 20
-689.986
 30
0.000000
  70
    32
  0
VERTEX
  8
01
  5
D910
 10
895.730
 20
-690.027
 30
0.000000
  70
    32
  0
VERTEX
  8
01
  5
D911
 10
895.869
 20
-690.068
 30
0.000000
  70
    32
  0
VERTEX
  8
01
  5
D912
 10
896.007
 20
-690.109
 30
0.000000
  70
    32
  0
VERTEX
  8
01
  5
D913
 10
896.146
 20
-690.151
 30
0.000000
  70
    32
  0
VERTEX
  8
01
  5
D914
 10
896.285
 20
-690.193
 30
0.000000
  70
    32
  0
VERTEX
  8
01
  5
D915
 10
896.424
 20
-690.234
 30
0.000000
  70
    32
  0
VERTEX
  8
01
  5
D916
 10
896.563
 20
-690.276
 30
0.000000
  70
    32
  0
VERTEX
  8
01
  5
D917
 10
896.702
 20
-690.317
 30
0.000000
  70
    32
  0
VERTEX
  8
01
  5
D918
 10
896.841
 20
-690.358
 30
0.000000
  70
    32
  0
VERTEX
  8
01
  5
D919
 10
896.980
 20
-690.399
 30
0.000000
  70
    32
  0
VERTEX
  8
01
  5
D91A
 10
897.119
 20
-690.440
 30
0.000000
  70
    32
  0
VERTEX
  8
01
  5
D91B
 10
897.258
 20
-690.480
 30
0.000000
  70
    32
  0
VERTEX
  8
01
  5
D91C
 10
897.397
 20
-690.520
 30
0.000000
  70
    32
  0
VERTEX
  8
01
  5
D91D
 10
897.536
 20
-690.559
 30
0.000000
  70
    32
  0
VERTEX
  8
01
  5
D91E
 10
897.675
 20
-690.598
 30
0.000000
  70
    32
  0
VERTEX
  8
01
  5
D91F
 10
897.814
 20
-690.636
 30
0.000000
  70
    32
  0
VERTEX
  8
01
  5
D920
 10
897.953
 20
-690.673
 30
0.000000
  70
    32
  0
VERTEX
  8
01
  5
D921
 10
898.092
 20
-690.710
 30
0.000000
  70
    32
  0
VERTEX
  8
01
  5
D922
 10
898.231
 20
-690.745
 30
0.000000
  70
    32
  0
VERTEX
  8
01
  5
D923
 10
898.370
 20
-690.780
 30
0.000000
  70
    32
  0
VERTEX
  8
01
  5
D924
 10
898.509
 20
-690.814
 30
0.000000
  70
    32
  0
VERTEX
  8
01
  5
D925
 10
898.648
 20
-690.847
 30
0.000000
  70
    32
  0
VERTEX
  8
01
  5
D926
 10
898.786
 20
-690.879
 30
0.000000
  70
    32
  0
VERTEX
  8
01
  5
D927
 10
898.925
 20
-690.910
 30
0.000000
  70
    32
  0
VERTEX
  8
01
  5
D928
 10
899.063
 20
-690.939
 30
0.000000
  70
    32
  0
VERTEX
  8
01
  5
D929
 10
899.201
 20
-690.968
 30
0.000000
  70
    32
  0
VERTEX
  8
01
  5
D92A
 10
899.339
 20
-690.995
 30
0.000000
  70
    32
  0
VERTEX
  8
01
  5
D92B
 10
899.477
 20
-691.020
 30
0.000000
  70
    32
  0
VERTEX
  8
01
  5
D92C
 10
899.615
 20
-691.044
 30
0.000000
  70
    32
  0
VERTEX
  8
01
  5
D92D
 10
899.753
 20
-691.067
 30
0.000000
  70
    32
  0
VERTEX
  8
01
  5
D92E
 10
899.891
 20
-691.088
 30
0.000000
  70
    32
  0
VERTEX
  8
01
  5
D92F
 10
900.028
 20
-691.108
 30
0.000000
  70
    32
  0
VERTEX
  8
01
  5
D930
 10
900.166
 20
-691.126
 30
0.000000
  70
    32
  0
VERTEX
  8
01
  5
D931
 10
900.303
 20
-691.142
 30
0.000000
  70
    32
  0
VERTEX
  8
01
  5
D932
 10
900.440
 20
-691.156
 30
0.000000
  70
    32
  0
VERTEX
  8
01
  5
D933
 10
900.576
 20
-691.168
 30
0.000000
  70
    32
  0
VERTEX
  8
01
  5
D934
 10
900.713
 20
-691.179
 30
0.000000
  70
    32
  0
VERTEX
  8
01
  5
D935
 10
900.849
 20
-691.187
 30
0.000000
  70
    32
  0
VERTEX
  8
01
  5
D936
 10
900.985
 20
-691.194
 30
0.000000
  70
    32
  0
VERTEX
  8
01
  5
D937
 10
901.121
 20
-691.198
 30
0.000000
  70
    32
  0
VERTEX
  8
01
  5
D938
 10
901.257
 20
-691.201
 30
0.000000
  70
    32
  0
VERTEX
  8
01
  5
D939
 10
901.392
 20
-691.201
 30
0.000000
  70
    32
  0
VERTEX
  8
01
  5
D93A
 10
901.528
 20
-691.200
 30
0.000000
  70
    32
  0
VERTEX
  8
01
  5
D93B
 10
901.663
 20
-691.197
 30
0.000000
  70
    32
  0
VERTEX
  8
01
  5
D93C
 10
901.798
 20
-691.192
 30
0.000000
  70
    32
  0
VERTEX
  8
01
  5
D93D
 10
901.932
 20
-691.185
 30
0.000000
  70
    32
  0
VERTEX
  8
01
  5
D93E
 10
902.067
 20
-691.177
 30
0.000000
  70
    32
  0
VERTEX
  8
01
  5
D93F
 10
902.201
 20
-691.167
 30
0.000000
  70
    32
  0
VERTEX
  8
01
  5
D940
 10
902.336
 20
-691.154
 30
0.000000
  70
    32
  0
VERTEX
  8
01
  5
D941
 10
902.470
 20
-691.141
 30
0.000000
  70
    32
  0
VERTEX
  8
01
  5
D942
 10
902.603
 20
-691.125
 30
0.000000
  70
    32
  0
VERTEX
  8
01
  5
D943
 10
902.737
 20
-691.108
 30
0.000000
  70
    32
  0
VERTEX
  8
01
  5
D944
 10
902.871
 20
-691.089
 30
0.000000
  70
    32
  0
VERTEX
  8
01
  5
D945
 10
903.004
 20
-691.068
 30
0.000000
  70
    32
  0
VERTEX
  8
01
  5
D946
 10
903.137
 20
-691.046
 30
0.000000
  70
    32
  0
VERTEX
  8
01
  5
D947
 10
903.270
 20
-691.023
 30
0.000000
  70
    32
  0
VERTEX
  8
01
  5
D948
 10
903.403
 20
-690.997
 30
0.000000
  70
    32
  0
VERTEX
  8
01
  5
D949
 10
903.535
 20
-690.970
 30
0.000000
  70
    32
  0
VERTEX
  8
01
  5
D94A
 10
903.668
 20
-690.942
 30
0.000000
  70
    32
  0
VERTEX
  8
01
  5
D94B
 10
903.800
 20
-690.912
 30
0.000000
  70
    32
  0
VERTEX
  8
01
  5
D94C
 10
903.932
 20
-690.881
 30
0.000000
  70
    32
  0
VERTEX
  8
01
  5
D94D
 10
904.064
 20
-690.848
 30
0.000000
  70
    32
  0
VERTEX
  8
01
  5
D94E
 10
904.196
 20
-690.814
 30
0.000000
  70
    32
  0
VERTEX
  8
01
  5
D94F
 10
904.328
 20
-690.778
 30
0.000000
  70
    32
  0
VERTEX
  8
01
  5
D950
 10
904.459
 20
-690.741
 30
0.000000
  70
    32
  0
VERTEX
  8
01
  5
D951
 10
904.591
 20
-690.702
 30
0.000000
  70
    32
  0
VERTEX
  8
01
  5
D952
 10
904.722
 20
-690.663
 30
0.000000
  70
    32
  0
VERTEX
  8
01
  5
D953
 10
904.853
 20
-690.622
 30
0.000000
  70
    32
  0
VERTEX
  8
01
  5
D954
 10
904.984
 20
-690.579
 30
0.000000
  70
    32
  0
VERTEX
  8
01
  5
D955
 10
905.115
 20
-690.536
 30
0.000000
  70
    32
  0
VERTEX
  8
01
  5
D956
 10
905.246
 20
-690.491
 30
0.000000
  70
    32
  0
VERTEX
  8
01
  5
D957
 10
905.377
 20
-690.444
 30
0.000000
  70
    32
  0
VERTEX
  8
01
  5
D958
 10
905.507
 20
-690.397
 30
0.000000
  70
    32
  0
VERTEX
  8
01
  5
D959
 10
905.637
 20
-690.349
 30
0.000000
  70
    32
  0
VERTEX
  8
01
  5
D95A
 10
905.768
 20
-690.299
 30
0.000000
  70
    32
  0
VERTEX
  8
01
  5
D95B
 10
905.898
 20
-690.248
 30
0.000000
  70
    32
  0
VERTEX
  8
01
  5
D95C
 10
906.028
 20
-690.196
 30
0.000000
  70
    32
  0
VERTEX
  8
01
  5
D95D
 10
906.158
 20
-690.143
 30
0.000000
  70
    32
  0
VERTEX
  8
01
  5
D95E
 10
906.288
 20
-690.089
 30
0.000000
  70
    32
  0
VERTEX
  8
01
  5
D95F
 10
906.417
 20
-690.034
 30
0.000000
  70
    32
  0
VERTEX
  8
01
  5
D960
 10
906.547
 20
-689.977
 30
0.000000
  70
    32
  0
VERTEX
  8
01
  5
D961
 10
906.676
 20
-689.920
 30
0.000000
  70
    32
  0
VERTEX
  8
01
  5
D962
 10
906.806
 20
-689.862
 30
0.000000
  70
    32
  0
VERTEX
  8
01
  5
D963
 10
906.935
 20
-689.803
 30
0.000000
  70
    32
  0
VERTEX
  8
01
  5
D964
 10
907.064
 20
-689.743
 30
0.000000
  70
    32
  0
VERTEX
  8
01
  5
D965
 10
907.193
 20
-689.682
 30
0.000000
  70
    32
  0
VERTEX
  8
01
  5
D966
 10
907.322
 20
-689.620
 30
0.000000
  70
    32
  0
VERTEX
  8
01
  5
D967
 10
907.451
 20
-689.557
 30
0.000000
  70
    32
  0
VERTEX
  8
01
  5
D968
 10
907.580
 20
-689.494
 30
0.000000
  70
    32
  0
VERTEX
  8
01
  5
D969
 10
907.709
 20
-689.429
 30
0.000000
  70
    32
  0
VERTEX
  8
01
  5
D96A
 10
907.837
 20
-689.364
 30
0.000000
  70
    32
  0
VERTEX
  8
01
  5
D96B
 10
907.966
 20
-689.298
 30
0.000000
  70
    32
  0
VERTEX
  8
01
  5
D96C
 10
908.094
 20
-689.231
 30
0.000000
  70
    32
  0
VERTEX
  8
01
  5
D96D
 10
908.223
 20
-689.164
 30
0.000000
  70
    32
  0
VERTEX
  8
01
  5
D96E
 10
908.351
 20
-689.096
 30
0.000000
  70
    32
  0
VERTEX
  8
01
  5
D96F
 10
908.479
 20
-689.027
 30
0.000000
  70
    32
  0
VERTEX
  8
01
  5
D970
 10
908.607
 20
-688.958
 30
0.000000
  70
    32
  0
VERTEX
  8
01
  5
D971
 10
908.735
 20
-688.887
 30
0.000000
  70
    32
  0
VERTEX
  8
01
  5
D972
 10
908.864
 20
-688.817
 30
0.000000
  70
    32
  0
VERTEX
  8
01
  5
D973
 10
908.992
 20
-688.745
 30
0.000000
  70
    32
  0
VERTEX
  8
01
  5
D974
 10
909.119
 20
-688.673
 30
0.000000
  70
    32
  0
VERTEX
  8
01
  5
D975
 10
909.247
 20
-688.601
 30
0.000000
  70
    32
  0
VERTEX
  8
01
  5
D976
 10
909.375
 20
-688.528
 30
0.000000
  70
    32
  0
SEQEND
  8
01
  5
D977
  0
LINE
  5
D115
  8
01
 10
886.87275473609589
 20
-877.88715399163891
 30
0.0
 11
906.87687836009582
 21
-877.88715399163891
 31
0.0
  0
LINE
  5
D116
  8
01
 10
896.87481654809596
 20
-887.8892158036391
 30
0.0
 11
896.87481654809596
 21
-867.88509217963895
 31
0.0
  0
LINE
  5
D117
  8
01
 10
1336.87275473609
 20
-877.88715399160992
 30
0.0
 11
1356.8768783600899
 21
-877.88715399160992
 31
0.0
  0
LINE
  5
D118
  8
01
 10
1346.8748165480899
 20
-887.88921580360977
 30
0.0
 11
1346.8748165480899
 21
-867.88509217960996
 31
0.0
  0
LINE
  5
D123
  8
01
 10
1353.874465987511
 20
-700.91359875241653
 30
0.0
 11
1353.874465987511
 21
-702.11360573268348
 31
0.0
  0
LINE
  5
D124
  8
01
 10
1343.4494659875079
 20
-704.41360573268719
 30
0.0
 11
1343.449465987512
 21
-737.1136057326845
 31
0.0
  0
LINE
  5
D125
  8
01
 10
1350.2994659875101
 20
-704.41360573268662
 30
0.0
 11
1350.2994659875139
 21
-737.11360573268394
 31
0.0
  0
LINE
  5
D126
  8
01
 10
1342.874465987509
 20
-704.41360573268719
 30
0.0
 11
1342.8744659875131
 21
-736.53860573268503
 31
0.0
  0
LINE
  5
D127
  8
01
 10
1350.874465987511
 20
-704.41360573268662
 30
0.0
 11
1350.8744659875131
 21
-736.53860573268435
 31
0.0
  0
ARC
  5
D128
  8
01
 10
1349.874465987511
 20
-700.91359875241665
 30
0.0
 40
4.0
 50
0.0000000000066072
 51
90.000133315525076
  0
LINE
  5
D129
  8
01
 10
1343.8744566803309
 20
-696.91361271319704
 30
0.0
 11
1349.8744566803309
 21
-696.91359875242767
 31
0.0
  0
ARC
  5
D12A
  8
01
 10
1343.874465987511
 20
-700.91361271318613
 30
0.0
 40
4.0
 50
90.000133315525076
 51
180.00000000000659
  0
LINE
  5
D12B
  8
01
 10
1339.874465987511
 20
-700.91361271318635
 30
0.0
 11
1339.874465987511
 21
-702.11360573268428
 31
0.0
  0
LINE
  5
D12C
  8
01
 10
1340.474516334983
 20
-704.41360573268707
 30
0.0
 11
1340.4745163349819
 21
-702.11360573268416
 31
0.0
  0
LINE
  5
D12D
  8
01
 10
1353.274516334983
 20
-702.11360573268348
 30
0.0
 11
1353.2745163349821
 21
-704.41360573268639
 31
0.0
  0
LINE
  5
D12E
  8
01
 10
1340.474516334983
 20
-704.41360573268707
 30
0.0
 11
1353.2745163349821
 21
-704.41360573268639
 31
0.0
  0
LINE
  5
D12F
  8
01
 10
1353.874465987511
 20
-702.11360573268348
 30
0.0
 11
1339.874465987511
 21
-702.11360573268428
 31
0.0
  0
LINE
  5
D130
  8
01
 10
1350.2994659875139
 20
-737.11360573268394
 30
0.0
 11
1343.449465987512
 21
-737.1136057326845
 31
0.0
  0
LINE
  5
D131
  8
01
 10
1346.974071057889
 20
-702.11360573268394
 30
0.0
 11
1347.242020250319
 21
-704.41360573268673
 31
0.0
  0
LINE
  5
D132
  8
01
 10
1346.5237604076531
 20
-702.11360573268394
 30
0.0
 11
1346.791709600081
 21
-704.41360573268685
 31
0.0
  0
LINE
  5
D133
  8
01
 10
1350.2994659875139
 20
-737.11360573268394
 30
0.0
 11
1350.8744659875131
 21
-736.53860573268435
 31
0.0
  0
LINE
  5
D134
  8
01
 10
1343.449465987512
 20
-737.1136057326845
 30
0.0
 11
1342.8744659875131
 21
-736.5386057326848
 31
0.0
  0
LINE
  5
D135
  8
01
 10
1350.8744659875131
 20
-736.53860573268435
 30
0.0
 11
1342.8744659875131
 21
-736.5386057326848
 31
0.0
  0
LINE
  5
D137
  8
01
 10
1485.5487958098479
 20
-922.81390675065995
 30
0.0
 11
1485.5487958098479
 21
-835.53154210475884
 31
0.0
  0
LINE
  5
D138
  8
01
 10
1473.5487958098479
 20
-922.81390675065995
 30
0.0
 11
1473.5487958098479
 21
-835.53154210475884
 31
0.0
  0
POLYLINE
  8
01
  5
D978
  66
     1
 10
0.000000
 20
0.000000
 30
0.000000
  70
     8
  0
VERTEX
  8
01
  5
D979
 10
1454.28
 20
-865.229
 30
0.000000
  70
    32
  0
VERTEX
  8
01
  5
D97A
 10
1454.19
 20
-865.347
 30
0.000000
  70
    32
  0
VERTEX
  8
01
  5
D97B
 10
1454.09
 20
-865.465
 30
0.000000
  70
    32
  0
VERTEX
  8
01
  5
D97C
 10
1454.00
 20
-865.583
 30
0.000000
  70
    32
  0
VERTEX
  8
01
  5
D97D
 10
1453.91
 20
-865.702
 30
0.000000
  70
    32
  0
VERTEX
  8
01
  5
D97E
 10
1453.82
 20
-865.820
 30
0.000000
  70
    32
  0
VERTEX
  8
01
  5
D97F
 10
1453.73
 20
-865.938
 30
0.000000
  70
    32
  0
VERTEX
  8
01
  5
D980
 10
1453.65
 20
-866.057
 30
0.000000
  70
    32
  0
VERTEX
  8
01
  5
D981
 10
1453.56
 20
-866.176
 30
0.000000
  70
    32
  0
VERTEX
  8
01
  5
D982
 10
1453.47
 20
-866.294
 30
0.000000
  70
    32
  0
VERTEX
  8
01
  5
D983
 10
1453.39
 20
-866.413
 30
0.000000
  70
    32
  0
VERTEX
  8
01
  5
D984
 10
1453.31
 20
-866.532
 30
0.000000
  70
    32
  0
VERTEX
  8
01
  5
D985
 10
1453.22
 20
-866.651
 30
0.000000
  70
    32
  0
VERTEX
  8
01
  5
D986
 10
1453.14
 20
-866.771
 30
0.000000
  70
    32
  0
VERTEX
  8
01
  5
D987
 10
1453.06
 20
-866.890
 30
0.000000
  70
    32
  0
VERTEX
  8
01
  5
D988
 10
1452.98
 20
-867.009
 30
0.000000
  70
    32
  0
VERTEX
  8
01
  5
D989
 10
1452.90
 20
-867.129
 30
0.000000
  70
    32
  0
VERTEX
  8
01
  5
D98A
 10
1452.82
 20
-867.249
 30
0.000000
  70
    32
  0
VERTEX
  8
01
  5
D98B
 10
1452.75
 20
-867.368
 30
0.000000
  70
    32
  0
VERTEX
  8
01
  5
D98C
 10
1452.67
 20
-867.488
 30
0.000000
  70
    32
  0
VERTEX
  8
01
  5
D98D
 10
1452.60
 20
-867.609
 30
0.000000
  70
    32
  0
VERTEX
  8
01
  5
D98E
 10
1452.53
 20
-867.729
 30
0.000000
  70
    32
  0
VERTEX
  8
01
  5
D98F
 10
1452.46
 20
-867.849
 30
0.000000
  70
    32
  0
VERTEX
  8
01
  5
D990
 10
1452.39
 20
-867.970
 30
0.000000
  70
    32
  0
VERTEX
  8
01
  5
D991
 10
1452.32
 20
-868.091
 30
0.000000
  70
    32
  0
VERTEX
  8
01
  5
D992
 10
1452.25
 20
-868.212
 30
0.000000
  70
    32
  0
VERTEX
  8
01
  5
D993
 10
1452.19
 20
-868.333
 30
0.000000
  70
    32
  0
VERTEX
  8
01
  5
D994
 10
1452.12
 20
-868.454
 30
0.000000
  70
    32
  0
VERTEX
  8
01
  5
D995
 10
1452.06
 20
-868.575
 30
0.000000
  70
    32
  0
VERTEX
  8
01
  5
D996
 10
1452.00
 20
-868.697
 30
0.000000
  70
    32
  0
VERTEX
  8
01
  5
D997
 10
1451.94
 20
-868.819
 30
0.000000
  70
    32
  0
VERTEX
  8
01
  5
D998
 10
1451.89
 20
-868.940
 30
0.000000
  70
    32
  0
VERTEX
  8
01
  5
D999
 10
1451.83
 20
-869.063
 30
0.000000
  70
    32
  0
VERTEX
  8
01
  5
D99A
 10
1451.78
 20
-869.185
 30
0.000000
  70
    32
  0
VERTEX
  8
01
  5
D99B
 10
1451.72
 20
-869.307
 30
0.000000
  70
    32
  0
VERTEX
  8
01
  5
D99C
 10
1451.67
 20
-869.430
 30
0.000000
  70
    32
  0
VERTEX
  8
01
  5
D99D
 10
1451.62
 20
-869.553
 30
0.000000
  70
    32
  0
VERTEX
  8
01
  5
D99E
 10
1451.58
 20
-869.676
 30
0.000000
  70
    32
  0
VERTEX
  8
01
  5
D99F
 10
1451.53
 20
-869.799
 30
0.000000
  70
    32
  0
VERTEX
  8
01
  5
D9A0
 10
1451.49
 20
-869.923
 30
0.000000
  70
    32
  0
VERTEX
  8
01
  5
D9A1
 10
1451.44
 20
-870.046
 30
0.000000
  70
    32
  0
VERTEX
  8
01
  5
D9A2
 10
1451.40
 20
-870.170
 30
0.000000
  70
    32
  0
VERTEX
  8
01
  5
D9A3
 10
1451.37
 20
-870.294
 30
0.000000
  70
    32
  0
VERTEX
  8
01
  5
D9A4
 10
1451.33
 20
-870.419
 30
0.000000
  70
    32
  0
VERTEX
  8
01
  5
D9A5
 10
1451.30
 20
-870.543
 30
0.000000
  70
    32
  0
VERTEX
  8
01
  5
D9A6
 10
1451.26
 20
-870.668
 30
0.000000
  70
    32
  0
VERTEX
  8
01
  5
D9A7
 10
1451.23
 20
-870.793
 30
0.000000
  70
    32
  0
VERTEX
  8
01
  5
D9A8
 10
1451.21
 20
-870.918
 30
0.000000
  70
    32
  0
VERTEX
  8
01
  5
D9A9
 10
1451.18
 20
-871.043
 30
0.000000
  70
    32
  0
VERTEX
  8
01
  5
D9AA
 10
1451.16
 20
-871.169
 30
0.000000
  70
    32
  0
VERTEX
  8
01
  5
D9AB
 10
1451.14
 20
-871.295
 30
0.000000
  70
    32
  0
VERTEX
  8
01
  5
D9AC
 10
1451.12
 20
-871.421
 30
0.000000
  70
    32
  0
VERTEX
  8
01
  5
D9AD
 10
1451.10
 20
-871.548
 30
0.000000
  70
    32
  0
VERTEX
  8
01
  5
D9AE
 10
1451.08
 20
-871.674
 30
0.000000
  70
    32
  0
VERTEX
  8
01
  5
D9AF
 10
1451.07
 20
-871.801
 30
0.000000
  70
    32
  0
VERTEX
  8
01
  5
D9B0
 10
1451.06
 20
-871.928
 30
0.000000
  70
    32
  0
VERTEX
  8
01
  5
D9B1
 10
1451.05
 20
-872.056
 30
0.000000
  70
    32
  0
VERTEX
  8
01
  5
D9B2
 10
1451.05
 20
-872.184
 30
0.000000
  70
    32
  0
VERTEX
  8
01
  5
D9B3
 10
1451.04
 20
-872.311
 30
0.000000
  70
    32
  0
VERTEX
  8
01
  5
D9B4
 10
1451.04
 20
-872.440
 30
0.000000
  70
    32
  0
VERTEX
  8
01
  5
D9B5
 10
1451.04
 20
-872.568
 30
0.000000
  70
    32
  0
VERTEX
  8
01
  5
D9B6
 10
1451.05
 20
-872.697
 30
0.000000
  70
    32
  0
VERTEX
  8
01
  5
D9B7
 10
1451.05
 20
-872.826
 30
0.000000
  70
    32
  0
VERTEX
  8
01
  5
D9B8
 10
1451.06
 20
-872.955
 30
0.000000
  70
    32
  0
VERTEX
  8
01
  5
D9B9
 10
1451.07
 20
-873.085
 30
0.000000
  70
    32
  0
VERTEX
  8
01
  5
D9BA
 10
1451.08
 20
-873.214
 30
0.000000
  70
    32
  0
VERTEX
  8
01
  5
D9BB
 10
1451.10
 20
-873.344
 30
0.000000
  70
    32
  0
VERTEX
  8
01
  5
D9BC
 10
1451.11
 20
-873.474
 30
0.000000
  70
    32
  0
VERTEX
  8
01
  5
D9BD
 10
1451.13
 20
-873.605
 30
0.000000
  70
    32
  0
VERTEX
  8
01
  5
D9BE
 10
1451.15
 20
-873.735
 30
0.000000
  70
    32
  0
VERTEX
  8
01
  5
D9BF
 10
1451.17
 20
-873.866
 30
0.000000
  70
    32
  0
VERTEX
  8
01
  5
D9C0
 10
1451.19
 20
-873.997
 30
0.000000
  70
    32
  0
VERTEX
  8
01
  5
D9C1
 10
1451.22
 20
-874.129
 30
0.000000
  70
    32
  0
VERTEX
  8
01
  5
D9C2
 10
1451.24
 20
-874.260
 30
0.000000
  70
    32
  0
VERTEX
  8
01
  5
D9C3
 10
1451.27
 20
-874.392
 30
0.000000
  70
    32
  0
VERTEX
  8
01
  5
D9C4
 10
1451.30
 20
-874.524
 30
0.000000
  70
    32
  0
VERTEX
  8
01
  5
D9C5
 10
1451.33
 20
-874.656
 30
0.000000
  70
    32
  0
VERTEX
  8
01
  5
D9C6
 10
1451.37
 20
-874.788
 30
0.000000
  70
    32
  0
VERTEX
  8
01
  5
D9C7
 10
1451.40
 20
-874.920
 30
0.000000
  70
    32
  0
VERTEX
  8
01
  5
D9C8
 10
1451.43
 20
-875.053
 30
0.000000
  70
    32
  0
VERTEX
  8
01
  5
D9C9
 10
1451.47
 20
-875.186
 30
0.000000
  70
    32
  0
VERTEX
  8
01
  5
D9CA
 10
1451.51
 20
-875.319
 30
0.000000
  70
    32
  0
VERTEX
  8
01
  5
D9CB
 10
1451.55
 20
-875.452
 30
0.000000
  70
    32
  0
VERTEX
  8
01
  5
D9CC
 10
1451.59
 20
-875.585
 30
0.000000
  70
    32
  0
VERTEX
  8
01
  5
D9CD
 10
1451.63
 20
-875.719
 30
0.000000
  70
    32
  0
VERTEX
  8
01
  5
D9CE
 10
1451.67
 20
-875.852
 30
0.000000
  70
    32
  0
VERTEX
  8
01
  5
D9CF
 10
1451.71
 20
-875.986
 30
0.000000
  70
    32
  0
VERTEX
  8
01
  5
D9D0
 10
1451.76
 20
-876.120
 30
0.000000
  70
    32
  0
VERTEX
  8
01
  5
D9D1
 10
1451.80
 20
-876.254
 30
0.000000
  70
    32
  0
VERTEX
  8
01
  5
D9D2
 10
1451.85
 20
-876.388
 30
0.000000
  70
    32
  0
VERTEX
  8
01
  5
D9D3
 10
1451.89
 20
-876.523
 30
0.000000
  70
    32
  0
VERTEX
  8
01
  5
D9D4
 10
1451.94
 20
-876.657
 30
0.000000
  70
    32
  0
VERTEX
  8
01
  5
D9D5
 10
1451.99
 20
-876.792
 30
0.000000
  70
    32
  0
VERTEX
  8
01
  5
D9D6
 10
1452.04
 20
-876.927
 30
0.000000
  70
    32
  0
VERTEX
  8
01
  5
D9D7
 10
1452.08
 20
-877.062
 30
0.000000
  70
    32
  0
VERTEX
  8
01
  5
D9D8
 10
1452.13
 20
-877.197
 30
0.000000
  70
    32
  0
VERTEX
  8
01
  5
D9D9
 10
1452.18
 20
-877.332
 30
0.000000
  70
    32
  0
VERTEX
  8
01
  5
D9DA
 10
1452.23
 20
-877.467
 30
0.000000
  70
    32
  0
VERTEX
  8
01
  5
D9DB
 10
1452.29
 20
-877.603
 30
0.000000
  70
    32
  0
VERTEX
  8
01
  5
D9DC
 10
1452.34
 20
-877.738
 30
0.000000
  70
    32
  0
VERTEX
  8
01
  5
D9DD
 10
1452.39
 20
-877.874
 30
0.000000
  70
    32
  0
VERTEX
  8
01
  5
D9DE
 10
1452.44
 20
-878.009
 30
0.000000
  70
    32
  0
VERTEX
  8
01
  5
D9DF
 10
1452.49
 20
-878.145
 30
0.000000
  70
    32
  0
VERTEX
  8
01
  5
D9E0
 10
1452.54
 20
-878.281
 30
0.000000
  70
    32
  0
VERTEX
  8
01
  5
D9E1
 10
1452.60
 20
-878.417
 30
0.000000
  70
    32
  0
VERTEX
  8
01
  5
D9E2
 10
1452.65
 20
-878.553
 30
0.000000
  70
    32
  0
VERTEX
  8
01
  5
D9E3
 10
1452.70
 20
-878.689
 30
0.000000
  70
    32
  0
VERTEX
  8
01
  5
D9E4
 10
1452.75
 20
-878.826
 30
0.000000
  70
    32
  0
VERTEX
  8
01
  5
D9E5
 10
1452.81
 20
-878.962
 30
0.000000
  70
    32
  0
VERTEX
  8
01
  5
D9E6
 10
1452.86
 20
-879.098
 30
0.000000
  70
    32
  0
VERTEX
  8
01
  5
D9E7
 10
1452.91
 20
-879.235
 30
0.000000
  70
    32
  0
VERTEX
  8
01
  5
D9E8
 10
1452.96
 20
-879.371
 30
0.000000
  70
    32
  0
VERTEX
  8
01
  5
D9E9
 10
1453.01
 20
-879.508
 30
0.000000
  70
    32
  0
VERTEX
  8
01
  5
D9EA
 10
1453.06
 20
-879.644
 30
0.000000
  70
    32
  0
VERTEX
  8
01
  5
D9EB
 10
1453.11
 20
-879.781
 30
0.000000
  70
    32
  0
VERTEX
  8
01
  5
D9EC
 10
1453.16
 20
-879.918
 30
0.000000
  70
    32
  0
VERTEX
  8
01
  5
D9ED
 10
1453.21
 20
-880.054
 30
0.000000
  70
    32
  0
VERTEX
  8
01
  5
D9EE
 10
1453.26
 20
-880.191
 30
0.000000
  70
    32
  0
VERTEX
  8
01
  5
D9EF
 10
1453.31
 20
-880.328
 30
0.000000
  70
    32
  0
VERTEX
  8
01
  5
D9F0
 10
1453.36
 20
-880.465
 30
0.000000
  70
    32
  0
VERTEX
  8
01
  5
D9F1
 10
1453.41
 20
-880.602
 30
0.000000
  70
    32
  0
VERTEX
  8
01
  5
D9F2
 10
1453.45
 20
-880.738
 30
0.000000
  70
    32
  0
VERTEX
  8
01
  5
D9F3
 10
1453.50
 20
-880.875
 30
0.000000
  70
    32
  0
VERTEX
  8
01
  5
D9F4
 10
1453.54
 20
-881.012
 30
0.000000
  70
    32
  0
VERTEX
  8
01
  5
D9F5
 10
1453.59
 20
-881.149
 30
0.000000
  70
    32
  0
VERTEX
  8
01
  5
D9F6
 10
1453.63
 20
-881.286
 30
0.000000
  70
    32
  0
VERTEX
  8
01
  5
D9F7
 10
1453.67
 20
-881.423
 30
0.000000
  70
    32
  0
VERTEX
  8
01
  5
D9F8
 10
1453.71
 20
-881.560
 30
0.000000
  70
    32
  0
VERTEX
  8
01
  5
D9F9
 10
1453.75
 20
-881.697
 30
0.000000
  70
    32
  0
VERTEX
  8
01
  5
D9FA
 10
1453.79
 20
-881.834
 30
0.000000
  70
    32
  0
VERTEX
  8
01
  5
D9FB
 10
1453.83
 20
-881.971
 30
0.000000
  70
    32
  0
VERTEX
  8
01
  5
D9FC
 10
1453.86
 20
-882.108
 30
0.000000
  70
    32
  0
VERTEX
  8
01
  5
D9FD
 10
1453.90
 20
-882.245
 30
0.000000
  70
    32
  0
VERTEX
  8
01
  5
D9FE
 10
1453.93
 20
-882.381
 30
0.000000
  70
    32
  0
VERTEX
  8
01
  5
D9FF
 10
1453.97
 20
-882.518
 30
0.000000
  70
    32
  0
VERTEX
  8
01
  5
DA00
 10
1454.00
 20
-882.655
 30
0.000000
  70
    32
  0
VERTEX
  8
01
  5
DA01
 10
1454.03
 20
-882.792
 30
0.000000
  70
    32
  0
VERTEX
  8
01
  5
DA02
 10
1454.05
 20
-882.929
 30
0.000000
  70
    32
  0
VERTEX
  8
01
  5
DA03
 10
1454.08
 20
-883.065
 30
0.000000
  70
    32
  0
VERTEX
  8
01
  5
DA04
 10
1454.11
 20
-883.202
 30
0.000000
  70
    32
  0
VERTEX
  8
01
  5
DA05
 10
1454.13
 20
-883.339
 30
0.000000
  70
    32
  0
VERTEX
  8
01
  5
DA06
 10
1454.15
 20
-883.475
 30
0.000000
  70
    32
  0
VERTEX
  8
01
  5
DA07
 10
1454.17
 20
-883.612
 30
0.000000
  70
    32
  0
VERTEX
  8
01
  5
DA08
 10
1454.19
 20
-883.748
 30
0.000000
  70
    32
  0
VERTEX
  8
01
  5
DA09
 10
1454.20
 20
-883.884
 30
0.000000
  70
    32
  0
VERTEX
  8
01
  5
DA0A
 10
1454.22
 20
-884.021
 30
0.000000
  70
    32
  0
VERTEX
  8
01
  5
DA0B
 10
1454.23
 20
-884.157
 30
0.000000
  70
    32
  0
VERTEX
  8
01
  5
DA0C
 10
1454.24
 20
-884.293
 30
0.000000
  70
    32
  0
VERTEX
  8
01
  5
DA0D
 10
1454.25
 20
-884.429
 30
0.000000
  70
    32
  0
VERTEX
  8
01
  5
DA0E
 10
1454.25
 20
-884.565
 30
0.000000
  70
    32
  0
VERTEX
  8
01
  5
DA0F
 10
1454.26
 20
-884.701
 30
0.000000
  70
    32
  0
VERTEX
  8
01
  5
DA10
 10
1454.26
 20
-884.837
 30
0.000000
  70
    32
  0
VERTEX
  8
01
  5
DA11
 10
1454.26
 20
-884.973
 30
0.000000
  70
    32
  0
VERTEX
  8
01
  5
DA12
 10
1454.26
 20
-885.109
 30
0.000000
  70
    32
  0
VERTEX
  8
01
  5
DA13
 10
1454.26
 20
-885.244
 30
0.000000
  70
    32
  0
VERTEX
  8
01
  5
DA14
 10
1454.25
 20
-885.380
 30
0.000000
  70
    32
  0
VERTEX
  8
01
  5
DA15
 10
1454.25
 20
-885.515
 30
0.000000
  70
    32
  0
VERTEX
  8
01
  5
DA16
 10
1454.24
 20
-885.651
 30
0.000000
  70
    32
  0
VERTEX
  8
01
  5
DA17
 10
1454.23
 20
-885.786
 30
0.000000
  70
    32
  0
VERTEX
  8
01
  5
DA18
 10
1454.22
 20
-885.922
 30
0.000000
  70
    32
  0
VERTEX
  8
01
  5
DA19
 10
1454.21
 20
-886.057
 30
0.000000
  70
    32
  0
VERTEX
  8
01
  5
DA1A
 10
1454.20
 20
-886.192
 30
0.000000
  70
    32
  0
VERTEX
  8
01
  5
DA1B
 10
1454.18
 20
-886.328
 30
0.000000
  70
    32
  0
VERTEX
  8
01
  5
DA1C
 10
1454.16
 20
-886.463
 30
0.000000
  70
    32
  0
VERTEX
  8
01
  5
DA1D
 10
1454.14
 20
-886.598
 30
0.000000
  70
    32
  0
VERTEX
  8
01
  5
DA1E
 10
1454.12
 20
-886.733
 30
0.000000
  70
    32
  0
VERTEX
  8
01
  5
DA1F
 10
1454.10
 20
-886.868
 30
0.000000
  70
    32
  0
VERTEX
  8
01
  5
DA20
 10
1454.08
 20
-887.003
 30
0.000000
  70
    32
  0
VERTEX
  8
01
  5
DA21
 10
1454.06
 20
-887.138
 30
0.000000
  70
    32
  0
VERTEX
  8
01
  5
DA22
 10
1454.03
 20
-887.273
 30
0.000000
  70
    32
  0
VERTEX
  8
01
  5
DA23
 10
1454.01
 20
-887.408
 30
0.000000
  70
    32
  0
VERTEX
  8
01
  5
DA24
 10
1453.98
 20
-887.542
 30
0.000000
  70
    32
  0
VERTEX
  8
01
  5
DA25
 10
1453.95
 20
-887.677
 30
0.000000
  70
    32
  0
VERTEX
  8
01
  5
DA26
 10
1453.92
 20
-887.812
 30
0.000000
  70
    32
  0
VERTEX
  8
01
  5
DA27
 10
1453.89
 20
-887.946
 30
0.000000
  70
    32
  0
VERTEX
  8
01
  5
DA28
 10
1453.85
 20
-888.081
 30
0.000000
  70
    32
  0
VERTEX
  8
01
  5
DA29
 10
1453.82
 20
-888.215
 30
0.000000
  70
    32
  0
VERTEX
  8
01
  5
DA2A
 10
1453.78
 20
-888.350
 30
0.000000
  70
    32
  0
VERTEX
  8
01
  5
DA2B
 10
1453.75
 20
-888.484
 30
0.000000
  70
    32
  0
VERTEX
  8
01
  5
DA2C
 10
1453.71
 20
-888.619
 30
0.000000
  70
    32
  0
VERTEX
  8
01
  5
DA2D
 10
1453.67
 20
-888.753
 30
0.000000
  70
    32
  0
VERTEX
  8
01
  5
DA2E
 10
1453.63
 20
-888.888
 30
0.000000
  70
    32
  0
VERTEX
  8
01
  5
DA2F
 10
1453.59
 20
-889.022
 30
0.000000
  70
    32
  0
VERTEX
  8
01
  5
DA30
 10
1453.55
 20
-889.156
 30
0.000000
  70
    32
  0
VERTEX
  8
01
  5
DA31
 10
1453.51
 20
-889.290
 30
0.000000
  70
    32
  0
VERTEX
  8
01
  5
DA32
 10
1453.46
 20
-889.425
 30
0.000000
  70
    32
  0
VERTEX
  8
01
  5
DA33
 10
1453.42
 20
-889.559
 30
0.000000
  70
    32
  0
VERTEX
  8
01
  5
DA34
 10
1453.37
 20
-889.693
 30
0.000000
  70
    32
  0
VERTEX
  8
01
  5
DA35
 10
1453.33
 20
-889.827
 30
0.000000
  70
    32
  0
VERTEX
  8
01
  5
DA36
 10
1453.28
 20
-889.961
 30
0.000000
  70
    32
  0
VERTEX
  8
01
  5
DA37
 10
1453.23
 20
-890.095
 30
0.000000
  70
    32
  0
VERTEX
  8
01
  5
DA38
 10
1453.19
 20
-890.229
 30
0.000000
  70
    32
  0
SEQEND
  8
01
  5
DA39
  0
LINE
  5
D20A
  8
01
 10
1503.14868841462
 20
-885.22817191016566
 30
0.0
 11
1509.5487024792981
 21
-885.22825155942496
 31
0.0
  0
LINE
  5
D20B
  8
01
 10
1503.14868841462
 20
-888.22817191039735
 30
0.0
 11
1508.5486651438671
 21
-888.22823911402224
 31
0.0
  0
LINE
  5
D20C
  8
01
 10
1503.14868841462
 20
-888.32817191040613
 30
0.0
 11
1510.5486638991979
 21
-888.32826400435511
 31
0.0
  0
LINE
  5
D20D
  8
01
 10
1503.1985546389169
 20
-888.77902946590746
 30
0.0
 11
1503.5987972957801
 21
-888.77902946544634
 31
0.0
  0
LINE
  5
D212
  8
01
 10
1504.148688504619
 20
-889.72916340198981
 30
0.0
 11
1504.5489311751139
 21
-889.72916340198981
 31
0.0
  0
TEXT
  5
D535
  8
01
 10
1372.723085135164
 20
-556.4459025323556
 30
0.0
 40
15.9999999984
  1
SH-016-XX-2
 41
0.8
  0
LINE
  5
D536
  8
01
 10
1372.723085135164
 20
-580.44590252995567
 30
0.0
 11
1442.723085128164
 21
-580.44590252995556
 31
0.0
  0
LINE
  5
D537
  8
01
 10
1442.7230851281649
 20
-580.44590252995567
 30
0.0
 11
1582.723085114166
 21
-580.44590252995556
 31
0.0
  0
TEXT
  5
D538
  8
01
 10
1378.084989896533
 20
-577.44590253025558
 30
0.0
 40
7.999999999199999
  1
表面処理:脚部
 72
     1
 11
1407.723085131664
 21
-577.44590253025558
 31
0.0
  0
LINE
  5
D539
  8
01
 10
1372.723085135164
 20
-566.44590253135573
 30
0.0
 11
1442.7230851281649
 21
-566.44590253135573
 31
0.0
  0
LINE
  5
D53A
  8
01
 10
1442.7230851281649
 20
-566.44590253135573
 30
0.0
 11
1582.723085114166
 21
-566.44590253135584
 31
0.0
  0
TEXT
  5
D53B
  8
01
 10
1534.1897517856851
 20
-577.44590253025558
 30
0.0
 40
7.999999999199999
  1
コード
 72
     1
 11
1547.523085117685
 21
-577.44590253025558
 31
0.0
  0
LINE
  5
D53C
  8
01
 10
1442.7230851281649
 20
-594.44590252855664
 30
0.0
 11
1582.723085114166
 21
-594.44590252855494
 31
0.0
  0
TEXT
  5
D53D
  8
01
 10
1389.5897518001441
 20
-591.4016925688295
 30
0.0
 40
7.999999999199999
  1
クローム
 72
     1
 11
1407.723085131664
 21
-591.4016925688295
 31
0.0
  0
LINE
  5
D53E
  8
01
 10
1442.7230851281649
 20
-566.44590253135573
 30
0.0
 11
1442.7230851281649
 21
-622.44590252575881
 31
0.0
  0
LINE
  5
D53F
  8
01
 10
1582.723085114166
 20
-566.44590253135573
 30
0.0
 11
1582.723085114166
 21
-622.44590252575608
 31
0.0
  0
LINE
  5
D540
  8
01
 10
1372.723085135164
 20
-566.44590253135573
 30
0.0
 11
1372.723085135164
 21
-622.4459025257579
 31
0.0
  0
TEXT
  5
D541
  8
01
 10
1515.3897517875671
 20
-591.87461649611168
 30
0.0
 40
7.999999999199999
  1
SH-016-XC-2
 41
0.7
 72
     1
 11
1547.5230851176871
 21
-591.87461649611168
 31
0.0
  0
LINE
  5
D542
  8
01
 10
1372.723085135161
 20
-594.44590252855664
 30
0.0
 11
1442.7230851281629
 21
-594.44590252855755
 31
0.0
  0
TEXT
  5
D543
  8
01
 10
1448.0849898895331
 20
-577.44590253025558
 30
0.0
 40
7.999999999199999
  1
表面処理:握り
 72
     1
 11
1477.723085124665
 21
-577.44590253025558
 31
0.0
  0
LINE
  5
D544
  8
01
 10
1512.723085121165
 20
-566.44590253135573
 30
0.0
 11
1512.723085121165
 21
-622.44590252575688
 31
0.0
  0
LINE
  5
D545
  8
01
 10
1442.7230851281649
 20
-608.44590252715727
 30
0.0
 11
1582.723085114166
 21
-608.44590252715557
 31
0.0
  0
TEXT
  5
D546
  8
01
 10
1377.856418467984
 20
-605.40169256743013
 30
0.0
 40
7.999999999199999
  1
ブラストシルバー
 41
0.8
 72
     1
 11
1407.723085131664
 21
-605.40169256743013
 31
0.0
  0
TEXT
  5
D547
  8
01
 10
1515.5230851208869
 20
-605.87461649471231
 30
0.0
 40
7.999999999199999
  1
SH-016-XS-2
 41
0.7
 72
     1
 11
1547.5230851176871
 21
-605.87461649471231
 31
0.0
  0
LINE
  5
D548
  8
01
 10
1372.723085135161
 20
-608.44590252715727
 30
0.0
 11
1442.7230851281629
 21
-608.44590252715818
 31
0.0
  0
LINE
  5
D549
  8
01
 10
1442.723085128162
 20
-622.4459025257579
 30
0.0
 11
1582.723085114163
 21
-622.44590252575608
 31
0.0
  0
TEXT
  5
D54A
  8
01
 10
1377.8564184679819
 20
-619.40169256603065
 30
0.0
 40
7.999999999199999
  1
ブラストブラック
 41
0.8
 72
     1
 11
1407.723085131661
 21
-619.40169256603065
 31
0.0
  0
TEXT
  5
D54B
  8
01
 10
1515.3897517875639
 20
-619.87461649331294
 30
0.0
 40
7.999999999199999
  1
SH-016-XK-2
 41
0.7
 72
     1
 11
1547.5230851176841
 21
-619.87461649331294
 31
0.0
  0
LINE
  5
D54C
  8
01
 10
1372.723085135159
 20
-622.4459025257579
 30
0.0
 11
1442.7230851281599
 21
-622.44590252575881
 31
0.0
  0
TEXT
  5
D54D
  8
01
 10
1459.5897517931451
 20
-591.4016925688295
 30
0.0
 40
7.999999999199999
  1
クローム
 72
     1
 11
1477.723085124665
 21
-591.4016925688295
 31
0.0
  0
TEXT
  5
D54E
  8
01
 10
1447.856418460985
 20
-605.40169256743013
 30
0.0
 40
7.999999999199999
  1
ブラストシルバー
 41
0.8
 72
     1
 11
1477.723085124665
 21
-605.40169256743013
 31
0.0
  0
TEXT
  5
D54F
  8
01
 10
1447.856418460982
 20
-619.40169256603065
 30
0.0
 40
7.999999999199999
  1
ブラストブラック
 41
0.8
 72
     1
 11
1477.723085124662
 21
-619.40169256603065
 31
0.0
  0
TEXT
  5
D59A
  8
01
 10
1497.946820846488
 20
-991.07511029819204
 30
0.0
 40
10.5
  1
(S=1:2)
  0
TEXT
  5
D59B
  8
01
 10
1195.933202623886
 20
-826.29522102750661
 30
0.0
 40
7.0
  1
材質：アルミ
  0
TEXT
  5
D59C
  8
01
 10
1195.933202623886
 20
-837.96188769417324
 30
0.0
 40
7.0
  1
仕上げ：各種仕上げ
  0
TEXT
  5
D59F
  8
01
 10
1205.0826154149181
 20
-574.12364514259502
 30
0.0
 40
7.0
  1
材質：アルミ
  0
TEXT
  5
D5A0
  8
01
 10
1205.0826154149181
 20
-585.79031180926165
 30
0.0
 40
7.0
  1
仕上げ：各種仕上げ
  0
TEXT
  5
D5A3
  8
01
 10
999.87988079203319
 20
-593.01772569831792
 30
0.0
 40
7.0
  1
材質：合成ゴム
  0
TEXT
  5
D5A4
  8
01
 10
999.87988079203319
 20
-604.68439236498455
 30
0.0
 40
7.0
  1
仕上げ：グレー
  0
TEXT
  5
D5A7
  8
01
 10
1242.995348659317
 20
-678.15390521955521
 30
0.0
 40
7.0
  1
材質：ゴム
  0
TEXT
  5
D5A8
  8
01
 10
1242.995348659317
 20
-689.82057188622184
 30
0.0
 40
7.0
  1
仕上げ：ブラック
  0
LINE
  5
D5AB
  8
01
 10
1339.124817597165
 20
-708.21370116291973
 30
0.0
 11
1365.156496959979
 21
-677.19035376102511
 31
0.0
  0
LINE
  5
D5AC
  8
01
 10
1354.624817597163
 20
-708.21370184044736
 30
0.0
 11
1380.6564975284909
 21
-677.19035376102511
 31
0.0
  0
LINE
  5
D5AD
  8
01
 10
1367.4782976976251
 20
-679.19035376102511
 30
0.0
 11
1374.9782982661361
 21
-679.19035376102511
 31
0.0
  0
LINE
  5
D5AE
  8
01
 10
1378.9782982661361
 20
-679.19035376102511
 30
0.0
 11
1468.6449649328031
 21
-679.19035376102511
 31
0.0
  0
TEXT
  5
D5B2
  8
01
 10
1416.1865643723049
 20
-761.28012645964679
 30
0.0
 40
7.0
  1
ガラス扉対応厚8~12mm
  0
LINE
  5
D5B5
  8
01
 10
1380.8616411595719
 20
-720.21370088972344
 30
0.0
 11
1393.972824767252
 21
-720.21370088972344
 31
0.0
  0
LINE
  5
D5B6
  8
01
 10
1369.473793679952
 20
-762.71372627250889
 30
0.0
 11
1393.972824767252
 21
-762.71372627250889
 31
0.0
  0
LINE
  5
D5B7
  8
01
 10
1391.972824767252
 20
-724.21370088972344
 30
0.0
 11
1391.972824767252
 21
-758.71372627250889
 31
0.0
  0
LINE
  5
D5BB
  8
01
 10
1431.0487685972901
 20
-887.72840861385316
 30
0.0
 11
1431.0487685972901
 21
-931.28581051980746
 31
0.0
  0
LINE
  5
D5BC
  8
01
 10
1409.048768597288
 20
-887.72840861385225
 30
0.0
 11
1409.048768597288
 21
-931.28581051980746
 31
0.0
  0
LINE
  5
D5BD
  8
01
 10
1427.0487685972901
 20
-929.28581051980746
 30
0.0
 11
1413.048768597288
 21
-929.28581051980746
 31
0.0
  0
LINE
  5
D5C1
  8
01
 10
1334.374465987504
 20
-665.71367366693983
 30
0.0
 11
1334.374465987504
 21
-621.67331858142552
 31
0.0
  0
LINE
  5
D5C2
  8
01
 10
1359.3744659875031
 20
-665.71367366693983
 30
0.0
 11
1359.3744659875031
 21
-621.67331858142552
 31
0.0
  0
LINE
  5
D5C3
  8
01
 10
1338.374465987504
 20
-623.67331858142552
 30
0.0
 11
1355.374465987504
 21
-623.67331858142552
 31
0.0
  0
LINE
  5
D5C7
  8
01
 10
1410.0487685972871
 20
-866.72840861385134
 30
0.0
 11
1391.972824767252
 21
-866.72840861385134
 31
0.0
  0
LINE
  5
D5C8
  8
01
 10
1410.0487685972871
 20
-888.72840861385225
 30
0.0
 11
1391.972824767252
 21
-888.72840861385225
 31
0.0
  0
LINE
  5
D5C9
  8
01
 10
1393.972824767252
 20
-870.72840861385123
 30
0.0
 11
1393.972824767252
 21
-884.72840861385225
 31
0.0
  0
LINE
  5
D5CD
  8
01
 10
1512.5495759635751
 20
-865.22916337456604
 30
0.0
 11
1571.3711849680531
 21
-865.22916337456604
 31
0.0
  0
LINE
  5
D5CE
  8
01
 10
1512.5480664421441
 20
-890.22916337456422
 30
0.0
 11
1571.3711849680531
 21
-890.22916337456422
 31
0.0
  0
LINE
  5
D5CF
  8
01
 10
1569.3711849680531
 20
-869.22916337456616
 30
0.0
 11
1569.3711849680531
 21
-886.22916337456411
 31
0.0
  0
LINE
  5
D5D3
  8
01
 10
1485.5487958098479
 20
-922.81390675065995
 30
0.0
 11
1485.5487958098479
 21
-945.36860421666279
 31
0.0
  0
LINE
  5
D5D4
  8
01
 10
1550.048821202862
 20
-887.72840861384771
 30
0.0
 11
1550.048821202862
 21
-945.36860421666279
 31
0.0
  0
LINE
  5
D5D5
  8
01
 10
1489.5487958098479
 20
-943.36860421666267
 30
0.0
 11
1546.048821202862
 21
-943.36860421666267
 31
0.0
  0
LINE
  5
D5D9
  8
01
 10
1473.5487958098479
 20
-922.81390675065995
 30
0.0
 11
1473.5487958098479
 21
-945.36860421666279
 31
0.0
  0
LINE
  5
D5DA
  8
01
 10
1409.048768597288
 20
-887.72840861385225
 30
0.0
 11
1409.048768597288
 21
-945.36860421666279
 31
0.0
  0
LINE
  5
D5DB
  8
01
 10
1469.5487958098479
 20
-943.36860421666267
 30
0.0
 11
1413.048768597288
 21
-943.36860421666267
 31
0.0
  0
LINE
  5
D5DF
  8
01
 10
896.87481654809596
 20
-887.8892158036391
 30
0.0
 11
896.87481654809596
 21
-931.28581051980746
 31
0.0
  0
LINE
  5
D5E0
  8
01
 10
1346.8748165480899
 20
-887.88921580360977
 30
0.0
 11
1346.8748165480899
 21
-931.28581051980746
 31
0.0
  0
LINE
  5
D5E1
  8
01
 10
900.87481654809585
 20
-929.28581051980746
 30
0.0
 11
1342.8748165480899
 21
-929.28581051980746
 31
0.0
  0
LINE
  5
D5E5
  8
01
 10
871.8748165480938
 20
-887.88715399164084
 30
0.0
 11
871.8748165480938
 21
-945.36860421666279
 31
0.0
  0
LINE
  5
D5E6
  8
01
 10
1371.874816548094
 20
-887.88715399164028
 30
0.0
 11
1371.874816548094
 21
-945.36860421666279
 31
0.0
  0
LINE
  5
D5E7
  8
01
 10
875.8748165480938
 20
-943.36860421666267
 30
0.0
 11
1367.874816548094
 21
-943.36860421666267
 31
0.0
  0
LINE
  5
D5EB
  8
01
 10
1451.049689241127
 20
-872.12242324343015
 30
0.0
 11
1451.4437038707069
 21
-871.72840861385055
 31
0.0
1001
ACAD
1010
0.0
1020
0.0
1030
0.0
  0
LINE
  5
D5EC
  8
01
 10
1451.1050877669991
 20
-873.41406313571895
 30
0.0
 11
1452.790742288867
 21
-871.72840861385066
 31
0.0
1001
ACAD
1010
0.0
1020
0.0
1030
0.0
  0
LINE
  5
D5ED
  8
01
 10
1452.137780707028
 20
-873.72840861385055
 30
0.0
 11
1454.137780707028
 21
-871.72840861385066
 31
0.0
1001
ACAD
1010
0.0
1020
0.0
1030
0.0
  0
LINE
  5
D5EE
  8
01
 10
1453.4848191251881
 20
-873.72840861385055
 30
0.0
 11
1455.484819125187
 21
-871.728408613851
 31
0.0
1001
ACAD
1010
0.0
1020
0.0
1030
0.0
  0
LINE
  5
D5EF
  8
01
 10
1454.831857543348
 20
-873.72840861385055
 30
0.0
 11
1456.831857543348
 21
-871.72840861385066
 31
0.0
1001
ACAD
1010
0.0
1020
0.0
1030
0.0
  0
LINE
  5
D5F0
  8
01
 10
1456.178895961508
 20
-873.72840861385123
 30
0.0
 11
1458.178895961508
 21
-871.72840861385089
 31
0.0
1001
ACAD
1010
0.0
1020
0.0
1030
0.0
  0
LINE
  5
D5F1
  8
01
 10
1457.5259343796679
 20
-873.72840861385134
 30
0.0
 11
1459.525934379669
 21
-871.728408613851
 31
0.0
1001
ACAD
1010
0.0
1020
0.0
1030
0.0
  0
LINE
  5
D5F2
  8
01
 10
1458.872972797828
 20
-873.72840861385134
 30
0.0
 11
1460.8729727978291
 21
-871.72840861385089
 31
0.0
1001
ACAD
1010
0.0
1020
0.0
1030
0.0
  0
LINE
  5
D5F3
  8
01
 10
1460.220011215989
 20
-873.72840861385123
 30
0.0
 11
1462.2200112159901
 21
-871.728408613851
 31
0.0
1001
ACAD
1010
0.0
1020
0.0
1030
0.0
  0
LINE
  5
D5F4
  8
01
 10
1461.567049634149
 20
-873.72840861385123
 30
0.0
 11
1463.567049634149
 21
-871.728408613851
 31
0.0
1001
ACAD
1010
0.0
1020
0.0
1030
0.0
  0
LINE
  5
D5F5
  8
01
 10
1453.995067972086
 20
-882.64742869407473
 30
0.0
 11
1454.914088052308
 21
-881.72840861385293
 31
0.0
1001
ACAD
1010
0.0
1020
0.0
1030
0.0
  0
LINE
  5
D5F6
  8
01
 10
1462.91408805231
 20
-873.72840861385134
 30
0.0
 11
1464.91408805231
 21
-871.72840861385146
 31
0.0
1001
ACAD
1010
0.0
1020
0.0
1030
0.0
  0
LINE
  5
D5F7
  8
01
 10
1454.2611264704699
 20
-883.72840861385146
 30
0.0
 11
1456.261126470469
 21
-881.72840861385282
 31
0.0
1001
ACAD
1010
0.0
1020
0.0
1030
0.0
  0
LINE
  5
D5F8
  8
01
 10
1464.2611264704699
 20
-873.72840861385123
 30
0.0
 11
1466.2611264704699
 21
-871.72840861385123
 31
0.0
1001
ACAD
1010
0.0
1020
0.0
1030
0.0
  0
LINE
  5
D5F9
  8
01
 10
1455.60816488863
 20
-883.72840861385146
 30
0.0
 11
1457.6081648886291
 21
-881.72840861385259
 31
0.0
1001
ACAD
1010
0.0
1020
0.0
1030
0.0
  0
LINE
  5
D5FA
  8
01
 10
1465.6081648886311
 20
-873.72840861385123
 30
0.0
 11
1467.60816488863
 21
-871.72840861385146
 31
0.0
1001
ACAD
1010
0.0
1020
0.0
1030
0.0
  0
LINE
  5
D5FB
  8
01
 10
1456.9552033067901
 20
-883.72840861385146
 30
0.0
 11
1458.9552033067889
 21
-881.72840861385293
 31
0.0
1001
ACAD
1010
0.0
1020
0.0
1030
0.0
  0
LINE
  5
D5FC
  8
01
 10
1466.955203306791
 20
-873.72840861385134
 30
0.0
 11
1468.955203306791
 21
-871.72840861385157
 31
0.0
1001
ACAD
1010
0.0
1020
0.0
1030
0.0
  0
LINE
  5
D5FD
  8
01
 10
1458.302241724951
 20
-883.72840861385146
 30
0.0
 11
1460.3022417249499
 21
-881.72840861385259
 31
0.0
1001
ACAD
1010
0.0
1020
0.0
1030
0.0
  0
LINE
  5
D5FE
  8
01
 10
1468.302241724952
 20
-873.72840861385123
 30
0.0
 11
1471.302241724951
 21
-870.72840861385214
 31
0.0
1001
ACAD
1010
0.0
1020
0.0
1030
0.0
  0
LINE
  5
D5FF
  8
01
 10
1459.649280143112
 20
-883.72840861385134
 30
0.0
 11
1461.6492801431109
 21
-881.72840861385237
 31
0.0
1001
ACAD
1010
0.0
1020
0.0
1030
0.0
  0
LINE
  5
D600
  8
01
 10
1469.649280143112
 20
-873.72840861385123
 30
0.0
 11
1472.04887363853
 21
-871.32881511843311
 31
0.0
1001
ACAD
1010
0.0
1020
0.0
1030
0.0
  0
LINE
  5
D601
  8
01
 10
1460.9963185612719
 20
-883.72840861385146
 30
0.0
 11
1462.996318561271
 21
-881.72840861385237
 31
0.0
1001
ACAD
1010
0.0
1020
0.0
1030
0.0
  0
LINE
  5
D602
  8
01
 10
1470.9963185612719
 20
-873.72840861385123
 30
0.0
 11
1472.0488568742001
 21
-872.67587030092352
 31
0.0
1001
ACAD
1010
0.0
1020
0.0
1030
0.0
  0
LINE
  5
D603
  8
01
 10
1462.3433569794331
 20
-883.72840861385146
 30
0.0
 11
1464.3433569794311
 21
-881.72840861385259
 31
0.0
1001
ACAD
1010
0.0
1020
0.0
1030
0.0
  0
LINE
  5
D604
  8
01
 10
1463.690395397593
 20
-883.72840861385134
 30
0.0
 11
1465.6903953975921
 21
-881.72840861385225
 31
0.0
1001
ACAD
1010
0.0
1020
0.0
1030
0.0
  0
LINE
  5
D605
  8
01
 10
1465.037433815753
 20
-883.72840861385146
 30
0.0
 11
1467.0374338157519
 21
-881.72840861385237
 31
0.0
1001
ACAD
1010
0.0
1020
0.0
1030
0.0
  0
LINE
  5
D606
  8
01
 10
1466.3844722339129
 20
-883.72840861385134
 30
0.0
 11
1468.384472233912
 21
-881.72840861385225
 31
0.0
1001
ACAD
1010
0.0
1020
0.0
1030
0.0
  0
LINE
  5
D607
  8
01
 10
1467.7315106520739
 20
-883.72840861385134
 30
0.0
 11
1469.731510652073
 21
-881.72840861385225
 31
0.0
1001
ACAD
1010
0.0
1020
0.0
1030
0.0
  0
LINE
  5
D608
  8
01
 10
1469.078549070234
 20
-883.72840861385146
 30
0.0
 11
1471.0785490702331
 21
-881.72840861385225
 31
0.0
1001
ACAD
1010
0.0
1020
0.0
1030
0.0
  0
LINE
  5
D609
  8
01
 10
1470.048873344912
 20
-884.10512275733447
 30
0.0
 11
1471.962217928497
 21
-882.19177817374907
 31
0.0
1001
ACAD
1010
0.0
1020
0.0
1030
0.0
  0
LINE
  5
D60A
  8
01
 10
1470.772625906555
 20
-884.72840861385112
 30
0.0
 11
1472.0488652189499
 21
-883.45216930145648
 31
0.0
1001
ACAD
1010
0.0
1020
0.0
1030
0.0
  0
LINE
  5
D60B
  8
01
 10
1454.6181145477301
 20
-890.22916337456604
 30
0.0
 11
1453.5492496100089
 21
-889.16029843684555
 31
0.0
1001
ACAD
1010
0.0
1020
0.0
1030
0.0
  0
LINE
  5
D60C
  8
01
 10
1456.8631785779969
 20
-890.22916337456604
 30
0.0
 11
1454.011439704193
 21
-887.37742450076223
 31
0.0
1001
ACAD
1010
0.0
1020
0.0
1030
0.0
  0
LINE
  5
D60D
  8
01
 10
1459.1082426082639
 20
-890.22916337456616
 30
0.0
 11
1454.2543331328779
 21
-885.37525389917971
 31
0.0
1001
ACAD
1010
0.0
1020
0.0
1030
0.0
  0
LINE
  5
D60E
  8
01
 10
1461.3533066385321
 20
-890.22916337456616
 30
0.0
 11
1455.052551877817
 21
-883.92840861385173
 31
0.0
1001
ACAD
1010
0.0
1020
0.0
1030
0.0
  0
LINE
  5
D60F
  8
01
 10
1463.5983706687989
 20
-890.22916337456627
 30
0.0
 11
1457.297615908084
 21
-883.92840861385162
 31
0.0
1001
ACAD
1010
0.0
1020
0.0
1030
0.0
  0
LINE
  5
D610
  8
01
 10
1465.8434346990659
 20
-890.2291633745665
 30
0.0
 11
1459.5426799383511
 21
-883.92840861385162
 31
0.0
1001
ACAD
1010
0.0
1020
0.0
1030
0.0
  0
LINE
  5
D611
  8
01
 10
1468.0884987293341
 20
-890.2291633745665
 30
0.0
 11
1461.787743968619
 21
-883.92840861385162
 31
0.0
1001
ACAD
1010
0.0
1020
0.0
1030
0.0
  0
LINE
  5
D612
  8
01
 10
1470.3335627596009
 20
-890.22916337456672
 30
0.0
 11
1464.032807998886
 21
-883.92840861385139
 31
0.0
1001
ACAD
1010
0.0
1020
0.0
1030
0.0
  0
LINE
  5
D613
  8
01
 10
1451.6328079988859
 20
-871.52840861385152
 30
0.0
 11
1451.1753077790099
 21
-871.07090839397563
 31
0.0
1001
ACAD
1010
0.0
1020
0.0
1030
0.0
  0
LINE
  5
D614
  8
01
 10
1472.5786267898691
 20
-890.22916337456695
 30
0.0
 11
1466.2778720291531
 21
-883.92840861385116
 31
0.0
1001
ACAD
1010
0.0
1020
0.0
1030
0.0
  0
LINE
  5
D615
  8
01
 10
1453.877872029153
 20
-871.52840861385152
 30
0.0
 11
1451.7031589427031
 21
-869.35369552740144
 31
0.0
1001
ACAD
1010
0.0
1020
0.0
1030
0.0
  0
LINE
  5
D616
  8
01
 10
1472.5487939800751
 20
-887.95426653450568
 30
0.0
 11
1468.5229360594201
 21
-883.92840861385116
 31
0.0
1001
ACAD
1010
0.0
1020
0.0
1030
0.0
  0
LINE
  5
D617
  8
01
 10
1456.12293605942
 20
-871.5284086138513
 30
0.0
 11
1452.452618270072
 21
-867.85809082450305
 31
0.0
1001
ACAD
1010
0.0
1020
0.0
1030
0.0
  0
LINE
  5
D618
  8
01
 10
1472.5487939800751
 20
-885.70920250423819
 30
0.0
 11
1471.7680000896869
 21
-884.92840861385025
 31
0.0
1001
ACAD
1010
0.0
1020
0.0
1030
0.0
  0
LINE
  5
D619
  8
01
 10
1458.3680000896879
 20
-871.5284086138513
 30
0.0
 11
1453.3326910521139
 21
-866.49309957627781
 31
0.0
1001
ACAD
1010
0.0
1020
0.0
1030
0.0
  0
LINE
  5
D61A
  8
01
 10
1460.613064119955
 20
-871.5284086138513
 30
0.0
 11
1454.313818880672
 21
-865.22916337456763
 31
0.0
1001
ACAD
1010
0.0
1020
0.0
1030
0.0
  0
LINE
  5
D61B
  8
01
 10
1462.858128150222
 20
-871.5284086138513
 30
0.0
 11
1456.558882910939
 21
-865.22916337456741
 31
0.0
1001
ACAD
1010
0.0
1020
0.0
1030
0.0
  0
LINE
  5
D61C
  8
01
 10
1465.1031921804899
 20
-871.5284086138513
 30
0.0
 11
1458.803946941206
 21
-865.22916337456718
 31
0.0
1001
ACAD
1010
0.0
1020
0.0
1030
0.0
  0
LINE
  5
D61D
  8
01
 10
1486.0490109714731
 20
-890.2291633745665
 30
0.0
 11
1485.848795809849
 21
-890.02894821294296
 31
0.0
1001
ACAD
1010
0.0
1020
0.0
1030
0.0
  0
LINE
  5
D61E
  8
01
 10
1467.348256210757
 20
-871.5284086138513
 30
0.0
 11
1461.0490109714731
 21
-865.22916337456718
 31
0.0
1001
ACAD
1010
0.0
1020
0.0
1030
0.0
  0
LINE
  5
D61F
  8
01
 10
1488.294075001739
 20
-890.22916337456627
 30
0.0
 11
1487.294710991958
 21
-889.22979936478487
 31
0.0
1001
ACAD
1010
0.0
1020
0.0
1030
0.0
  0
LINE
  5
D620
  8
01
 10
1469.5488219259501
 20
-871.48391029877655
 30
0.0
 11
1463.2940750017401
 21
-865.22916337456707
 31
0.0
1001
ACAD
1010
0.0
1020
0.0
1030
0.0
  0
LINE
  5
D621
  8
01
 10
1490.5391390320069
 20
-890.22916337456616
 30
0.0
 11
1488.637966979459
 21
-888.32799132201853
 31
0.0
1001
ACAD
1010
0.0
1020
0.0
1030
0.0
  0
LINE
  5
D622
  8
01
 10
1470.838384271291
 20
-870.5284086138513
 30
0.0
 11
1465.5391390320081
 21
-865.22916337456707
 31
0.0
1001
ACAD
1010
0.0
1020
0.0
1030
0.0
  0
LINE
  5
D623
  8
01
 10
1492.7842030622739
 20
-890.22916337456604
 30
0.0
 11
1490.8830589502761
 21
-888.32801926256855
 31
0.0
1001
ACAD
1010
0.0
1020
0.0
1030
0.0
  0
LINE
  5
D624
  8
01
 10
1472.54864794272
 20
-869.99360825501253
 30
0.0
 11
1467.7842030622739
 21
-865.22916337456695
 31
0.0
1001
ACAD
1010
0.0
1020
0.0
1030
0.0
  0
LINE
  5
D625
  8
01
 10
1495.029267092541
 20
-890.22916337456604
 30
0.0
 11
1493.128150921093
 21
-888.32804720311856
 31
0.0
1001
ACAD
1010
0.0
1020
0.0
1030
0.0
  0
LINE
  5
D626
  8
01
 10
1472.548620002171
 20
-867.74851628419606
 30
0.0
 11
1470.0292670925421
 21
-865.22916337456672
 31
0.0
1001
ACAD
1010
0.0
1020
0.0
1030
0.0
  0
LINE
  5
D627
  8
01
 10
1497.274331122808
 20
-890.22916337456559
 30
0.0
 11
1495.3732428919111
 21
-888.3280751436688
 31
0.0
1001
ACAD
1010
0.0
1020
0.0
1030
0.0
  0
LINE
  5
D628
  8
01
 10
1473.2487941568629
 20
-866.20362640862106
 30
0.0
 11
1472.2743311228089
 21
-865.2291633745665
 31
0.0
1001
ACAD
1010
0.0
1020
0.0
1030
0.0
  0
LINE
  5
D629
  8
01
 10
1498.5840292724611
 20
-889.29379749395127
 30
0.0
 11
1497.618334862728
 21
-888.3281030842187
 31
0.0
1001
ACAD
1010
0.0
1020
0.0
1030
0.0
  0
LINE
  5
D62A
  8
01
 10
1501.7644591833421
 20
-890.22916337456513
 30
0.0
 11
1501.564459220767
 21
-890.02916341199057
 31
0.0
1001
ACAD
1010
0.0
1020
0.0
1030
0.0
  0
LINE
  5
D62B
  8
01
 10
1504.0095232136091
 20
-890.22916337456491
 30
0.0
 11
1503.809523251035
 21
-890.02916341199091
 31
0.0
1001
ACAD
1010
0.0
1020
0.0
1030
0.0
  0
LINE
  5
D62C
  8
01
 10
1506.2545872438759
 20
-890.22916337456468
 30
0.0
 11
1504.35361077518
 21
-888.32818690586907
 31
0.0
1001
ACAD
1010
0.0
1020
0.0
1030
0.0
  0
LINE
  5
D62D
  8
01
 10
1508.4996512741429
 20
-890.22916337456445
 30
0.0
 11
1506.598702745998
 21
-888.32821484641931
 31
0.0
1001
ACAD
1010
0.0
1020
0.0
1030
0.0
  0
LINE
  5
D62E
  8
01
 10
1510.74471530441
 20
-890.22916337456422
 30
0.0
 11
1508.843794716815
 21
-888.32824278696921
 31
0.0
1001
ACAD
1010
0.0
1020
0.0
1030
0.0
  0
LINE
  5
D62F
  8
01
 10
1486.7453444558871
 20
-866.22979252604136
 30
0.0
 11
1485.8487958098469
 21
-865.33324388000119
 31
0.0
1001
ACAD
1010
0.0
1020
0.0
1030
0.0
  0
LINE
  5
D630
  8
01
 10
1512.768922888411
 20
-890.00830692829766
 30
0.0
 11
1510.5486706221941
 21
-887.78805466208109
 31
0.0
1001
ACAD
1010
0.0
1020
0.0
1030
0.0
  0
LINE
  5
D631
  8
01
 10
1489.8903294818949
 20
-867.12971352178204
 30
0.0
 11
1487.98977933468
 21
-865.22916337456672
 31
0.0
1001
ACAD
1010
0.0
1020
0.0
1030
0.0
  0
LINE
  5
D632
  8
01
 10
1513.8914549035439
 20
-888.88577491316403
 30
0.0
 11
1510.5486985620489
 21
-885.54301857166843
 31
0.0
1001
ACAD
1010
0.0
1020
0.0
1030
0.0
  0
LINE
  5
D633
  8
01
 10
1492.135421452713
 20
-867.12974146233205
 30
0.0
 11
1490.234843364947
 21
-865.22916337456672
 31
0.0
1001
ACAD
1010
0.0
1020
0.0
1030
0.0
  0
LINE
  5
D634
  8
01
 10
1515.013986918678
 20
-887.76324289803028
 30
0.0
 11
1512.4789955800729
 21
-885.22825155942473
 31
0.0
1001
ACAD
1010
0.0
1020
0.0
1030
0.0
  0
LINE
  5
D635
  8
01
 10
1494.3805134235299
 20
-867.12976940288206
 30
0.0
 11
1492.4799073952149
 21
-865.22916337456672
 31
0.0
1001
ACAD
1010
0.0
1020
0.0
1030
0.0
  0
LINE
  5
D636
  8
01
 10
1516.1365189338121
 20
-886.64071088289654
 30
0.0
 11
1513.5487958164269
 21
-884.05298776551126
 31
0.0
1001
ACAD
1010
0.0
1020
0.0
1030
0.0
  0
LINE
  5
D637
  8
01
 10
1496.6256053943471
 20
-867.12979734343219
 30
0.0
 11
1494.724971425482
 21
-865.2291633745665
 31
0.0
1001
ACAD
1010
0.0
1020
0.0
1030
0.0
  0
LINE
  5
D638
  8
01
 10
1517.2590509489451
 20
-885.5181788677628
 30
0.0
 11
1513.569280695034
 21
-881.82840861385159
 31
0.0
1001
ACAD
1010
0.0
1020
0.0
1030
0.0
  0
LINE
  5
D639
  8
01
 10
1498.8706973651649
 20
-867.12982528398231
 30
0.0
 11
1496.970035455749
 21
-865.2291633745665
 31
0.0
1001
ACAD
1010
0.0
1020
0.0
1030
0.0
  0
LINE
  5
D63A
  8
01
 10
1518.7143447252979
 20
-884.72840861384861
 30
0.0
 11
1515.814344725301
 21
-881.82840861385148
 31
0.0
1001
ACAD
1010
0.0
1020
0.0
1030
0.0
  0
LINE
  5
D63B
  8
01
 10
1501.1157893359821
 20
-867.12985322453233
 30
0.0
 11
1499.215099486016
 21
-865.2291633745665
 31
0.0
1001
ACAD
1010
0.0
1020
0.0
1030
0.0
  0
LINE
  5
D63C
  8
01
 10
1520.9594087555649
 20
-884.72840861384861
 30
0.0
 11
1518.059408755568
 21
-881.82840861385091
 31
0.0
1001
ACAD
1010
0.0
1020
0.0
1030
0.0
  0
LINE
  5
D63D
  8
01
 10
1503.360881306799
 20
-867.12988116508234
 30
0.0
 11
1501.460163516284
 21
-865.22916337456672
 31
0.0
1001
ACAD
1010
0.0
1020
0.0
1030
0.0
  0
LINE
  5
D63E
  8
01
 10
1523.2044727858331
 20
-884.72840861384861
 30
0.0
 11
1520.3044727858351
 21
-881.8284086138508
 31
0.0
1001
ACAD
1010
0.0
1020
0.0
1030
0.0
  0
LINE
  5
D63F
  8
01
 10
1505.6059732776159
 20
-867.12990910563235
 30
0.0
 11
1503.705227546551
 21
-865.2291633745665
 31
0.0
1001
ACAD
1010
0.0
1020
0.0
1030
0.0
  0
LINE
  5
D640
  8
01
 10
1525.4495368160999
 20
-884.72840861384861
 30
0.0
 11
1522.5495368161021
 21
-881.82840861385057
 31
0.0
1001
ACAD
1010
0.0
1020
0.0
1030
0.0
  0
LINE
  5
D641
  8
01
 10
1507.851065248434
 20
-867.12993704618236
 30
0.0
 11
1505.950291576818
 21
-865.22916337456616
 31
0.0
1001
ACAD
1010
0.0
1020
0.0
1030
0.0
  0
LINE
  5
D642
  8
01
 10
1514.349536816105
 20
-873.62840861385348
 30
0.0
 11
1513.5487958164269
 21
-872.82766761417486
 31
0.0
1001
ACAD
1010
0.0
1020
0.0
1030
0.0
  0
LINE
  5
D643
  8
01
 10
1510.949693870532
 20
-870.22856566828114
 30
0.0
 11
1510.548894141031
 21
-869.82776593877929
 31
0.0
1001
ACAD
1010
0.0
1020
0.0
1030
0.0
  0
LINE
  5
D644
  8
01
 10
1527.6946008463669
 20
-884.72840861384861
 30
0.0
 11
1524.7946008463689
 21
-881.82840861385023
 31
0.0
1001
ACAD
1010
0.0
1020
0.0
1030
0.0
  0
LINE
  5
D645
  8
01
 10
1510.0961572192509
 20
-867.12996498673249
 30
0.0
 11
1508.195355607085
 21
-865.22916337456616
 31
0.0
1001
ACAD
1010
0.0
1020
0.0
1030
0.0
  0
LINE
  5
D646
  8
01
 10
1516.594600846372
 20
-873.62840861385371
 30
0.0
 11
1513.548884746074
 21
-870.58269251355523
 31
0.0
1001
ACAD
1010
0.0
1020
0.0
1030
0.0
  0
LINE
  5
D647
  8
01
 10
1513.194757900799
 20
-870.22856566828023
 30
0.0
 11
1510.5489220808849
 21
-867.5827298483664
 31
0.0
1001
ACAD
1010
0.0
1020
0.0
1030
0.0
  0
LINE
  5
D648
  8
01
 10
1528.048821202859
 20
-882.83756494007355
 30
0.0
 11
1527.0396648766359
 21
-881.82840861385012
 31
0.0
1001
ACAD
1010
0.0
1020
0.0
1030
0.0
  0
LINE
  5
D649
  8
01
 10
1518.83966487664
 20
-873.62840861385394
 30
0.0
 11
1510.4404196373521
 21
-865.22916337456604
 31
0.0
1001
ACAD
1010
0.0
1020
0.0
1030
0.0
  0
LINE
  5
D64A
  8
01
 10
1521.084728906907
 20
-873.62840861385405
 30
0.0
 11
1518.184728906904
 21
-870.72840861385032
 31
0.0
1001
ACAD
1010
0.0
1020
0.0
1030
0.0
  0
LINE
  5
D64B
  8
01
 10
1523.3297929371749
 20
-873.62840861385405
 30
0.0
 11
1520.4297929371701
 21
-870.72840861384998
 31
0.0
1001
ACAD
1010
0.0
1020
0.0
1030
0.0
  0
LINE
  5
D64C
  8
01
 10
1525.574856967442
 20
-873.62840861385416
 30
0.0
 11
1522.6748569674371
 21
-870.72840861384975
 31
0.0
1001
ACAD
1010
0.0
1020
0.0
1030
0.0
  0
LINE
  5
D64D
  8
01
 10
1527.8199209977099
 20
-873.62840861385439
 30
0.0
 11
1524.9199209977039
 21
-870.72840861384952
 31
0.0
1001
ACAD
1010
0.0
1020
0.0
1030
0.0
  0
LINE
  5
D64E
  8
01
 10
1528.048821202859
 20
-871.61224478873589
 30
0.0
 11
1527.1649850279721
 21
-870.7284086138493
 31
0.0
1001
ACAD
1010
0.0
1020
0.0
1030
0.0
  0
LINE
  5
D64F
  8
01
 10
908.17376828857869
 20
-705.81926449483774
 30
0.0
 11
906.77945698850294
 21
-707.21357579491337
 31
0.0
1001
ACAD
1010
0.0
1020
0.0
1030
0.0
  0
LINE
  5
D650
  8
01
 10
907.3738684474024
 20
-704.37410030574665
 30
0.0
 11
904.53436501768567
 21
-707.21360373546349
 31
0.0
1001
ACAD
1010
0.0
1020
0.0
1030
0.0
  0
LINE
  5
D651
  8
01
 10
907.37384050754736
 20
-702.12906421533444
 30
0.0
 11
902.28927304686829
 21
-707.21363167601362
 31
0.0
1001
ACAD
1010
0.0
1020
0.0
1030
0.0
  0
LINE
  5
D652
  8
01
 10
907.37381256769265
 20
-699.88402812492177
 30
0.0
 11
904.37384990250553
 21
-702.88399079010912
 31
0.0
1001
ACAD
1010
0.0
1020
0.0
1030
0.0
  0
LINE
  5
D653
  8
01
 10
902.84421592317631
 20
-704.41362476943846
 30
0.0
 11
901.87376287212862
 21
-705.38407782048603
 31
0.0
1001
ACAD
1010
0.0
1020
0.0
1030
0.0
  0
LINE
  5
D654
  8
01
 10
907.37378462783795
 20
-697.63899203450944
 30
0.0
 11
904.37382196265082
 21
-700.63895469969646
 31
0.0
1001
ACAD
1010
0.0
1020
0.0
1030
0.0
  0
LINE
  5
D655
  8
01
 10
907.37375668798325
 20
-695.39395594409689
 30
0.0
 11
904.37379402279612
 21
-698.39391860928401
 31
0.0
1001
ACAD
1010
0.0
1020
0.0
1030
0.0
  0
LINE
  5
D656
  8
01
 10
907.37372874812843
 20
-693.14891985368445
 30
0.0
 11
904.37376608294142
 21
-696.14888251887146
 31
0.0
1001
ACAD
1010
0.0
1020
0.0
1030
0.0
  0
LINE
  5
D657
  8
01
 10
907.37370080827372
 20
-690.90388376327166
 30
0.0
 11
904.37373814308648
 21
-693.90384642845868
 31
0.0
1001
ACAD
1010
0.0
1020
0.0
1030
0.0
  0
LINE
  5
D658
  8
01
 10
891.87377556208116
 20
-706.40380900946423
 30
0.0
 11
891.06381319278216
 21
-707.21377137876323
 31
0.0
1001
ACAD
1010
0.0
1020
0.0
1030
0.0
  0
LINE
  5
D659
  8
01
 10
905.71240845414559
 20
-690.32011208713243
 30
0.0
 11
904.37371020323155
 21
-691.65881033804646
 31
0.0
1001
ACAD
1010
0.0
1020
0.0
1030
0.0
  0
LINE
  5
D65A
  8
01
 10
891.61875606909064
 20
-704.41376447218749
 30
0.0
 11
888.81872122196478
 21
-707.21379931931335
 31
0.0
1001
ACAD
1010
0.0
1020
0.0
1030
0.0
  0
LINE
  5
D65B
  8
01
 10
889.37557553173713
 20
-704.41188097927363
 30
0.0
 11
886.57362925114739
 21
-707.21382725986336
 31
0.0
1001
ACAD
1010
0.0
1020
0.0
1030
0.0
  0
LINE
  5
D65C
  8
01
 10
889.37554759188242
 20
-702.16684488886085
 30
0.0
 11
886.37558492669382
 21
-705.16680755404968
 31
0.0
1001
ACAD
1010
0.0
1020
0.0
1030
0.0
  0
LINE
  5
D65D
  8
01
 10
886.32856217113761
 20
-705.21383030960578
 30
0.0
 11
885.57377014560848
 21
-705.96862233513491
 31
0.0
1001
ACAD
1010
0.0
1020
0.0
1030
0.0
  0
LINE
  5
D65E
  8
01
 10
889.37551965202795
 20
-699.92180879844818
 30
0.0
 11
886.37555698683911
 21
-702.92177146363713
 31
0.0
1001
ACAD
1010
0.0
1020
0.0
1030
0.0
  0
LINE
  5
D65F
  8
01
 10
889.37549171217336
 20
-697.67677270803563
 30
0.0
 11
886.37552904698464
 21
-700.67673537322435
 31
0.0
1001
ACAD
1010
0.0
1020
0.0
1030
0.0
  0
LINE
  5
D660
  8
01
 10
889.37546377231888
 20
-695.43173661762285
 30
0.0
 11
886.37550110713005
 21
-698.43169928281168
 31
0.0
1001
ACAD
1010
0.0
1020
0.0
1030
0.0
  0
LINE
  5
D661
  8
01
 10
889.37543583246418
 20
-693.18670052721018
 30
0.0
 11
886.37547316727557
 21
-696.1866631923989
 31
0.0
1001
ACAD
1010
0.0
1020
0.0
1030
0.0
  0
LINE
  5
D662
  8
01
 10
889.3754078926097
 20
-690.94166443679751
 30
0.0
 11
886.3754452274211
 21
-693.941627101986
 31
0.0
1001
ACAD
1010
0.0
1020
0.0
1030
0.0
  0
LINE
  5
D663
  8
01
 10
888.25684663332891
 20
-689.81516166581093
 30
0.0
 11
886.37541728756651
 21
-691.69659101157333
 31
0.0
1001
ACAD
1010
0.0
1020
0.0
1030
0.0
  0
LINE
  5
D664
  8
01
 10
908.97750631899453
 20
-688.75322637403644
 30
0.0
 11
909.37516710867578
 21
-689.15088716371747
 31
0.0
1001
ACAD
1010
0.0
1020
0.0
1030
0.0
  0
LINE
  5
D665
  8
01
 10
907.50836093374653
 20
-689.52914501905559
 30
0.0
 11
909.37516710867578
 21
-691.39595119398484
 31
0.0
1001
ACAD
1010
0.0
1020
0.0
1030
0.0
  0
LINE
  5
D666
  8
01
 10
907.47371120840523
 20
-691.73955932398167
 30
0.0
 11
909.37516710867578
 21
-693.64101522425221
 31
0.0
1001
ACAD
1010
0.0
1020
0.0
1030
0.0
  0
LINE
  5
D667
  8
01
 10
907.47373914895536
 20
-693.98465129479905
 30
0.0
 11
909.37516710867578
 21
-695.88607925451947
 31
0.0
1001
ACAD
1010
0.0
1020
0.0
1030
0.0
  0
LINE
  5
D668
  8
01
 10
907.47376708950549
 20
-696.22974326561643
 30
0.0
 11
909.37516710867578
 21
-698.13114328478684
 31
0.0
1001
ACAD
1010
0.0
1020
0.0
1030
0.0
  0
LINE
  5
D669
  8
01
 10
907.4737950300555
 20
-698.47483523643371
 30
0.0
 11
909.37516710867578
 21
-700.37620731505388
 31
0.0
1001
ACAD
1010
0.0
1020
0.0
1030
0.0
  0
LINE
  5
D66A
  8
01
 10
907.47382297060551
 20
-700.71992720725109
 30
0.0
 11
909.37516710867556
 21
-702.62127134532125
 31
0.0
1001
ACAD
1010
0.0
1020
0.0
1030
0.0
  0
LINE
  5
D66B
  8
01
 10
907.47385091115541
 20
-702.96501917806825
 30
0.0
 11
909.37516710867556
 21
-704.86633537558851
 31
0.0
1001
ACAD
1010
0.0
1020
0.0
1030
0.0
  0
LINE
  5
D66C
  8
01
 10
907.47387885170565
 20
-705.21011114888574
 30
0.0
 11
907.47733481236673
 21
-705.21356710954683
 31
0.0
1001
ACAD
1010
0.0
1020
0.0
1030
0.0
  0
LINE
  5
D66D
  8
01
 10
908.37377190689836
 20
-706.11000420407845
 30
0.0
 11
909.37516710867556
 21
-707.11139940585565
 31
0.0
1001
ACAD
1010
0.0
1020
0.0
1030
0.0
  0
LINE
  5
D66E
  8
01
 10
885.05305211715665
 20
-691.76954053540578
 30
0.0
 11
886.27543340816885
 21
-692.99192182641809
 31
0.0
1001
ACAD
1010
0.0
1020
0.0
1030
0.0
  0
LINE
  5
D66F
  8
01
 10
884.37516710867578
 20
-693.3367195571924
 30
0.0
 11
886.27546134871875
 21
-695.23701379723536
 31
0.0
1001
ACAD
1010
0.0
1020
0.0
1030
0.0
  0
LINE
  5
D670
  8
01
 10
884.37516710867578
 20
-695.58178358745965
 30
0.0
 11
886.27548928926899
 21
-697.48210576805286
 31
0.0
1001
ACAD
1010
0.0
1020
0.0
1030
0.0
  0
LINE
  5
D671
  8
01
 10
884.37516710867578
 20
-697.82684761772691
 30
0.0
 11
886.27551722981889
 21
-699.72719773887025
 31
0.0
1001
ACAD
1010
0.0
1020
0.0
1030
0.0
  0
LINE
  5
D672
  8
01
 10
884.37516710867578
 20
-700.07191164799417
 30
0.0
 11
886.2755451703689
 21
-701.97228970968752
 31
0.0
1001
ACAD
1010
0.0
1020
0.0
1030
0.0
  0
LINE
  5
D673
  8
01
 10
884.37516710867556
 20
-702.31697567826131
 30
0.0
 11
886.27557311091903
 21
-704.21738168050467
 31
0.0
1001
ACAD
1010
0.0
1020
0.0
1030
0.0
  0
LINE
  5
D674
  8
01
 10
884.37516710867556
 20
-704.56203970852846
 30
0.0
 11
885.37376506815406
 21
-705.56063766800685
 31
0.0
1001
ACAD
1010
0.0
1020
0.0
1030
0.0
  0
LINE
  5
D675
  8
01
 10
884.37516710867556
 20
-706.80710373879583
 30
0.0
 11
885.37379300870646
 21
-707.80572963882673
 31
0.0
1001
ACAD
1010
0.0
1020
0.0
1030
0.0
  0
LINE
  5
D676
  8
01
 10
1499.4986884146199
 20
-888.37916341199093
 30
0.0
 11
1499.14868841462
 21
-888.72916323791674
 31
0.0
  0
LINE
  5
D677
  8
01
 10
1503.14868841462
 20
-888.72916323791674
 30
0.0
 11
1502.7986884146201
 21
-888.37916341199093
 31
0.0
  0
LINE
  5
D678
  8
01
 10
1498.14868841462
 20
-889.72916340199072
 30
0.0
 11
1504.14868841462
 21
-889.72916340199072
 31
0.0
  0
LINE
  5
D679
  8
01
 10
1499.14868841462
 20
-882.37916341199082
 30
0.0
 11
1503.14868841462
 21
-882.37916341199082
 31
0.0
  0
LINE
  5
D67B
  8
01
 10
1502.7986884146201
 20
-882.02916341199068
 30
0.0
 11
1502.7986884146201
 21
-888.37916341199093
 31
0.0
  0
LINE
  5
D67C
  8
01
 10
1499.4986884146199
 20
-882.02916341199068
 30
0.0
 11
1499.4986884146199
 21
-888.37916341199093
 31
0.0
  0
LINE
  5
D67D
  8
01
 10
1501.14868841462
 20
-880.42748841199068
 30
0.0
 11
1501.14868841462
 21
-891.58793231199081
 31
0.0
  0
LINE
  5
D67E
  8
01
 10
904.03005585883022
 20
-708.21369903396203
 30
0.0
 11
904.62481652209192
 21
-708.80845969722373
 31
0.0
1001
ACAD
1010
0.0
1020
0.0
1030
0.0
  0
LINE
  5
D67F
  8
01
 10
902.68301738178843
 20
-708.21369897508055
 30
0.0
 11
904.624816463211
 21
-710.15549805650335
 31
0.0
1001
ACAD
1010
0.0
1020
0.0
1030
0.0
  0
LINE
  5
D680
  8
01
 10
901.33597890474766
 20
-708.21369891619986
 30
0.0
 11
904.62481640433032
 21
-711.50253641578229
 31
0.0
1001
ACAD
1010
0.0
1020
0.0
1030
0.0
  0
LINE
  5
D681
  8
01
 10
900.87549790912942
 20
-709.10025633874284
 30
0.0
 11
904.62481634544918
 21
-712.84957477506214
 31
0.0
1001
ACAD
1010
0.0
1020
0.0
1030
0.0
  0
LINE
  5
D682
  8
01
 10
900.87548512006902
 20
-710.44728196784263
 30
0.0
 11
904.62481628656826
 21
-714.19661313434096
 31
0.0
1001
ACAD
1010
0.0
1020
0.0
1030
0.0
  0
LINE
  5
D683
  8
01
 10
900.8754723310085
 20
-711.79430759694219
 30
0.0
 11
904.62481622768735
 21
-715.5436514936207
 31
0.0
1001
ACAD
1010
0.0
1020
0.0
1030
0.0
  0
LINE
  5
D684
  8
01
 10
900.87545954194866
 20
-713.14133322604255
 30
0.0
 11
904.62481616880666
 21
-716.89068985290021
 31
0.0
1001
ACAD
1010
0.0
1020
0.0
1030
0.0
  0
LINE
  5
D685
  8
01
 10
900.87544675288791
 20
-714.488358855142
 30
0.0
 11
904.62481610992563
 21
-718.23772821217915
 31
0.0
1001
ACAD
1010
0.0
1020
0.0
1030
0.0
  0
LINE
  5
D686
  8
01
 10
900.87543396382739
 20
-715.83538448424179
 30
0.0
 11
904.62481605104472
 21
-719.58476657145911
 31
0.0
1001
ACAD
1010
0.0
1020
0.0
1030
0.0
  0
LINE
  5
D687
  8
01
 10
891.90670956545625
 20
-708.21369850403244
 30
0.0
 11
892.87549712806458
 21
-709.18248606664019
 31
0.0
1001
ACAD
1010
0.0
1020
0.0
1030
0.0
  0
LINE
  5
D688
  8
01
 10
900.87542117476687
 20
-717.18241011334203
 30
0.0
 11
903.90671008999561
 21
-720.21369902857032
 31
0.0
1001
ACAD
1010
0.0
1020
0.0
1030
0.0
  0
LINE
  5
D689
  8
01
 10
890.5596710884156
 20
-708.21369844515152
 30
0.0
 11
892.87548433900565
 21
-710.52951169574158
 31
0.0
1001
ACAD
1010
0.0
1020
0.0
1030
0.0
  0
LINE
  5
D68A
  8
01
 10
900.87540838570612
 20
-718.52943574244159
 30
0.0
 11
902.55967161295484
 21
-720.2136989696894
 31
0.0
1001
ACAD
1010
0.0
1020
0.0
1030
0.0
  0
LINE
  5
D68B
  8
01
 10
889.21263261137426
 20
-708.21369838627095
 30
0.0
 11
892.87547154994672
 21
-711.87653732484284
 31
0.0
1001
ACAD
1010
0.0
1020
0.0
1030
0.0
  0
LINE
  5
D68C
  8
01
 10
900.87539559664629
 20
-719.8764613715415
 30
0.0
 11
901.21263313591317
 21
-720.21369891080838
 31
0.0
1001
ACAD
1010
0.0
1020
0.0
1030
0.0
  0
LINE
  5
D68D
  8
01
 10
889.12481649304755
 20
-709.47292068610432
 30
0.0
 11
892.8754587608878
 21
-713.22356295394411
 31
0.0
1001
ACAD
1010
0.0
1020
0.0
1030
0.0
  0
LINE
  5
D68E
  8
01
 10
889.12481643416663
 20
-710.81995904538417
 30
0.0
 11
892.87544597182864
 21
-714.57058858304515
 31
0.0
1001
ACAD
1010
0.0
1020
0.0
1030
0.0
  0
LINE
  5
D68F
  8
01
 10
889.12481637528572
 20
-712.16699740466311
 30
0.0
 11
892.87543318276948
 21
-715.91761421214676
 31
0.0
1001
ACAD
1010
0.0
1020
0.0
1030
0.0
  0
LINE
  5
D690
  8
01
 10
889.12481631640503
 20
-713.51403576394273
 30
0.0
 11
892.87542039371101
 21
-717.26463984124825
 31
0.0
1001
ACAD
1010
0.0
1020
0.0
1030
0.0
  0
LINE
  5
D691
  8
01
 10
889.12481625752389
 20
-714.8610741232219
 30
0.0
 11
892.87540760465163
 21
-718.61166547034907
 31
0.0
1001
ACAD
1010
0.0
1020
0.0
1030
0.0
  0
LINE
  5
D692
  8
01
 10
889.12481619864297
 20
-716.20811248250129
 30
0.0
 11
892.87539481559247
 21
-719.95869109945033
 31
0.0
1001
ACAD
1010
0.0
1020
0.0
1030
0.0
  0
LINE
  5
D693
  8
01
 10
889.12481613976206
 20
-717.55515084178114
 30
0.0
 11
891.78336379662267
 21
-720.21369849864141
 31
0.0
1001
ACAD
1010
0.0
1020
0.0
1030
0.0
  0
LINE
  5
D694
  8
01
 10
889.12481608088137
 20
-718.90218920105997
 30
0.0
 11
890.4363253195811
 21
-720.21369843975981
 31
0.0
1001
ACAD
1010
0.0
1020
0.0
1030
0.0
  0
LINE
  5
D695
  8
01
 10
1486.5489270597529
 20
-867.18251589237275
 30
0.0
 11
1487.301643502833
 21
-866.42979944929243
 31
0.0
1001
ACAD
1010
0.0
1020
0.0
1030
0.0
  0
LINE
  5
D696
  8
01
 10
1486.548910295423
 20
-868.5295710748627
 30
0.0
 11
1488.548935186227
 21
-866.52954618405886
 31
0.0
1001
ACAD
1010
0.0
1020
0.0
1030
0.0
  0
LINE
  5
D697
  8
01
 10
1486.548893531093
 20
-869.87662625735334
 30
0.0
 11
1489.1958149100069
 21
-867.22970487843952
 31
0.0
1001
ACAD
1010
0.0
1020
0.0
1030
0.0
  0
LINE
  5
D698
  8
01
 10
1486.5488767667639
 20
-871.22368143984329
 30
0.0
 11
1490.542836564254
 21
-867.22972164235239
 31
0.0
1001
ACAD
1010
0.0
1020
0.0
1030
0.0
  0
LINE
  5
D699
  8
01
 10
1486.548860002433
 20
-872.5707366223337
 30
0.0
 11
1491.889858218502
 21
-867.2297384062648
 31
0.0
1001
ACAD
1010
0.0
1020
0.0
1030
0.0
  0
LINE
  5
D69A
  8
01
 10
1487.7368301771851
 20
-872.72980486574215
 30
0.0
 11
1489.3488780852281
 21
-871.11775695769938
 31
0.0
1001
ACAD
1010
0.0
1020
0.0
1030
0.0
  0
LINE
  5
D69B
  8
01
 10
1490.2369172075621
 20
-870.22971783536559
 30
0.0
 11
1493.23687987275
 21
-867.22975517017755
 31
0.0
1001
ACAD
1010
0.0
1020
0.0
1030
0.0
  0
LINE
  5
D69C
  8
01
 10
1489.0838518314331
 20
-872.72982162965423
 30
0.0
 11
1489.3488613208981
 21
-872.46481214018945
 31
0.0
1001
ACAD
1010
0.0
1020
0.0
1030
0.0
  0
LINE
  5
D69D
  8
01
 10
1491.5839388618101
 20
-870.229734599278
 30
0.0
 11
1494.583901526998
 21
-867.22977193408997
 31
0.0
1001
ACAD
1010
0.0
1020
0.0
1030
0.0
  0
LINE
  5
D69E
  8
01
 10
1492.930960516057
 20
-870.2297513631911
 30
0.0
 11
1495.9309231812449
 21
-867.22978869800295
 31
0.0
1001
ACAD
1010
0.0
1020
0.0
1030
0.0
  0
LINE
  5
D69F
  8
01
 10
1494.277982170305
 20
-870.22976812710385
 30
0.0
 11
1497.2779448354929
 21
-867.22980546191548
 31
0.0
1001
ACAD
1010
0.0
1020
0.0
1030
0.0
  0
LINE
  5
D6A0
  8
01
 10
1495.6250038245521
 20
-870.22978489101661
 30
0.0
 11
1498.6249664897409
 21
-867.229822225828
 31
0.0
1001
ACAD
1010
0.0
1020
0.0
1030
0.0
  0
LINE
  5
D6A1
  8
01
 10
1496.9720254788001
 20
-870.22980165492936
 30
0.0
 11
1499.1483191455891
 21
-868.05350798814027
 31
0.0
1001
ACAD
1010
0.0
1020
0.0
1030
0.0
  0
LINE
  5
D6A2
  8
01
 10
1498.3190471330479
 20
-870.22981841884211
 30
0.0
 11
1499.1483887456591
 21
-869.40047680623036
 31
0.0
1001
ACAD
1010
0.0
1020
0.0
1030
0.0
  0
LINE
  5
D6A3
  8
01
 10
1486.548725887794
 20
-883.34717808225605
 30
0.0
 11
1487.1661062062899
 21
-882.72979776375985
 31
0.0
1001
ACAD
1010
0.0
1020
0.0
1030
0.0
  0
LINE
  5
D6A4
  8
01
 10
1486.5487091234641
 20
-884.69423326474646
 30
0.0
 11
1488.5131278605379
 21
-882.72981452767215
 31
0.0
1001
ACAD
1010
0.0
1020
0.0
1030
0.0
  0
LINE
  5
D6A5
  8
01
 10
1503.1483212754899
 20
-868.0946211127208
 30
0.0
 11
1504.0130531067321
 21
-867.22988928147879
 31
0.0
1001
ACAD
1010
0.0
1020
0.0
1030
0.0
  0
LINE
  5
D6A6
  8
01
 10
1486.5486923591341
 20
-886.04128844723709
 30
0.0
 11
1489.34872720626
 21
-883.24125360011146
 31
0.0
1001
ACAD
1010
0.0
1020
0.0
1030
0.0
  0
LINE
  5
D6A7
  8
01
 10
1503.1483908755599
 20
-869.44158993081078
 30
0.0
 11
1505.3600747609789
 21
-867.22990604539154
 31
0.0
1001
ACAD
1010
0.0
1020
0.0
1030
0.0
  0
LINE
  5
D6A8
  8
01
 10
1486.5486755948041
 20
-887.38834362972727
 30
0.0
 11
1489.3487104419301
 21
-884.58830878260164
 31
0.0
1001
ACAD
1010
0.0
1020
0.0
1030
0.0
  0
LINE
  5
D6A9
  8
01
 10
1503.707133750039
 20
-870.22988547449279
 30
0.0
 11
1506.7070964152269
 21
-867.22992280930453
 31
0.0
1001
ACAD
1010
0.0
1020
0.0
1030
0.0
  0
LINE
  5
D6AA
  8
01
 10
1486.5486588304741
 20
-888.73539881221768
 30
0.0
 11
1490.0560486726449
 21
-885.2280089700464
 31
0.0
1001
ACAD
1010
0.0
1020
0.0
1030
0.0
  0
LINE
  5
D6AB
  8
01
 10
1505.0541554042859
 20
-870.22990223840532
 30
0.0
 11
1508.054118069474
 21
-867.22993957321739
 31
0.0
1001
ACAD
1010
0.0
1020
0.0
1030
0.0
  0
LINE
  5
D6AC
  8
01
 10
1487.6012928806199
 20
-889.02980318023231
 30
0.0
 11
1491.4030703268929
 21
-885.22802573395904
 31
0.0
1001
ACAD
1010
0.0
1020
0.0
1030
0.0
  0
LINE
  5
D6AD
  8
01
 10
1506.4011770585339
 20
-870.22991900231841
 30
0.0
 11
1508.9750330973879
 21
-867.65606296346425
 31
0.0
1001
ACAD
1010
0.0
1020
0.0
1030
0.0
  0
LINE
  5
D6AE
  8
01
 10
1489.750129315951
 20
-888.22800516306097
 30
0.0
 11
1492.7500919811409
 21
-885.22804249787146
 31
0.0
1001
ACAD
1010
0.0
1020
0.0
1030
0.0
  0
LINE
  5
D6AF
  8
01
 10
1507.748198712781
 20
-870.22993576623082
 30
0.0
 11
1509.5489115460539
 21
-868.42922293295806
 31
0.0
1001
ACAD
1010
0.0
1020
0.0
1030
0.0
  0
LINE
  5
D6B0
  8
01
 10
1491.097150970199
 20
-888.22802192697316
 30
0.0
 11
1494.097113635388
 21
-885.22805926178444
 31
0.0
1001
ACAD
1010
0.0
1020
0.0
1030
0.0
  0
LINE
  5
D6B1
  8
01
 10
1509.095220367029
 20
-870.22995253014369
 30
0.0
 11
1509.548894781725
 21
-869.77627811544801
 31
0.0
1001
ACAD
1010
0.0
1020
0.0
1030
0.0
  0
LINE
  5
D6B2
  8
01
 10
1492.444172624447
 20
-888.2280386908858
 30
0.0
 11
1495.4441352896361
 21
-885.22807602569696
 31
0.0
1001
ACAD
1010
0.0
1020
0.0
1030
0.0
  0
LINE
  5
D6B3
  8
01
 10
1493.791194278695
 20
-888.22805545479855
 30
0.0
 11
1496.7911569438841
 21
-885.2280927896096
 31
0.0
1001
ACAD
1010
0.0
1020
0.0
1030
0.0
  0
LINE
  5
D6B4
  8
01
 10
1495.138215932943
 20
-888.22807221871108
 30
0.0
 11
1498.1381785981309
 21
-885.22810955352247
 31
0.0
1001
ACAD
1010
0.0
1020
0.0
1030
0.0
  0
LINE
  5
D6B5
  8
01
 10
1496.485237587191
 20
-888.22808898262349
 30
0.0
 11
1499.14868841462
 21
-885.5646381551943
 31
0.0
1001
ACAD
1010
0.0
1020
0.0
1030
0.0
  0
LINE
  5
D6B6
  8
01
 10
1497.8322592414379
 20
-888.22810574653624
 30
0.0
 11
1499.14868841462
 21
-886.91167657335495
 31
0.0
1001
ACAD
1010
0.0
1020
0.0
1030
0.0
  0
LINE
  5
D6B7
  8
01
 10
1503.1488190775081
 20
-885.60562274678784
 30
0.0
 11
1503.526265215123
 21
-885.22817660917258
 31
0.0
1001
ACAD
1010
0.0
1020
0.0
1030
0.0
  0
LINE
  5
D6B8
  8
01
 10
1503.1488190775069
 20
-886.95266116494827
 30
0.0
 11
1504.8732868693701
 21
-885.22819337308545
 31
0.0
1001
ACAD
1010
0.0
1020
0.0
1030
0.0
  0
LINE
  5
D6B9
  8
01
 10
1503.2203458584299
 20
-888.22817280218646
 30
0.0
 11
1506.2203085236181
 21
-885.22821013699809
 31
0.0
1001
ACAD
1010
0.0
1020
0.0
1030
0.0
  0
LINE
  5
D6BA
  8
01
 10
1504.5673675126779
 20
-888.22818956609865
 30
0.0
 11
1507.5673301778661
 21
-885.22822690091073
 31
0.0
1001
ACAD
1010
0.0
1020
0.0
1030
0.0
  0
LINE
  5
D6BB
  8
01
 10
1505.914389166925
 20
-888.22820633001152
 30
0.0
 11
1508.9143518321141
 21
-885.22824366482314
 31
0.0
1001
ACAD
1010
0.0
1020
0.0
1030
0.0
  0
LINE
  5
D6BC
  8
01
 10
1507.261410821174
 20
-888.2282230939237
 30
0.0
 11
1509.548693609765
 21
-885.94094030533245
 31
0.0
1001
ACAD
1010
0.0
1020
0.0
1030
0.0
  0
LINE
  5
D6BD
  8
01
 10
1473.823718296512
 20
-885.47840963889109
 30
0.0
 11
1473.548796475347
 21
-885.20348781772555
 31
0.0
1001
ACAD
1010
0.0
1020
0.0
1030
0.0
  0
LINE
  5
D6BE
  8
01
 10
1474.7217438301111
 20
-885.47840956038294
 30
0.0
 11
1473.548796436093
 21
-884.3054621663648
 31
0.0
1001
ACAD
1010
0.0
1020
0.0
1030
0.0
  0
LINE
  5
D6BF
  8
01
 10
1475.61976936371
 20
-885.47840948187536
 30
0.0
 11
1473.548796396839
 21
-883.40743651500395
 31
0.0
1001
ACAD
1010
0.0
1020
0.0
1030
0.0
  0
LINE
  5
D6C0
  8
01
 10
1476.5177948973101
 20
-885.47840940336732
 30
0.0
 11
1473.5487963575849
 21
-882.50941086364276
 31
0.0
1001
ACAD
1010
0.0
1020
0.0
1030
0.0
  0
LINE
  5
D6C1
  8
01
 10
1477.4158204309081
 20
-885.47840932485929
 30
0.0
 11
1473.6658197198999
 21
-881.72840861385123
 31
0.0
1001
ACAD
1010
0.0
1020
0.0
1030
0.0
  0
LINE
  5
D6C2
  8
01
 10
1478.313845964507
 20
-885.47840924635159
 30
0.0
 11
1474.5638453320071
 21
-881.72840861385123
 31
0.0
1001
ACAD
1010
0.0
1020
0.0
1030
0.0
  0
LINE
  5
D6C3
  8
01
 10
1479.211871498107
 20
-885.47840916784367
 30
0.0
 11
1475.461870944114
 21
-881.72840861385146
 31
0.0
1001
ACAD
1010
0.0
1020
0.0
1030
0.0
  0
LINE
  5
D6C4
  8
01
 10
1480.109897031705
 20
-885.47840908933551
 30
0.0
 11
1476.359896556221
 21
-881.72840861385123
 31
0.0
1001
ACAD
1010
0.0
1020
0.0
1030
0.0
  0
LINE
  5
D6C5
  8
01
 10
1481.0079225653051
 20
-885.47840901082805
 30
0.0
 11
1477.2579221683279
 21
-881.72840861385123
 31
0.0
1001
ACAD
1010
0.0
1020
0.0
1030
0.0
  0
LINE
  5
D6C6
  8
01
 10
1481.9059480989031
 20
-885.47840893231989
 30
0.0
 11
1478.1559477804351
 21
-881.72840861385134
 31
0.0
1001
ACAD
1010
0.0
1020
0.0
1030
0.0
  0
LINE
  5
D6C7
  8
01
 10
1482.8039736325029
 20
-885.47840885381243
 30
0.0
 11
1479.053973392542
 21
-881.72840861385134
 31
0.0
1001
ACAD
1010
0.0
1020
0.0
1030
0.0
  0
LINE
  5
D6C8
  8
01
 10
1483.7019991661009
 20
-885.47840877530439
 30
0.0
 11
1479.951999004649
 21
-881.72840861385146
 31
0.0
1001
ACAD
1010
0.0
1020
0.0
1030
0.0
  0
LINE
  5
D6C9
  8
01
 10
1484.600024699701
 20
-885.47840869679646
 30
0.0
 11
1480.8500246167559
 21
-881.72840861385134
 31
0.0
1001
ACAD
1010
0.0
1020
0.0
1030
0.0
  0
LINE
  5
D6CA
  8
01
 10
1485.4980502333001
 20
-885.47840861828865
 30
0.0
 11
1481.748050228862
 21
-881.72840861385134
 31
0.0
1001
ACAD
1010
0.0
1020
0.0
1030
0.0
  0
LINE
  5
D6CB
  8
01
 10
1473.748050228862
 20
-873.72840861385123
 30
0.0
 11
1473.548796102684
 21
-873.5291544876726
 31
0.0
1001
ACAD
1010
0.0
1020
0.0
1030
0.0
  0
LINE
  5
D6CC
  8
01
 10
1485.5487958098499
 20
-884.63112858273234
 30
0.0
 11
1482.6460758409701
 21
-881.72840861385134
 31
0.0
1001
ACAD
1010
0.0
1020
0.0
1030
0.0
  0
LINE
  5
D6CD
  8
01
 10
1474.6460758409689
 20
-873.728408613851
 30
0.0
 11
1473.5487961419381
 21
-872.6311289148199
 31
0.0
1001
ACAD
1010
0.0
1020
0.0
1030
0.0
  0
LINE
  5
D6CE
  8
01
 10
1485.5487958098499
 20
-883.73310297062551
 30
0.0
 11
1483.5441014530761
 21
-881.72840861385146
 31
0.0
1001
ACAD
1010
0.0
1020
0.0
1030
0.0
  0
LINE
  5
D6CF
  8
01
 10
1475.5441014530761
 20
-873.72840861385077
 30
0.0
 11
1473.5487961811921
 21
-871.73310334196685
 31
0.0
1001
ACAD
1010
0.0
1020
0.0
1030
0.0
  0
LINE
  5
D6D0
  8
01
 10
1485.5487958098511
 20
-882.83507735851902
 30
0.0
 11
1484.4421270651831
 21
-881.72840861385146
 31
0.0
1001
ACAD
1010
0.0
1020
0.0
1030
0.0
  0
LINE
  5
D6D1
  8
01
 10
1476.4421270651831
 20
-873.72840861385055
 30
0.0
 11
1473.5487962204461
 21
-870.83507776911415
 31
0.0
1001
ACAD
1010
0.0
1020
0.0
1030
0.0
  0
LINE
  5
D6D2
  8
01
 10
1485.5487958098499
 20
-881.93705174641184
 30
0.0
 11
1485.34015267729
 21
-881.72840861385168
 31
0.0
1001
ACAD
1010
0.0
1020
0.0
1030
0.0
  0
LINE
  5
D6D3
  8
01
 10
1477.3401526772891
 20
-873.728408613851
 30
0.0
 11
1473.5901537227501
 21
-869.9784096593113
 31
0.0
1001
ACAD
1010
0.0
1020
0.0
1030
0.0
  0
LINE
  5
D6D4
  8
01
 10
1478.238178289396
 20
-873.72840861385055
 30
0.0
 11
1474.488179256349
 21
-869.97840958080315
 31
0.0
1001
ACAD
1010
0.0
1020
0.0
1030
0.0
  0
LINE
  5
D6D5
  8
01
 10
1479.136203901503
 20
-873.72840861385077
 30
0.0
 11
1475.386204789947
 21
-869.97840950229499
 31
0.0
1001
ACAD
1010
0.0
1020
0.0
1030
0.0
  0
LINE
  5
D6D6
  8
01
 10
1480.0342295136099
 20
-873.72840861385055
 30
0.0
 11
1476.284230323547
 21
-869.97840942378696
 31
0.0
1001
ACAD
1010
0.0
1020
0.0
1030
0.0
  0
LINE
  5
D6D7
  8
01
 10
1480.9322551257169
 20
-873.72840861385055
 30
0.0
 11
1477.1822558571459
 21
-869.97840934527926
 31
0.0
1001
ACAD
1010
0.0
1020
0.0
1030
0.0
  0
LINE
  5
D6D8
  8
01
 10
1481.8302807378241
 20
-873.72840861385055
 30
0.0
 11
1478.0802813907439
 21
-869.97840926677122
 31
0.0
1001
ACAD
1010
0.0
1020
0.0
1030
0.0
  0
LINE
  5
D6D9
  8
01
 10
1482.728306349931
 20
-873.72840861385077
 30
0.0
 11
1478.9783069243431
 21
-869.97840918826319
 31
0.0
1001
ACAD
1010
0.0
1020
0.0
1030
0.0
  0
LINE
  5
D6DA
  8
01
 10
1483.626331962038
 20
-873.72840861385077
 30
0.0
 11
1479.8763324579429
 21
-869.97840910975526
 31
0.0
1001
ACAD
1010
0.0
1020
0.0
1030
0.0
  0
LINE
  5
D6DB
  8
01
 10
1484.5243575741449
 20
-873.72840861385055
 30
0.0
 11
1480.7743579915409
 21
-869.97840903124745
 31
0.0
1001
ACAD
1010
0.0
1020
0.0
1030
0.0
  0
LINE
  5
D6DC
  8
01
 10
1485.4223831862521
 20
-873.72840861385055
 30
0.0
 11
1481.67238352514
 21
-869.97840895273941
 31
0.0
1001
ACAD
1010
0.0
1020
0.0
1030
0.0
  0
LINE
  5
D6DD
  8
01
 10
1485.5487958098511
 20
-872.95679562534292
 30
0.0
 11
1482.570409058739
 21
-869.97840887423115
 31
0.0
1001
ACAD
1010
0.0
1020
0.0
1030
0.0
  0
LINE
  5
D6DE
  8
01
 10
1485.5487958098511
 20
-872.0587700132362
 30
0.0
 11
1483.4684345923381
 21
-869.97840879572345
 31
0.0
1001
ACAD
1010
0.0
1020
0.0
1030
0.0
  0
LINE
  5
D6DF
  8
01
 10
1485.5487958098499
 20
-871.16074440112902
 30
0.0
 11
1484.366460125937
 21
-869.97840871721564
 31
0.0
1001
ACAD
1010
0.0
1020
0.0
1030
0.0
  0
LINE
  5
D6E0
  8
01
 10
1485.5487958098511
 20
-870.2627187890223
 30
0.0
 11
1485.2644856595359
 21
-869.97840863870783
 31
0.0
1001
ACAD
1010
0.0
1020
0.0
1030
0.0
  0
LINE
  5
D6E1
  8
01
 10
908.69939164386562
 20
-720.51369969232655
 30
0.0
 11
909.3751671086751
 21
-721.18947515713614
 31
0.0
1001
ACAD
1010
0.0
1020
0.0
1030
0.0
  0
LINE
  5
D6E2
  8
01
 10
907.15450651558103
 20
-721.21387859430934
 30
0.0
 11
909.3751671086751
 21
-723.43453918740329
 31
0.0
1001
ACAD
1010
0.0
1020
0.0
1030
0.0
  0
LINE
  5
D6E3
  8
01
 10
904.90941454476479
 20
-721.21385065376012
 30
0.0
 11
909.37516710867556
 21
-725.67960321767123
 31
0.0
1001
ACAD
1010
0.0
1020
0.0
1030
0.0
  0
LINE
  5
D6E4
  8
01
 10
904.07516710867606
 20
-722.62466724793899
 30
0.0
 11
909.3751671086751
 21
-727.92466724793803
 31
0.0
1001
ACAD
1010
0.0
1020
0.0
1030
0.0
  0
LINE
  5
D6E5
  8
01
 10
903.41910504775433
 20
-724.21366921728429
 30
0.0
 11
909.37516710867624
 21
-730.1697312782062
 31
0.0
1001
ACAD
1010
0.0
1020
0.0
1030
0.0
  0
LINE
  5
D6E6
  8
01
 10
903.07516710867606
 20
-726.11479530847384
 30
0.0
 11
909.37516710867624
 21
-732.41479530847391
 31
0.0
1001
ACAD
1010
0.0
1020
0.0
1030
0.0
  0
LINE
  5
D6E7
  8
01
 10
903.07516710867685
 20
-728.35985933874144
 30
0.0
 11
909.37516710867669
 21
-734.65985933874117
 31
0.0
1001
ACAD
1010
0.0
1020
0.0
1030
0.0
  0
LINE
  5
D6E8
  8
01
 10
903.07516710867674
 20
-730.60492336900893
 30
0.0
 11
909.37516710867624
 21
-736.90492336900843
 31
0.0
1001
ACAD
1010
0.0
1020
0.0
1030
0.0
  0
LINE
  5
D6E9
  8
01
 10
903.07516710867696
 20
-732.84998739927607
 30
0.0
 11
909.37516710867669
 21
-739.14998739927591
 31
0.0
1001
ACAD
1010
0.0
1020
0.0
1030
0.0
  0
LINE
  5
D6EA
  8
01
 10
889.1938165688706
 20
-721.2137008897372
 30
0.0
 11
889.67516710867858
 21
-721.69505142954529
 31
0.0
1001
ACAD
1010
0.0
1020
0.0
1030
0.0
  0
LINE
  5
D6EB
  8
01
 10
903.07516710867742
 20
-735.0950514295439
 30
0.0
 11
909.37516710867715
 21
-741.39505142954386
 31
0.0
1001
ACAD
1010
0.0
1020
0.0
1030
0.0
  0
LINE
  5
D6EC
  8
01
 10
886.94875253860323
 20
-721.21370088973686
 30
0.0
 11
889.67516710867858
 21
-723.94011545981209
 31
0.0
1001
ACAD
1010
0.0
1020
0.0
1030
0.0
  0
LINE
  5
D6ED
  8
01
 10
903.07516710867753
 20
-737.34011545981105
 30
0.0
 11
909.3751671086776
 21
-743.64011545981134
 31
0.0
1001
ACAD
1010
0.0
1020
0.0
1030
0.0
  0
LINE
  5
D6EE
  8
01
 10
889.94871611443625
 20
-724.21366446556976
 30
0.0
 11
890.67516710867869
 21
-724.94011545981243
 31
0.0
1001
ACAD
1010
0.0
1020
0.0
1030
0.0
  0
LINE
  5
D6EF
  8
01
 10
884.37516710867487
 20
-720.88517949007633
 30
0.0
 11
890.67516710867835
 21
-727.18517949007969
 31
0.0
1001
ACAD
1010
0.0
1020
0.0
1030
0.0
  0
LINE
  5
D6F0
  8
01
 10
903.07516710867742
 20
-739.58517949007864
 30
0.0
 11
909.37516710867715
 21
-745.8851794900786
 31
0.0
1001
ACAD
1010
0.0
1020
0.0
1030
0.0
  0
LINE
  5
D6F1
  8
01
 10
884.37516710867578
 20
-723.13024352034404
 30
0.0
 11
890.67516710867858
 21
-729.43024352034672
 31
0.0
1001
ACAD
1010
0.0
1020
0.0
1030
0.0
  0
LINE
  5
D6F2
  8
01
 10
903.07516710867765
 20
-741.83024352034568
 30
0.0
 11
909.3751671086776
 21
-748.13024352034574
 31
0.0
1001
ACAD
1010
0.0
1020
0.0
1030
0.0
  0
LINE
  5
D6F3
  8
01
 10
884.37516710867556
 20
-725.37530755061152
 30
0.0
 11
890.67516710867835
 21
-731.67530755061421
 31
0.0
1001
ACAD
1010
0.0
1020
0.0
1030
0.0
  0
LINE
  5
D6F4
  8
01
 10
903.07516710867765
 20
-744.07530755061362
 30
0.0
 11
909.3751671086776
 21
-750.37530755061357
 31
0.0
1001
ACAD
1010
0.0
1020
0.0
1030
0.0
  0
LINE
  5
D6F5
  8
01
 10
884.37516710867578
 20
-727.62037158087901
 30
0.0
 11
890.67516710867778
 21
-733.9203715808809
 31
0.0
1001
ACAD
1010
0.0
1020
0.0
1030
0.0
  0
LINE
  5
D6F6
  8
01
 10
903.07516710867742
 20
-746.32037158088042
 30
0.0
 11
909.37516710867737
 21
-752.62037158088049
 31
0.0
1001
ACAD
1010
0.0
1020
0.0
1030
0.0
  0
LINE
  5
D6F7
  8
01
 10
884.37516710867624
 20
-729.86543561114638
 30
0.0
 11
890.67516710867858
 21
-736.16543561114895
 31
0.0
1001
ACAD
1010
0.0
1020
0.0
1030
0.0
  0
LINE
  5
D6F8
  8
01
 10
907.02481654809174
 20
-752.51508505056188
 30
0.0
 11
909.37516710867806
 21
-754.86543561114854
 31
0.0
1001
ACAD
1010
0.0
1020
0.0
1030
0.0
  0
LINE
  5
D6F9
  8
01
 10
903.07516710867787
 20
-748.56543561114825
 30
0.0
 11
904.97413715907248
 21
-750.46440566154286
 31
0.0
1001
ACAD
1010
0.0
1020
0.0
1030
0.0
  0
LINE
  5
D6FA
  8
01
 10
884.37516710867624
 20
-732.11049964141375
 30
0.0
 11
890.67516710867801
 21
-738.41049964141575
 31
0.0
1001
ACAD
1010
0.0
1020
0.0
1030
0.0
  0
LINE
  5
D6FB
  8
01
 10
907.37481654809176
 20
-755.11014908082927
 30
0.0
 11
909.37516710867828
 21
-757.11049964141603
 31
0.0
1001
ACAD
1010
0.0
1020
0.0
1030
0.0
  0
LINE
  5
D6FC
  8
01
 10
902.97839373977979
 20
-750.71372627251753
 30
0.0
 11
903.85160514393692
 21
-751.58693767667455
 31
0.0
1001
ACAD
1010
0.0
1020
0.0
1030
0.0
  0
LINE
  5
D6FD
  8
01
 10
884.37516710867646
 20
-734.35556367168135
 30
0.0
 11
890.67516710867869
 21
-740.65556367168369
 31
0.0
1001
ACAD
1010
0.0
1020
0.0
1030
0.0
  0
LINE
  5
D6FE
  8
01
 10
907.37481654809415
 20
-757.35521311109892
 30
0.0
 11
909.37516710867828
 21
-759.35556367168329
 31
0.0
1001
ACAD
1010
0.0
1020
0.0
1030
0.0
  0
LINE
  5
D6FF
  8
01
 10
900.97516710867797
 20
-750.95556367168297
 30
0.0
 11
903.72481654809258
 21
-753.70521311109735
 31
0.0
1001
ACAD
1010
0.0
1020
0.0
1030
0.0
  0
LINE
  5
D700
  8
01
 10
884.37516710867669
 20
-736.60062770194895
 30
0.0
 11
890.67516710867835
 21
-742.9006277019505
 31
0.0
1001
ACAD
1010
0.0
1020
0.0
1030
0.0
  0
LINE
  5
D701
  8
01
 10
907.37481654809369
 20
-759.60027714136595
 30
0.0
 11
909.37516710867828
 21
-761.60062770195054
 31
0.0
1001
ACAD
1010
0.0
1020
0.0
1030
0.0
  0
LINE
  5
D702
  8
01
 10
900.97516710867785
 20
-753.20062770194988
 30
0.0
 11
903.3748165480938
 21
-755.60027714136595
 31
0.0
1001
ACAD
1010
0.0
1020
0.0
1030
0.0
  0
LINE
  5
D703
  8
01
 10
884.37516710867715
 20
-738.84569173221644
 30
0.0
 11
890.67516710867858
 21
-745.14569173221798
 31
0.0
1001
ACAD
1010
0.0
1020
0.0
1030
0.0
  0
LINE
  5
D704
  8
01
 10
907.37481654809369
 20
-761.84534117163309
 30
0.0
 11
908.24320164896949
 21
-762.71372627250889
 31
0.0
1001
ACAD
1010
0.0
1020
0.0
1030
0.0
  0
LINE
  5
D705
  8
01
 10
900.97516710867785
 20
-755.44569173221726
 30
0.0
 11
903.3748165480938
 21
-757.84534117163309
 31
0.0
1001
ACAD
1010
0.0
1020
0.0
1030
0.0
  0
LINE
  5
D706
  8
01
 10
884.37516710867715
 20
-741.09075576248392
 30
0.0
 11
890.67516710867835
 21
-747.3907557624849
 31
0.0
1001
ACAD
1010
0.0
1020
0.0
1030
0.0
  0
LINE
  5
D707
  8
01
 10
900.97516710867728
 20
-757.69075576248395
 30
0.0
 11
903.37481654809358
 21
-760.09040520190024
 31
0.0
1001
ACAD
1010
0.0
1020
0.0
1030
0.0
  0
LINE
  5
D708
  8
01
 10
884.3751671086776
 20
-743.33581979275141
 30
0.0
 11
890.67516710867835
 21
-749.63581979275227
 31
0.0
1001
ACAD
1010
0.0
1020
0.0
1030
0.0
  0
LINE
  5
D709
  8
01
 10
900.97516710867728
 20
-759.93581979275132
 30
0.0
 11
903.3139450682703
 21
-762.27459775234433
 31
0.0
1001
ACAD
1010
0.0
1020
0.0
1030
0.0
  0
LINE
  5
D70A
  8
01
 10
891.75307358844486
 20
-750.7137262725189
 30
0.0
 11
892.77516710868076
 21
-751.73581979275468
 31
0.0
1001
ACAD
1010
0.0
1020
0.0
1030
0.0
  0
LINE
  5
D70B
  8
01
 10
884.3751671086776
 20
-745.58088382301889
 30
0.0
 11
892.77516710868019
 21
-753.98088382302137
 31
0.0
1001
ACAD
1010
0.0
1020
0.0
1030
0.0
  0
LINE
  5
D70C
  8
01
 10
900.97516710867762
 20
-762.18088382301858
 30
0.0
 11
901.50800955816749
 21
-762.71372627250855
 31
0.0
1001
ACAD
1010
0.0
1020
0.0
1030
0.0
  0
LINE
  5
D70D
  8
01
 10
884.37516710867828
 20
-747.82594785328683
 30
0.0
 11
892.77516710868088
 21
-756.22594785328943
 31
0.0
1001
ACAD
1010
0.0
1020
0.0
1030
0.0
  0
LINE
  5
D70E
  8
01
 10
884.37516710867806
 20
-750.07101188355421
 30
0.0
 11
892.77516710868065
 21
-758.47101188355657
 31
0.0
1001
ACAD
1010
0.0
1020
0.0
1030
0.0
  0
LINE
  5
D70F
  8
01
 10
884.37516710867874
 20
-752.31607591382158
 30
0.0
 11
892.77516710868076
 21
-760.71607591382372
 31
0.0
1001
ACAD
1010
0.0
1020
0.0
1030
0.0
  0
LINE
  5
D710
  8
01
 10
884.37516710867885
 20
-754.56113994408918
 30
0.0
 11
892.52775343709823
 21
-762.71372627250889
 31
0.0
1001
ACAD
1010
0.0
1020
0.0
1030
0.0
  0
LINE
  5
D711
  8
01
 10
884.37516710867919
 20
-756.80620397435666
 30
0.0
 11
890.28268940683131
 21
-762.71372627250889
 31
0.0
1001
ACAD
1010
0.0
1020
0.0
1030
0.0
  0
LINE
  5
D712
  8
01
 10
884.37516710867965
 20
-759.05126800462472
 30
0.0
 11
888.03762537656405
 21
-762.71372627250935
 31
0.0
1001
ACAD
1010
0.0
1020
0.0
1030
0.0
  0
LINE
  5
D713
  8
01
 10
884.37516710867919
 20
-761.29633203489175
 30
0.0
 11
885.79256134629691
 21
-762.71372627250935
 31
0.0
1001
ACAD
1010
0.0
1020
0.0
1030
0.0
  0
LINE
  5
D714
  8
01
 10
923.95864986084075
 20
-762.71372627250889
 30
0.0
 11
924.60562060783957
 21
-763.36069701950782
 31
0.0
1001
ACAD
1010
0.0
1020
0.0
1030
0.0
  0
LINE
  5
D715
  8
01
 10
921.71358583057327
 20
-762.71372627250912
 30
0.0
 11
923.32742862627276
 21
-764.32756906820873
 31
0.0
1001
ACAD
1010
0.0
1020
0.0
1030
0.0
  0
LINE
  5
D716
  8
01
 10
919.46852180030555
 20
-762.71372627250855
 30
0.0
 11
922.14726902618645
 21
-765.39247349838945
 31
0.0
1001
ACAD
1010
0.0
1020
0.0
1030
0.0
  0
LINE
  5
D717
  8
01
 10
917.22345777003875
 20
-762.71372627250912
 30
0.0
 11
921.12162436419464
 21
-766.61189286666513
 31
0.0
1001
ACAD
1010
0.0
1020
0.0
1030
0.0
  0
LINE
  5
D718
  8
01
 10
914.97839373977104
 20
-762.71372627250855
 30
0.0
 11
920.37076217372385
 21
-768.10609470646159
 31
0.0
1001
ACAD
1010
0.0
1020
0.0
1030
0.0
  0
LINE
  5
D719
  8
01
 10
912.73332970950378
 20
-762.71372627250855
 30
0.0
 11
920.29255699090231
 21
-770.2729535539072
 31
0.0
1001
ACAD
1010
0.0
1020
0.0
1030
0.0
  0
LINE
  5
D71A
  8
01
 10
910.48826567923663
 20
-762.71372627250855
 30
0.0
 11
923.68536028902395
 21
-775.91082088229609
 31
0.0
1001
ACAD
1010
0.0
1020
0.0
1030
0.0
  0
LINE
  5
D71B
  8
01
 10
908.24320164896949
 20
-762.71372627250889
 30
0.0
 11
925.73704228446866
 21
-780.20756690800818
 31
0.0
1001
ACAD
1010
0.0
1020
0.0
1030
0.0
  0
LINE
  5
D71C
  8
01
 10
907.47481654809417
 20
-764.19040520190083
 30
0.0
 11
925.36018339211728
 21
-782.07577204592394
 31
0.0
1001
ACAD
1010
0.0
1020
0.0
1030
0.0
  0
LINE
  5
D71D
  8
01
 10
907.4748165480936
 20
-766.43546923216763
 30
0.0
 11
924.46098877338056
 21
-783.42164145745448
 31
0.0
1001
ACAD
1010
0.0
1020
0.0
1030
0.0
  0
LINE
  5
D71E
  8
01
 10
901.50800955816749
 20
-762.71372627250855
 30
0.0
 11
903.27481654809139
 21
-764.48053326243257
 31
0.0
1001
ACAD
1010
0.0
1020
0.0
1030
0.0
  0
LINE
  5
D71F
  8
01
 10
907.47481654809292
 20
-768.6805332624341
 30
0.0
 11
923.31671790179553
 21
-784.52243461613671
 31
0.0
1001
ACAD
1010
0.0
1020
0.0
1030
0.0
  0
LINE
  5
D720
  8
01
 10
900.31905631829682
 20
-763.76983706290525
 30
0.0
 11
903.27481654809151
 21
-766.72559729270006
 31
0.0
1001
ACAD
1010
0.0
1020
0.0
1030
0.0
  0
LINE
  5
D721
  8
01
 10
906.26294552791217
 20
-769.71372627252072
 30
0.0
 11
921.26294552790137
 21
-784.7137262725098
 31
0.0
1001
ACAD
1010
0.0
1020
0.0
1030
0.0
  0
LINE
  5
D722
  8
01
 10
900.30016710868188
 20
-765.99601188355814
 30
0.0
 11
903.27481654809151
 21
-768.97066132296766
 31
0.0
1001
ACAD
1010
0.0
1020
0.0
1030
0.0
  0
LINE
  5
D723
  8
01
 10
904.01788149764479
 20
-769.71372627252072
 30
0.0
 11
919.01788149763365
 21
-784.7137262725098
 31
0.0
1001
ACAD
1010
0.0
1020
0.0
1030
0.0
  0
LINE
  5
D724
  8
01
 10
900.30016710868222
 20
-768.24107591382506
 30
0.0
 11
916.77281746736662
 21
-784.71372627250946
 31
0.0
1001
ACAD
1010
0.0
1020
0.0
1030
0.0
  0
LINE
  5
D725
  8
01
 10
900.30016710868222
 20
-770.48613994409288
 30
0.0
 11
914.52775343709925
 21
-784.71372627251003
 31
0.0
1001
ACAD
1010
0.0
1020
0.0
1030
0.0
  0
LINE
  5
D726
  8
01
 10
890.28268940683131
 20
-762.71372627250889
 30
0.0
 11
893.45016710868026
 21
-765.88120397435773
 31
0.0
1001
ACAD
1010
0.0
1020
0.0
1030
0.0
  0
LINE
  5
D727
  8
01
 10
900.30016710868222
 20
-772.73120397435969
 30
0.0
 11
912.28268940683233
 21
-784.7137262725098
 31
0.0
1001
ACAD
1010
0.0
1020
0.0
1030
0.0
  0
LINE
  5
D728
  8
01
 10
888.03762537656405
 20
-762.71372627250935
 30
0.0
 11
893.45016710867969
 21
-768.12626800462488
 31
0.0
1001
ACAD
1010
0.0
1020
0.0
1030
0.0
  0
LINE
  5
D729
  8
01
 10
900.30016710868188
 20
-774.97626800462717
 30
0.0
 11
910.03762537656451
 21
-784.7137262725098
 31
0.0
1001
ACAD
1010
0.0
1020
0.0
1030
0.0
  0
LINE
  5
D72A
  8
01
 10
885.79256134629622
 20
-762.71372627250855
 30
0.0
 11
893.45016710867969
 21
-770.37133203489225
 31
0.0
1001
ACAD
1010
0.0
1020
0.0
1030
0.0
  0
LINE
  5
D72B
  8
01
 10
899.79256136672893
 20
-776.71372629294137
 30
0.0
 11
907.79256134629725
 21
-784.7137262725098
 31
0.0
1001
ACAD
1010
0.0
1020
0.0
1030
0.0
  0
LINE
  5
D72C
  8
01
 10
883.54749731602953
 20
-762.71372627250912
 30
0.0
 11
893.45016710867969
 21
-772.61639606515951
 31
0.0
1001
ACAD
1010
0.0
1020
0.0
1030
0.0
  0
LINE
  5
D72D
  8
01
 10
900.1738311937238
 20
-779.34006015020339
 30
0.0
 11
905.5474973160301
 21
-784.7137262725098
 31
0.0
1001
ACAD
1010
0.0
1020
0.0
1030
0.0
  0
LINE
  5
D72E
  8
01
 10
897.54749733646281
 20
-776.7137262929424
 30
0.0
 11
900.04749733646463
 21
-779.21372629294433
 31
0.0
1001
ACAD
1010
0.0
1020
0.0
1030
0.0
  0
LINE
  5
D72F
  8
01
 10
881.30243328576171
 20
-762.71372627250855
 30
0.0
 11
893.45016710868015
 21
-774.86146009542699
 31
0.0
1001
ACAD
1010
0.0
1020
0.0
1030
0.0
  0
LINE
  5
D730
  8
01
 10
899.05129003693651
 20
-780.46258302368335
 30
0.0
 11
903.30243328576285
 21
-784.7137262725098
 31
0.0
1001
ACAD
1010
0.0
1020
0.0
1030
0.0
  0
LINE
  5
D731
  8
01
 10
895.30243330619624
 20
-776.71372629294308
 30
0.0
 11
897.80243330619658
 21
-779.21372629294365
 31
0.0
1001
ACAD
1010
0.0
1020
0.0
1030
0.0
  0
LINE
  5
D732
  8
01
 10
879.05736925549479
 20
-762.71372627250912
 30
0.0
 11
895.55736927592989
 21
-779.2137262929441
 31
0.0
1001
ACAD
1010
0.0
1020
0.0
1030
0.0
  0
LINE
  5
D733
  8
01
 10
897.92874888014956
 20
-781.58510589716388
 30
0.0
 11
901.05736925549536
 21
-784.71372627250946
 31
0.0
1001
ACAD
1010
0.0
1020
0.0
1030
0.0
  0
LINE
  5
D734
  8
01
 10
876.81230522522719
 20
-762.71372627250855
 30
0.0
 11
898.81230522522799
 21
-784.71372627250946
 31
0.0
1001
ACAD
1010
0.0
1020
0.0
1030
0.0
  0
LINE
  5
D735
  8
01
 10
874.56724119496016
 20
-762.71372627250889
 30
0.0
 11
896.56724119496096
 21
-784.7137262725098
 31
0.0
1001
ACAD
1010
0.0
1020
0.0
1030
0.0
  0
LINE
  5
D736
  8
01
 10
872.4277009711343
 20
-762.81925007895018
 30
0.0
 11
894.32217716469336
 21
-784.71372627250935
 31
0.0
1001
ACAD
1010
0.0
1020
0.0
1030
0.0
  0
LINE
  5
D737
  8
01
 10
871.87481654809062
 20
-764.51142968617364
 30
0.0
 11
892.07711313442655
 21
-784.7137262725098
 31
0.0
1001
ACAD
1010
0.0
1020
0.0
1030
0.0
  0
LINE
  5
D738
  8
01
 10
871.87481654809062
 20
-766.75649371644113
 30
0.0
 11
889.83204910415873
 21
-784.71372627250912
 31
0.0
1001
ACAD
1010
0.0
1020
0.0
1030
0.0
  0
LINE
  5
D739
  8
01
 10
871.87481654809142
 20
-769.00155774670895
 30
0.0
 11
887.58698507389204
 21
-784.7137262725098
 31
0.0
1001
ACAD
1010
0.0
1020
0.0
1030
0.0
  0
LINE
  5
D73A
  8
01
 10
871.87481654809153
 20
-771.24662177697701
 30
0.0
 11
885.34192104362432
 21
-784.7137262725098
 31
0.0
1001
ACAD
1010
0.0
1020
0.0
1030
0.0
  0
LINE
  5
D73B
  8
01
 10
871.87481654809221
 20
-773.49168580724449
 30
0.0
 11
883.09685701335718
 21
-784.71372627250946
 31
0.0
1001
ACAD
1010
0.0
1020
0.0
1030
0.0
  0
LINE
  5
D73C
  8
01
 10
871.87481654809221
 20
-775.73674983751209
 30
0.0
 11
880.85179298309004
 21
-784.71372627251003
 31
0.0
1001
ACAD
1010
0.0
1020
0.0
1030
0.0
  0
LINE
  5
D73D
  8
01
 10
871.87481654809301
 20
-777.98181386777958
 30
0.0
 11
878.60672895282289
 21
-784.7137262725098
 31
0.0
1001
ACAD
1010
0.0
1020
0.0
1030
0.0
  0
LINE
  5
D73E
  8
01
 10
871.87481654809301
 20
-780.22687789804706
 30
0.0
 11
876.36166492255518
 21
-784.7137262725098
 31
0.0
1001
ACAD
1010
0.0
1020
0.0
1030
0.0
  0
LINE
  5
D73F
  8
01
 10
871.87481654809255
 20
-782.47194192831444
 30
0.0
 11
874.11660089228792
 21
-784.7137262725098
 31
0.0
1001
ACAD
1010
0.0
1020
0.0
1030
0.0
  0
LINE
  5
D740
  8
01
 10
1530.0572283857789
 20
-888.72840861384975
 30
0.0
 11
1528.0488212028599
 21
-886.72000143093044
 31
0.0
1001
ACAD
1010
0.0
1020
0.0
1030
0.0
  0
LINE
  5
D741
  8
01
 10
1532.3022924160459
 20
-888.72840861384941
 30
0.0
 11
1528.048821202859
 21
-884.47493740066284
 31
0.0
1001
ACAD
1010
0.0
1020
0.0
1030
0.0
  0
LINE
  5
D742
  8
01
 10
1534.547356446313
 20
-888.72840861384975
 30
0.0
 11
1528.048821202859
 21
-882.22987337039535
 31
0.0
1001
ACAD
1010
0.0
1020
0.0
1030
0.0
  0
LINE
  5
D743
  8
01
 10
1536.79242047658
 20
-888.72840861384907
 30
0.0
 11
1529.7924708240571
 21
-881.72845896132549
 31
0.0
1001
ACAD
1010
0.0
1020
0.0
1030
0.0
  0
LINE
  5
D744
  8
01
 10
1539.037484506847
 20
-888.72840861384896
 30
0.0
 11
1532.0375348543239
 21
-881.72845896132526
 31
0.0
1001
ACAD
1010
0.0
1020
0.0
1030
0.0
  0
LINE
  5
D745
  8
01
 10
1541.2825485371141
 20
-888.7284086138485
 30
0.0
 11
1539.0488212028599
 21
-886.49468127959472
 31
0.0
1001
ACAD
1010
0.0
1020
0.0
1030
0.0
  0
LINE
  5
D746
  8
01
 10
1539.0488212028599
 20
-886.49468127959403
 30
0.0
 11
1534.2825988845909
 21
-881.72845896132549
 31
0.0
1001
ACAD
1010
0.0
1020
0.0
1030
0.0
  0
LINE
  5
D747
  8
01
 10
1543.5276125673811
 20
-888.72840861384839
 30
0.0
 11
1539.0488212028599
 21
-884.249617249327
 31
0.0
1001
ACAD
1010
0.0
1020
0.0
1030
0.0
  0
LINE
  5
D748
  8
01
 10
1539.0488212028599
 20
-884.249617249327
 30
0.0
 11
1536.527662914858
 21
-881.72845896132526
 31
0.0
1001
ACAD
1010
0.0
1020
0.0
1030
0.0
  0
LINE
  5
D749
  8
01
 10
1545.7726765976479
 20
-888.72840861384816
 30
0.0
 11
1539.0488212028599
 21
-882.00455321905974
 31
0.0
1001
ACAD
1010
0.0
1020
0.0
1030
0.0
  0
LINE
  5
D74A
  8
01
 10
1530.7726765976479
 20
-873.72840861384805
 30
0.0
 11
1528.0488212028581
 21
-871.00455321905815
 31
0.0
1001
ACAD
1010
0.0
1020
0.0
1030
0.0
  0
LINE
  5
D74B
  8
01
 10
1539.048821202859
 20
-882.00455321905918
 30
0.0
 11
1538.772726945125
 21
-881.72845896132492
 31
0.0
1001
ACAD
1010
0.0
1020
0.0
1030
0.0
  0
LINE
  5
D74C
  8
01
 10
1548.0177406279149
 20
-888.72840861384782
 30
0.0
 11
1540.442790975394
 21
-881.15345896132612
 31
0.0
1001
ACAD
1010
0.0
1020
0.0
1030
0.0
  0
LINE
  5
D74D
  8
01
 10
1533.0177406279149
 20
-873.72840861384805
 30
0.0
 11
1528.0488212028581
 21
-868.75948918879044
 31
0.0
1001
ACAD
1010
0.0
1020
0.0
1030
0.0
  0
LINE
  5
D74E
  8
01
 10
1549.8547784305381
 20
-888.32038238620305
 30
0.0
 11
1542.6878046581819
 21
-881.15340861384743
 31
0.0
1001
ACAD
1010
0.0
1020
0.0
1030
0.0
  0
LINE
  5
D74F
  8
01
 10
1535.2628046581831
 20
-873.72840861384759
 30
0.0
 11
1528.4568474305061
 21
-866.92245138617125
 31
0.0
1001
ACAD
1010
0.0
1020
0.0
1030
0.0
  0
LINE
  5
D750
  8
01
 10
1550.048821202862
 20
-886.26936112825956
 30
0.0
 11
1544.7408433818559
 21
-880.96138330725353
 31
0.0
1001
ACAD
1010
0.0
1020
0.0
1030
0.0
  0
LINE
  5
D751
  8
01
 10
1537.507868688449
 20
-873.72840861384725
 30
0.0
 11
1530.507868688451
 21
-866.72840861384941
 31
0.0
1001
ACAD
1010
0.0
1020
0.0
1030
0.0
  0
LINE
  5
D752
  8
01
 10
1550.048821202862
 20
-884.0242970979923
 30
0.0
 11
1545.863366255335
 21
-879.83884215046544
 31
0.0
1001
ACAD
1010
0.0
1020
0.0
1030
0.0
  0
LINE
  5
D753
  8
01
 10
1539.048821202859
 20
-873.02429709798992
 30
0.0
 11
1532.7529327187181
 21
-866.72840861384918
 31
0.0
1001
ACAD
1010
0.0
1020
0.0
1030
0.0
  0
LINE
  5
D754
  8
01
 10
1539.752932718716
 20
-873.72840861384714
 30
0.0
 11
1539.0488212028599
 21
-873.0242970979906
 31
0.0
1001
ACAD
1010
0.0
1020
0.0
1030
0.0
  0
LINE
  5
D755
  8
01
 10
1550.0488212028611
 20
-881.77923306772482
 30
0.0
 11
1546.9858891288141
 21
-878.71630099367712
 31
0.0
1001
ACAD
1010
0.0
1020
0.0
1030
0.0
  0
LINE
  5
D756
  8
01
 10
1539.048821202859
 20
-870.77923306772288
 30
0.0
 11
1534.997996748986
 21
-866.72840861384896
 31
0.0
1001
ACAD
1010
0.0
1020
0.0
1030
0.0
  0
LINE
  5
D757
  8
01
 10
1541.997996748983
 20
-873.72840861384691
 30
0.0
 11
1539.048821202859
 21
-870.77923306772288
 31
0.0
1001
ACAD
1010
0.0
1020
0.0
1030
0.0
  0
LINE
  5
D758
  8
01
 10
1550.0488212028611
 20
-879.53416903745745
 30
0.0
 11
1548.243060779256
 21
-877.72840861385293
 31
0.0
1001
ACAD
1010
0.0
1020
0.0
1030
0.0
  0
LINE
  5
D759
  8
01
 10
1539.048821202859
 20
-868.53416903745551
 30
0.0
 11
1537.2430607792519
 21
-866.72840861384827
 31
0.0
1001
ACAD
1010
0.0
1020
0.0
1030
0.0
  0
LINE
  5
D75A
  8
01
 10
1548.243060779256
 20
-877.72840861385293
 30
0.0
 11
1539.048821202859
 21
-868.53416903745551
 31
0.0
1001
ACAD
1010
0.0
1020
0.0
1030
0.0
  0
LINE
  5
D75B
  8
01
 10
1550.0488212028611
 20
-877.28910500718985
 30
0.0
 11
1539.4881248095189
 21
-866.72840861384793
 31
0.0
1001
ACAD
1010
0.0
1020
0.0
1030
0.0
  0
LINE
  5
D75C
  8
01
 10
1550.0488212028611
 20
-875.0440409769227
 30
0.0
 11
1541.733188839786
 21
-866.72840861384782
 31
0.0
1001
ACAD
1010
0.0
1020
0.0
1030
0.0
  0
LINE
  5
D75D
  8
01
 10
1550.0488212028611
 20
-872.79897694665533
 30
0.0
 11
1543.978252870053
 21
-866.72840861384725
 31
0.0
1001
ACAD
1010
0.0
1020
0.0
1030
0.0
  0
LINE
  5
D75E
  8
01
 10
1550.0488212028611
 20
-870.55391291638784
 30
0.0
 11
1546.22331690032
 21
-866.72840861384668
 31
0.0
1001
ACAD
1010
0.0
1020
0.0
1030
0.0
  0
LINE
  5
D75F
  8
01
 10
1550.0488212028611
 20
-868.30884888612013
 30
0.0
 11
1548.468380930587
 21
-866.72840861384645
 31
0.0
1001
ACAD
1010
0.0
1020
0.0
1030
0.0
  0
LINE
  5
D760
  8
01
 10
1499.14868841462
 20
-882.37916341199059
 30
0.0
 11
1499.14868841462
 21
-888.72916323791674
 31
0.0
  0
LINE
  5
D761
  8
01
 10
1499.14868841462
 20
-888.72916323791674
 30
0.0
 11
1498.14868841462
 21
-889.72916331199065
 31
0.0
  0
LINE
  5
D762
  8
01
 10
1499.14868841462
 20
-882.37916341199059
 30
0.0
 11
1499.4986884146199
 21
-882.02916341199068
 31
0.0
  0
LINE
  5
D763
  8
01
 10
1498.14868841462
 20
-889.72916331199065
 30
0.0
 11
1498.14868841462
 21
-890.02916341199068
 31
0.0
  0
LINE
  5
D764
  8
01
 10
1499.4986884146199
 20
-882.02916341199068
 30
0.0
 11
1502.7986884146201
 21
-882.02916341199068
 31
0.0
  0
LINE
  5
D765
  8
01
 10
1498.14868841462
 20
-890.02916341199068
 30
0.0
 11
1504.14868841462
 21
-890.02916341199068
 31
0.0
  0
LINE
  5
D766
  8
01
 10
1502.7986884146201
 20
-882.02916341199068
 30
0.0
 11
1503.14868841462
 21
-882.37916341199059
 31
0.0
  0
LINE
  5
D767
  8
01
 10
1504.14868841462
 20
-889.72916340199072
 30
0.0
 11
1504.14868841462
 21
-890.02916341199068
 31
0.0
  0
LINE
  5
D768
  8
01
 10
1503.14868841462
 20
-882.37916341199059
 30
0.0
 11
1503.14868841462
 21
-888.72916323791674
 31
0.0
  0
LINE
  5
D769
  8
01
 10
1503.14868841462
 20
-888.72916323791674
 30
0.0
 11
1504.14868841462
 21
-889.72916340199072
 31
0.0
  0
TEXT
  5
D76A
  8
01
 10
1111.874816548094
 20
-941.9686042166627
 30
0.0
 40
7.0
  1
500
  0
LINE
  5
D76B
  8
01
  6
BYBLOCK
 10
1367.874816548094
 20
-942.29680745666269
 30
0.0
 11
1371.874816548094
 21
-943.36860421666267
 31
0.0
  0
LINE
  5
D76C
  8
01
  6
BYBLOCK
 10
1371.874816548094
 20
-943.36860421666267
 30
0.0
 11
1367.874816548094
 21
-944.44040097666266
 31
0.0
  0
LINE
  5
D76D
  8
01
  6
BYBLOCK
 10
1371.874816548094
 20
-943.36860421666267
 30
0.0
 11
1367.874816548094
 21
-943.36860421666267
 31
0.0
  0
LINE
  5
D76E
  8
01
  6
BYBLOCK
 10
875.8748165480938
 20
-944.44040097666266
 30
0.0
 11
871.8748165480938
 21
-943.36860421666267
 31
0.0
  0
LINE
  5
D76F
  8
01
  6
BYBLOCK
 10
871.8748165480938
 20
-943.36860421666267
 30
0.0
 11
875.8748165480938
 21
-942.29680745666269
 31
0.0
  0
LINE
  5
D770
  8
01
  6
BYBLOCK
 10
871.8748165480938
 20
-943.36860421666267
 30
0.0
 11
875.8748165480938
 21
-943.36860421666267
 31
0.0
  0
TEXT
  5
D771
  8
01
 10
1108.2081498814259
 20
-927.88581051980748
 30
0.0
 40
7.0
  1
P450
  0
LINE
  5
D772
  8
01
  6
BYBLOCK
 10
1342.8748165480899
 20
-928.21401375980747
 30
0.0
 11
1346.8748165480899
 21
-929.28581051980746
 31
0.0
  0
LINE
  5
D773
  8
01
  6
BYBLOCK
 10
1346.8748165480899
 20
-929.28581051980746
 30
0.0
 11
1342.8748165480899
 21
-930.35760727980744
 31
0.0
  0
LINE
  5
D774
  8
01
  6
BYBLOCK
 10
1346.8748165480899
 20
-929.28581051980746
 30
0.0
 11
1342.8748165480899
 21
-929.28581051980746
 31
0.0
  0
LINE
  5
D775
  8
01
  6
BYBLOCK
 10
900.87481654809585
 20
-930.35760727980744
 30
0.0
 11
896.87481654809596
 21
-929.28581051980746
 31
0.0
  0
LINE
  5
D776
  8
01
  6
BYBLOCK
 10
896.87481654809596
 20
-929.28581051980746
 30
0.0
 11
900.87481654809585
 21
-928.21401375980747
 31
0.0
  0
LINE
  5
D777
  8
01
  6
BYBLOCK
 10
896.87481654809596
 20
-929.28581051980746
 30
0.0
 11
900.87481654809585
 21
-929.28581051980746
 31
0.0
  0
TEXT
  5
D778
  8
01
 10
1429.465448870234
 20
-941.9686042166627
 30
0.0
 40
7.0
  1
64.5
  0
LINE
  5
D779
  8
01
  6
BYBLOCK
 10
1413.048768597288
 20
-944.44040097666266
 30
0.0
 11
1409.048768597288
 21
-943.36860421666267
 31
0.0
  0
LINE
  5
D77A
  8
01
  6
BYBLOCK
 10
1409.048768597288
 20
-943.36860421666267
 30
0.0
 11
1413.048768597288
 21
-942.29680745666269
 31
0.0
  0
LINE
  5
D77B
  8
01
  6
BYBLOCK
 10
1409.048768597288
 20
-943.36860421666267
 30
0.0
 11
1413.048768597288
 21
-943.36860421666267
 31
0.0
  0
LINE
  5
D77C
  8
01
  6
BYBLOCK
 10
1469.5487958098479
 20
-942.29680745666269
 30
0.0
 11
1473.5487958098479
 21
-943.36860421666267
 31
0.0
  0
LINE
  5
D77D
  8
01
  6
BYBLOCK
 10
1473.5487958098479
 20
-943.36860421666267
 30
0.0
 11
1469.5487958098479
 21
-944.44040097666266
 31
0.0
  0
LINE
  5
D77E
  8
01
  6
BYBLOCK
 10
1473.5487958098479
 20
-943.36860421666267
 30
0.0
 11
1469.5487958098479
 21
-943.36860421666267
 31
0.0
  0
TEXT
  5
D77F
  8
01
 10
1505.965475173022
 20
-941.9686042166627
 30
0.0
 40
7.0
  1
64.5
  0
LINE
  5
D780
  8
01
  6
BYBLOCK
 10
1546.048821202862
 20
-942.29680745666269
 30
0.0
 11
1550.048821202862
 21
-943.36860421666267
 31
0.0
  0
LINE
  5
D781
  8
01
  6
BYBLOCK
 10
1550.048821202862
 20
-943.36860421666267
 30
0.0
 11
1546.048821202862
 21
-944.44040097666266
 31
0.0
  0
LINE
  5
D782
  8
01
  6
BYBLOCK
 10
1550.048821202862
 20
-943.36860421666267
 30
0.0
 11
1546.048821202862
 21
-943.36860421666267
 31
0.0
  0
LINE
  5
D783
  8
01
  6
BYBLOCK
 10
1489.5487958098479
 20
-944.44040097666266
 30
0.0
 11
1485.5487958098479
 21
-943.36860421666267
 31
0.0
  0
LINE
  5
D784
  8
01
  6
BYBLOCK
 10
1485.5487958098479
 20
-943.36860421666267
 30
0.0
 11
1489.5487958098479
 21
-942.29680745666269
 31
0.0
  0
LINE
  5
D785
  8
01
  6
BYBLOCK
 10
1485.5487958098479
 20
-943.36860421666267
 30
0.0
 11
1489.5487958098479
 21
-943.36860421666267
 31
0.0
  0
TEXT
  5
D786
  8
01
 10
1567.971184968053
 20
-884.39583004123165
 30
0.0
 40
7.0
  1
25
 50
90.0
  0
LINE
  5
D787
  8
01
  6
BYBLOCK
 10
1570.4429817280529
 20
-886.22916337456411
 30
0.0
 11
1569.3711849680531
 21
-890.22916337456422
 31
0.0
  0
LINE
  5
D788
  8
01
  6
BYBLOCK
 10
1569.3711849680531
 20
-890.22916337456422
 30
0.0
 11
1568.299388208053
 21
-886.22916337456411
 31
0.0
  0
LINE
  5
D789
  8
01
  6
BYBLOCK
 10
1569.3711849680531
 20
-890.22916337456422
 30
0.0
 11
1569.3711849680531
 21
-886.22916337456411
 31
0.0
  0
LINE
  5
D78A
  8
01
  6
BYBLOCK
 10
1568.299388208053
 20
-869.22916337456616
 30
0.0
 11
1569.3711849680531
 21
-865.22916337456604
 31
0.0
  0
LINE
  5
D78B
  8
01
  6
BYBLOCK
 10
1569.3711849680531
 20
-865.22916337456604
 30
0.0
 11
1570.4429817280529
 21
-869.22916337456616
 31
0.0
  0
LINE
  5
D78C
  8
01
  6
BYBLOCK
 10
1569.3711849680531
 20
-865.22916337456604
 30
0.0
 11
1569.3711849680531
 21
-869.22916337456616
 31
0.0
  0
TEXT
  5
D78D
  8
01
 10
1392.5728247672521
 20
-884.39507528051831
 30
0.0
 40
7.0
  1
22
 50
90.0
  0
LINE
  5
D78E
  8
01
  6
BYBLOCK
 10
1395.044621527252
 20
-884.72840861385225
 30
0.0
 11
1393.972824767252
 21
-888.72840861385225
 31
0.0
  0
LINE
  5
D78F
  8
01
  6
BYBLOCK
 10
1393.972824767252
 20
-888.72840861385225
 30
0.0
 11
1392.9010280072521
 21
-884.72840861385225
 31
0.0
  0
LINE
  5
D790
  8
01
  6
BYBLOCK
 10
1393.972824767252
 20
-888.72840861385225
 30
0.0
 11
1393.972824767252
 21
-884.72840861385225
 31
0.0
  0
LINE
  5
D791
  8
01
  6
BYBLOCK
 10
1392.9010280072521
 20
-870.72840861385123
 30
0.0
 11
1393.972824767252
 21
-866.72840861385134
 31
0.0
  0
LINE
  5
D792
  8
01
  6
BYBLOCK
 10
1393.972824767252
 20
-866.72840861385134
 30
0.0
 11
1395.044621527252
 21
-870.72840861385123
 31
0.0
  0
LINE
  5
D793
  8
01
  6
BYBLOCK
 10
1393.972824767252
 20
-866.72840861385134
 30
0.0
 11
1393.972824767252
 21
-870.72840861385123
 31
0.0
  0
TEXT
  5
D794
  8
01
 10
1340.207799320837
 20
-622.27331858142554
 30
0.0
 40
7.0
  1
25
  0
LINE
  5
D795
  8
01
  6
BYBLOCK
 10
1355.374465987504
 20
-622.60152182142554
 30
0.0
 11
1359.3744659875031
 21
-623.67331858142552
 31
0.0
  0
LINE
  5
D796
  8
01
  6
BYBLOCK
 10
1359.3744659875031
 20
-623.67331858142552
 30
0.0
 11
1355.374465987504
 21
-624.7451153414255
 31
0.0
  0
LINE
  5
D797
  8
01
  6
BYBLOCK
 10
1359.3744659875031
 20
-623.67331858142552
 30
0.0
 11
1355.374465987504
 21
-623.67331858142552
 31
0.0
  0
LINE
  5
D798
  8
01
  6
BYBLOCK
 10
1338.374465987504
 20
-624.7451153414255
 30
0.0
 11
1334.374465987504
 21
-623.67331858142552
 31
0.0
  0
LINE
  5
D799
  8
01
  6
BYBLOCK
 10
1334.374465987504
 20
-623.67331858142552
 30
0.0
 11
1338.374465987504
 21
-622.60152182142554
 31
0.0
  0
LINE
  5
D79A
  8
01
  6
BYBLOCK
 10
1334.374465987504
 20
-623.67331858142552
 30
0.0
 11
1338.374465987504
 21
-623.67331858142552
 31
0.0
  0
TEXT
  5
D79B
  8
01
 10
1413.382101930622
 20
-927.88581051980748
 30
0.0
 40
7.0
  1
22
  0
LINE
  5
D79C
  8
01
  6
BYBLOCK
 10
1413.048768597288
 20
-930.35760727980744
 30
0.0
 11
1409.048768597288
 21
-929.28581051980746
 31
0.0
  0
LINE
  5
D79D
  8
01
  6
BYBLOCK
 10
1409.048768597288
 20
-929.28581051980746
 30
0.0
 11
1413.048768597288
 21
-928.21401375980747
 31
0.0
  0
LINE
  5
D79E
  8
01
  6
BYBLOCK
 10
1409.048768597288
 20
-929.28581051980746
 30
0.0
 11
1413.048768597288
 21
-929.28581051980746
 31
0.0
  0
LINE
  5
D79F
  8
01
  6
BYBLOCK
 10
1427.0487685972901
 20
-928.21401375980747
 30
0.0
 11
1431.0487685972901
 21
-929.28581051980746
 31
0.0
  0
LINE
  5
D7A0
  8
01
  6
BYBLOCK
 10
1431.0487685972901
 20
-929.28581051980746
 30
0.0
 11
1427.0487685972901
 21
-930.35760727980744
 31
0.0
  0
LINE
  5
D7A1
  8
01
  6
BYBLOCK
 10
1431.0487685972901
 20
-929.28581051980746
 30
0.0
 11
1427.0487685972901
 21
-929.28581051980746
 31
0.0
  0
TEXT
  5
D7A2
  8
01
 10
1390.5728247672521
 20
-753.13038024778245
 30
0.0
 40
7.0
  1
42.5
 50
90.0
  0
LINE
  5
D7A3
  8
01
  6
BYBLOCK
 10
1393.044621527252
 20
-758.71372627250889
 30
0.0
 11
1391.972824767252
 21
-762.71372627250889
 31
0.0
  0
LINE
  5
D7A4
  8
01
  6
BYBLOCK
 10
1391.972824767252
 20
-762.71372627250889
 30
0.0
 11
1390.9010280072521
 21
-758.71372627250889
 31
0.0
  0
LINE
  5
D7A5
  8
01
  6
BYBLOCK
 10
1391.972824767252
 20
-762.71372627250889
 30
0.0
 11
1391.972824767252
 21
-758.71372627250889
 31
0.0
  0
LINE
  5
D7A6
  8
01
  6
BYBLOCK
 10
1390.9010280072521
 20
-724.21370088972344
 30
0.0
 11
1391.972824767252
 21
-720.21370088972344
 31
0.0
  0
LINE
  5
D7A7
  8
01
  6
BYBLOCK
 10
1391.972824767252
 20
-720.21370088972344
 30
0.0
 11
1393.044621527252
 21
-724.21370088972344
 31
0.0
  0
LINE
  5
D7A8
  8
01
  6
BYBLOCK
 10
1391.972824767252
 20
-720.21370088972344
 30
0.0
 11
1391.972824767252
 21
-724.21370088972344
 31
0.0
  0
LINE
  5
D7A9
  8
01
 10
1387.7945007823539
 20
-721.54643427026951
 30
0.0
 11
1410.7865643723051
 21
-762.68012645964666
 31
0.0
1001
ACAD
1000
DSTYLE
1002
{
1070
    40
1040
2.0
1002
}
  0
LINE
  5
D7AA
  8
01
 10
1410.7865643723051
 20
-762.68012645964666
 30
0.0
 11
1416.1865643723049
 21
-762.68012645964666
 31
0.0
1001
ACAD
1000
DSTYLE
1002
{
1070
    40
1040
2.0
1002
}
  0
LINE
  5
D7AB
  8
01
  6
BYBLOCK
 10
1386.8589369194619
 20
-722.06937647854579
 30
0.0
 11
1385.842853873937
 21
-718.05486236855165
 31
0.0
  0
LINE
  5
D7AC
  8
01
  6
BYBLOCK
 10
1385.842853873937
 20
-718.05486236855165
 30
0.0
 11
1388.7300646452461
 21
-721.02349206199312
 31
0.0
  0
LINE
  5
D7AD
  8
01
  6
BYBLOCK
 10
1385.842853873937
 20
-718.05486236855165
 30
0.0
 11
1387.7945007823539
 21
-721.54643427026951
 31
0.0
  0
TEXT
  5
D7AE
  8
01
 10
1384.378298266136
 20
-677.79035376102513
 30
0.0
 40
7.0
  1
ガラス扉穴加工:\U+03C616
  0
LINE
  5
D7AF
  8
01
  6
BYBLOCK
 10
1374.9782982661361
 20
-678.11855700102512
 30
0.0
 11
1378.9782982661361
 21
-679.19035376102511
 31
0.0
  0
LINE
  5
D7B0
  8
01
  6
BYBLOCK
 10
1378.9782982661361
 20
-679.19035376102511
 30
0.0
 11
1374.9782982661361
 21
-680.26215052102498
 31
0.0
  0
LINE
  5
D7B1
  8
01
  6
BYBLOCK
 10
1378.9782982661361
 20
-679.19035376102511
 30
0.0
 11
1374.9782982661361
 21
-679.19035376102511
 31
0.0
  0
LINE
  5
D7B2
  8
01
  6
BYBLOCK
 10
1367.4782976976251
 20
-680.26215052102498
 30
0.0
 11
1363.4782976976251
 21
-679.19035376102511
 31
0.0
  0
LINE
  5
D7B3
  8
01
  6
BYBLOCK
 10
1363.4782976976251
 20
-679.19035376102511
 30
0.0
 11
1367.4782976976251
 21
-678.11855700102512
 31
0.0
  0
LINE
  5
D7B4
  8
01
  6
BYBLOCK
 10
1363.4782976976251
 20
-679.19035376102511
 30
0.0
 11
1367.4782976976251
 21
-679.19035376102511
 31
0.0
  0
LINE
  5
D7B5
  8
01
 10
1339.745969387998
 20
-712.54221608609964
 30
0.0
 11
1313.7286819926501
 21
-691.22057188622171
 31
0.0
1001
ACAD
1000
DSTYLE
1002
{
1070
    40
1040
2.0
1002
}
  0
LINE
  5
D7B6
  8
01
 10
1313.7286819926501
 20
-691.22057188622171
 30
0.0
 11
1308.32868199265
 21
-691.22057188622171
 31
0.0
1001
ACAD
1000
DSTYLE
1002
{
1070
    40
1040
2.0
1002
}
  0
LINE
  5
D7B7
  8
01
  6
BYBLOCK
 10
1340.425335057369
 20
-711.71323443248684
 30
0.0
 11
1342.839771065894
 21
-715.07764330411419
 31
0.0
  0
LINE
  5
D7B8
  8
01
  6
BYBLOCK
 10
1342.839771065894
 20
-715.07764330411419
 30
0.0
 11
1339.066603718627
 21
-713.37119773971244
 31
0.0
  0
LINE
  5
D7B9
  8
01
  6
BYBLOCK
 10
1342.839771065894
 20
-715.07764330411419
 30
0.0
 11
1339.745969387998
 21
-712.54221608609964
 31
0.0
  0
LINE
  5
D7BA
  8
01
 10
907.18308704429899
 20
-717.79719454014025
 30
0.0
 11
994.4798807920331
 21
-606.08439236498452
 31
0.0
1001
ACAD
1000
DSTYLE
1002
{
1070
    40
1040
2.0
1002
}
  0
LINE
  5
D7BB
  8
01
 10
994.4798807920331
 20
-606.08439236498452
 30
0.0
 11
999.87988079203319
 21
-606.08439236498452
 31
0.0
1001
ACAD
1000
DSTYLE
1002
{
1070
    40
1040
2.0
1002
}
  0
LINE
  5
D7BC
  8
01
  6
BYBLOCK
 10
908.0276113773557
 20
-718.45713919359366
 30
0.0
 11
904.72014004508105
 21
-720.94900228793244
 31
0.0
  0
LINE
  5
D7BD
  8
01
  6
BYBLOCK
 10
904.72014004508105
 20
-720.94900228793244
 30
0.0
 11
906.33856271124239
 21
-717.13724988668685
 31
0.0
  0
LINE
  5
D7BE
  8
01
  6
BYBLOCK
 10
904.72014004508105
 20
-720.94900228793244
 30
0.0
 11
907.18308704429899
 21
-717.79719454014025
 31
0.0
  0
LINE
  5
D7BF
  8
01
 10
1153.3554606101929
 20
-653.91572141557992
 30
0.0
 11
1199.682615414918
 21
-587.19031180926163
 31
0.0
1001
ACAD
1000
DSTYLE
1002
{
1070
    40
1040
2.0
1002
}
  0
LINE
  5
D7C0
  8
01
 10
1199.682615414918
 20
-587.19031180926163
 30
0.0
 11
1205.0826154149181
 21
-587.19031180926163
 31
0.0
1001
ACAD
1000
DSTYLE
1002
{
1070
    40
1040
2.0
1002
}
  0
LINE
  5
D7C1
  8
01
  6
BYBLOCK
 10
1154.2358636897941
 20
-654.52698135388346
 30
0.0
 11
1151.0742074431139
 21
-657.20143046960345
 31
0.0
  0
LINE
  5
D7C2
  8
01
  6
BYBLOCK
 10
1151.0742074431139
 20
-657.20143046960345
 30
0.0
 11
1152.4750575305909
 21
-653.30446147727605
 31
0.0
  0
LINE
  5
D7C3
  8
01
  6
BYBLOCK
 10
1151.0742074431139
 20
-657.20143046960345
 30
0.0
 11
1153.3554606101929
 21
-653.91572141557992
 31
0.0
  0
LINE
  5
D7C4
  8
01
 10
1144.4134998418499
 20
-781.33000461522875
 30
0.0
 11
1190.5332026238859
 21
-839.36188769417311
 31
0.0
1001
ACAD
1000
DSTYLE
1002
{
1070
    40
1040
2.0
1002
}
  0
LINE
  5
D7C5
  8
01
 10
1190.5332026238859
 20
-839.36188769417311
 30
0.0
 11
1195.933202623886
 21
-839.36188769417311
 31
0.0
1001
ACAD
1000
DSTYLE
1002
{
1070
    40
1040
2.0
1002
}
  0
LINE
  5
D7C6
  8
01
  6
BYBLOCK
 10
1143.57441463332
 20
-781.99685115497596
 30
0.0
 11
1141.924794652082
 21
-778.19849595670303
 31
0.0
  0
LINE
  5
D7C7
  8
01
  6
BYBLOCK
 10
1141.924794652082
 20
-778.19849595670303
 30
0.0
 11
1145.25258505038
 21
-780.66315807548165
 31
0.0
  0
LINE
  5
D7C8
  8
01
  6
BYBLOCK
 10
1141.924794652082
 20
-778.19849595670303
 30
0.0
 11
1144.4134998418499
 21
-781.33000461522875
 31
0.0
  0
VIEWPORT
  5
2FC
 67
     1
  8
0
 10
19.453226388050489
 20
9.2202950625139692
 30
0.0
 40
588.97023991017363
 41
270.5270085011137
 68
     1
 69
     1
1001
ACAD
1000
MVIEW
1002
{
1070
    16
1010
0.0
1020
0.0
1030
0.0
1010
0.0
1020
0.0
1030
1.0
1040
0.0
1040
270.5270085011137
1040
19.453226388050489
1040
9.2202950625139692
1040
50.0
1040
0.0
1040
0.0
1070
     0
1070
   100
1070
     1
1070
     1
1070
     0
1070
     0
1070
     0
1070
     0
1040
0.0
1040
0.0
1040
0.0
1040
10.0
1040
10.0
1040
10.0
1040
10.0
1070
     0
1002
{
1002
}
1002
}
  0
ENDSEC
  0
EOF
