  0
SECTION
  2
HEADER
  9
$ACADVER
  1
AC1009
  9
$INSBASE
 10
0.0
 20
0.0
 30
0.0
  9
$EXTMIN
 10
-1445.8958
 20
-2481.5988000000002
 30
0.0
  9
$EXTMAX
 10
-1051.9100000000001
 20
-2260.8989999999999
 30
0.0
  9
$LIMMIN
 10
0.0
 20
0.0
  9
$LIMMAX
 10
420.0
 20
297.0
  9
$ORTHOMODE
 70
     0
  9
$REGENMODE
 70
     1
  9
$FILLMODE
 70
     1
  9
$QTEXTMODE
 70
     0
  9
$MIRRTEXT
 70
     0
  9
$DRAGMODE
 70
     2
  9
$LTSCALE
 40
0.5
  9
$OSMODE
 70
  2173
  9
$ATTMODE
 70
     1
  9
$TEXTSIZE
 40
4.0
  9
$TRACEWID
 40
1.0
  9
$TEXTSTYLE
  7
STANDARD
  9
$CLAYER
  8
1TEXT
  9
$CELTYPE
  6
BYLAYER
  9
$CECOLOR
 62
   256
  9
$DIMSCALE
 40
1.0
  9
$DIMASZ
 40
2.0
  9
$DIMEXO
 40
0.0
  9
$DIMDLI
 40
7.0
  9
$DIMRND
 40
0.0
  9
$DIMDLE
 40
0.0
  9
$DIMEXE
 40
1.0
  9
$DIMTP
 40
0.0
  9
$DIMTM
 40
0.0
  9
$DIMTXT
 40
3.5
  9
$DIMCEN
 40
0.0
  9
$DIMTSZ
 40
0.0
  9
$DIMTOL
 70
     0
  9
$DIMLIM
 70
     0
  9
$DIMTIH
 70
     0
  9
$DIMTOH
 70
     0
  9
$DIMSE1
 70
     0
  9
$DIMSE2
 70
     0
  9
$DIMTAD
 70
     1
  9
$DIMZIN
 70
     8
  9
$DIMBLK
  1

  9
$DIMASO
 70
     1
  9
$DIMSHO
 70
     1
  9
$DIMPOST
  1
 
  9
$DIMAPOST
  1

  9
$DIMALT
 70
     0
  9
$DIMALTD
 70
     2
  9
$DIMALTF
 40
25.399999999999999
  9
$DIMLFAC
 40
1.0
  9
$DIMTOFL
 70
     1
  9
$DIMTVP
 40
0.0
  9
$DIMTIX
 70
     0
  9
$DIMSOXD
 70
     0
  9
$DIMSAH
 70
     1
  9
$DIMBLK1
  1
OPEN30
  9
$DIMBLK2
  1
OPEN30
  9
$DIMSTYLE
  2
NEWX10
  9
$DIMCLRD
 70
   256
  9
$DIMCLRE
 70
   256
  9
$DIMCLRT
 70
   201
  9
$DIMTFAC
 40
0.7
  9
$DIMGAP
 40
0.7
  9
$LUNITS
 70
     2
  9
$LUPREC
 70
     4
  9
$SKETCHINC
 40
1.0
  9
$FILLETRAD
 40
0.0
  9
$AUNITS
 70
     0
  9
$AUPREC
 70
     2
  9
$MENU
  1
acad
  9
$ELEVATION
 40
0.0
  9
$PELEVATION
 40
0.0
  9
$THICKNESS
 40
0.0
  9
$LIMCHECK
 70
     0
  9
$BLIPMODE
 70
     0
  9
$CHAMFERA
 40
10.0
  9
$CHAMFERB
 40
10.0
  9
$SKPOLY
 70
     0
  9
$TDCREATE
 40
2453033.7327000001
  9
$TDUPDATE
 40
2453335.5017910879
  9
$TDINDWG
 40
0.330529294
  9
$TDUSRTIMER
 40
0.3305291204
  9
$USRTIMER
 70
     1
  9
$ANGBASE
 50
0.0
  9
$ANGDIR
 70
     0
  9
$PDMODE
 70
     0
  9
$PDSIZE
 40
0.0
  9
$PLINEWID
 40
0.0
  9
$COORDS
 70
     2
  9
$SPLFRAME
 70
     0
  9
$SPLINETYPE
 70
     6
  9
$SPLINESEGS
 70
     8
  9
$ATTDIA
 70
     0
  9
$ATTREQ
 70
     1
  9
$HANDLING
 70
     1
  9
$HANDSEED
  5
9F42
  9
$SURFTAB1
 70
     6
  9
$SURFTAB2
 70
     6
  9
$SURFTYPE
 70
     6
  9
$SURFU
 70
     6
  9
$SURFV
 70
     6
  9
$UCSNAME
  2

  9
$UCSORG
 10
0.0
 20
0.0
 30
0.0
  9
$UCSXDIR
 10
1.0
 20
0.0
 30
0.0
  9
$UCSYDIR
 10
0.0
 20
1.0
 30
0.0
  9
$PUCSNAME
  2

  9
$PUCSORG
 10
0.0
 20
0.0
 30
0.0
  9
$PUCSXDIR
 10
1.0
 20
0.0
 30
0.0
  9
$PUCSYDIR
 10
0.0
 20
1.0
 30
0.0
  9
$USERI1
 70
     0
  9
$USERI2
 70
     0
  9
$USERI3
 70
     0
  9
$USERI4
 70
     0
  9
$USERI5
 70
     0
  9
$USERR1
 40
0.0
  9
$USERR2
 40
0.0
  9
$USERR3
 40
0.0
  9
$USERR4
 40
0.0
  9
$USERR5
 40
0.0
  9
$WORLDVIEW
 70
     1
  9
$SHADEDGE
 70
     3
  9
$SHADEDIF
 70
    70
  9
$TILEMODE
 70
     1
  9
$MAXACTVP
 70
    48
  9
$PLIMCHECK
 70
     0
  9
$PEXTMIN
 10
1.0000000000000000E+020
 20
1.0000000000000000E+020
 30
1.0000000000000000E+020
  9
$PEXTMAX
 10
-1.0000000000000000E+020
 20
-1.0000000000000000E+020
 30
-1.0000000000000000E+020
  9
$PLIMMIN
 10
0.0
 20
0.0
  9
$PLIMMAX
 10
420.0
 20
297.0
  9
$UNITMODE
 70
     0
  9
$VISRETAIN
 70
     1
  9
$PLINEGEN
 70
     0
  9
$PSLTSCALE
 70
     1
  0
ENDSEC
  0
SECTION
  2
TABLES
  0
TABLE
  2
VPORT
 70
     4
  0
VPORT
  2
*ACTIVE
 70
     0
 10
0.0
 20
0.0
 11
1.0
 21
1.0
 12
-1248.9029
 22
-2371.248900000001
 13
0.0
 23
0.0
 14
10.0
 24
10.0
 15
10.0
 25
10.0
 16
0.0
 26
0.0
 36
1.0
 17
0.0
 27
0.0
 37
0.0
 40
286.90428484182831
 41
1.453246753246753
 42
50.0
 43
0.0
 44
0.0
 50
0.0
 51
0.0
 71
     0
 72
   100
 73
     1
 74
     1
 75
     0
 76
     0
 77
     0
 78
     0
  0
ENDTAB
  0
TABLE
  2
LTYPE
 70
     4
  0
LTYPE
  2
CONTINUOUS
 70
     0
  3
Solid line
 72
    65
 73
     0
 40
0.0
  0
LTYPE
  2
CENTER2
 70
     0
  3
Center (.5x) ___ _ ___ _ ___ _ ___ _ ___ _ ___
 72
    65
 73
     4
 40
28.574999999999999
 49
19.050000000000001
 49
-3.1749999999999989
 49
3.1749999999999989
 49
-3.1749999999999989
  0
ENDTAB
  0
TABLE
  2
LAYER
 70
    11
  0
LAYER
  2
0
 70
     0
 62
     7
  6
CONTINUOUS
  0
LAYER
  2
1TEXT
 70
     0
 62
     7
  6
CONTINUOUS
  0
LAYER
  2
1CENTER
 70
     0
 62
     7
  6
CENTER2
  0
LAYER
  2
1DIM
 70
     0
 62
     7
  6
CONTINUOUS
  0
LAYER
  2
01
 70
     0
 62
     1
  6
CONTINUOUS
  0
ENDTAB
  0
TABLE
  2
STYLE
 70
     1
  0
STYLE
  2
STANDARD
 70
     0
 40
0.0
 41
1.0
 50
0.0
 71
     0
 42
4.0
  3
txt.shx
  4
extfont.shx
  0
ENDTAB
  0
TABLE
  2
VIEW
 70
     0
  0
ENDTAB
  0
TABLE
  2
UCS
 70
     0
  0
ENDTAB
  0
TABLE
  2
APPID
 70
     9
  0
APPID
  2
ACAD
 70
     0
  0
APPID
  2
DRAWINGVARIABLESXDATA
 70
     0
  0
APPID
  2
CONTENTTABDATA
 70
     0
  0
APPID
  2
CONTENTCURRENTTAB
 70
     0
  0
APPID
  2
CONTENTBLOCKDESCRIPTION
 70
     0
  0
APPID
  2
CONTENTBLOCKICON
 70
     0
  0
APPID
  2
CONTENTLONGBLOCKNAME
 70
     0
  0
APPID
  2
ACAD_PSEXT
 70
     0
  0
APPID
  2
ACAD_DSTYLE_DIMTEXT_FILL
 70
     0
  0
ENDTAB
  0
TABLE
  2
DIMSTYLE
 70
     1
  0
DIMSTYLE
  2
NEWX10
 70
     0
  3
 
  4

  5

  6

  7

 40
1.0
 41
2.0
 42
0.0
 43
7.0
 44
1.0
 45
0.0
 46
0.0
 47
0.0
 48
0.0
140
3.5
141
0.0
142
0.0
143
25.399999999999999
144
1.0
145
0.0
146
0.7
147
0.7
 71
     0
 72
     0
 73
     0
 74
     0
 75
     0
 76
     0
 77
     1
 78
     8
170
     0
171
     2
172
     1
173
     1
174
     0
175
     0
176
   256
177
   256
178
   201
  0
ENDTAB
  0
ENDSEC
  0
SECTION
  2
BLOCKS
  0
BLOCK
  8
0
  2
$MODEL_SPACE
 70
     0
 10
0.0
 20
0.0
 30
0.0
  3
$MODEL_SPACE
  1

  0
ENDBLK
  5
9AE7
  8
0
  0
BLOCK
 67
     1
  8
0
  2
$PAPER_SPACE
 70
     0
 10
0.0
 20
0.0
 30
0.0
  3
$PAPER_SPACE
  1

  0
ENDBLK
  5
9AE3
 67
     1
  8
0
  0
BLOCK
  8
0
  2
_OPEN30
 70
     0
 10
0.0
 20
0.0
 30
0.0
  3
_OPEN30
  1

  0
LINE
  5
44
  8
0
  6
BYBLOCK
 62
     0
 10
-1.0
 20
0.2679
 30
0.0
 11
0.0
 21
0.0
 31
0.0
  0
LINE
  5
45
  8
0
  6
BYBLOCK
 62
     0
 10
0.0
 20
0.0
 30
0.0
 11
-1.0
 21
-0.2679
 31
0.0
  0
LINE
  5
46
  8
0
  6
BYBLOCK
 62
     0
 10
0.0
 20
0.0
 30
0.0
 11
-1.0
 21
0.0
 31
0.0
  0
ENDBLK
  5
47
  8
0
  0
ENDSEC
  0
SECTION
  2
ENTITIES
  0
LINE
  5
9D29
  8
01
 10
-1062.9091000000001
 20
-2370.6156000000001
 30
0.0
 11
-1062.9091000000001
 21
-2394.2988
 31
0.0
  0
LINE
  5
9D2A
  8
01
 10
-1052.9091000000001
 20
-2370.6156000000001
 30
0.0
 11
-1052.9091000000001
 21
-2394.2988
 31
0.0
  0
POLYLINE
  5
9D2B
  8
01
 66
     1
 10
0.0
 20
0.0
 30
0.0
 70
     8
  0
VERTEX
  5
9D2C
  8
01
 10
-1051.9100000000001
 20
-2367.3000000000002
 30
0.0
 70
    32
  0
VERTEX
  5
9D2D
  8
01
 10
-1051.9200000000001
 20
-2367.0030000000002
 30
0.0
 70
    32
  0
VERTEX
  5
9D2E
  8
01
 10
-1051.9400000000001
 20
-2366.712
 30
0.0
 70
    32
  0
VERTEX
  5
9D2F
  8
01
 10
-1051.97
 20
-2366.4180000000001
 30
0.0
 70
    32
  0
VERTEX
  5
9D30
  8
01
 10
-1052.02
 20
-2366.127
 30
0.0
 70
    32
  0
VERTEX
  5
9D31
  8
01
 10
-1052.0899999999999
 20
-2365.8420000000001
 30
0.0
 70
    32
  0
VERTEX
  5
9D32
  8
01
 10
-1052.1700000000001
 20
-2365.5569999999998
 30
0.0
 70
    32
  0
VERTEX
  5
9D33
  8
01
 10
-1052.26
 20
-2365.2779999999998
 30
0.0
 70
    32
  0
VERTEX
  5
9D34
  8
01
 10
-1052.3699999999999
 20
-2365.002
 30
0.0
 70
    32
  0
VERTEX
  5
9D35
  8
01
 10
-1052.49
 20
-2364.7350000000001
 30
0.0
 70
    32
  0
VERTEX
  5
9D36
  8
01
 10
-1052.6199999999999
 20
-2364.4709999999991
 30
0.0
 70
    32
  0
VERTEX
  5
9D37
  8
01
 10
-1052.76
 20
-2364.2130000000002
 30
0.0
 70
    32
  0
VERTEX
  5
9D38
  8
01
 10
-1052.9200000000001
 20
-2363.9670000000001
 30
0.0
 70
    32
  0
VERTEX
  5
9D39
  8
01
 10
-1053.0899999999999
 20
-2363.7240000000002
 30
0.0
 70
    32
  0
VERTEX
  5
9D3A
  8
01
 10
-1053.27
 20
-2363.4929999999999
 30
0.0
 70
    32
  0
VERTEX
  5
9D3B
  8
01
 10
-1053.46
 20
-2363.2710000000002
 30
0.0
 70
    32
  0
VERTEX
  5
9D3C
  8
01
 10
-1053.6700000000001
 20
-2363.058
 30
0.0
 70
    32
  0
VERTEX
  5
9D3D
  8
01
 10
-1053.8800000000001
 20
-2362.8539999999998
 30
0.0
 70
    32
  0
VERTEX
  5
9D3E
  8
01
 10
-1054.0999999999999
 20
-2362.6619999999998
 30
0.0
 70
    32
  0
VERTEX
  5
9D3F
  8
01
 10
-1054.3299999999999
 20
-2362.4789999999998
 30
0.0
 70
    32
  0
VERTEX
  5
9D40
  8
01
 10
-1054.5799999999999
 20
-2362.3110000000001
 30
0.0
 70
    32
  0
VERTEX
  5
9D41
  8
01
 10
-1054.8199999999999
 20
-2362.152
 30
0.0
 70
    32
  0
VERTEX
  5
9D42
  8
01
 10
-1055.0799999999999
 20
-2362.0079999999998
 30
0.0
 70
    32
  0
VERTEX
  5
9D43
  8
01
 10
-1055.3399999999999
 20
-2361.8760000000002
 30
0.0
 70
    32
  0
VERTEX
  5
9D44
  8
01
 10
-1055.6099999999999
 20
-2361.7559999999999
 30
0.0
 70
    32
  0
VERTEX
  5
9D45
  8
01
 10
-1055.8900000000001
 20
-2361.6509999999998
 30
0.0
 70
    32
  0
VERTEX
  5
9D46
  8
01
 10
-1056.1700000000001
 20
-2361.558
 30
0.0
 70
    32
  0
VERTEX
  5
9D47
  8
01
 10
-1056.45
 20
-2361.48
 30
0.0
 70
    32
  0
VERTEX
  5
9D48
  8
01
 10
-1056.74
 20
-2361.4140000000002
 30
0.0
 70
    32
  0
VERTEX
  5
9D49
  8
01
 10
-1057.03
 20
-2361.3629999999998
 30
0.0
 70
    32
  0
VERTEX
  5
9D4A
  8
01
 10
-1057.3199999999999
 20
-2361.3270000000002
 30
0.0
 70
    32
  0
VERTEX
  5
9D4B
  8
01
 10
-1057.6099999999999
 20
-2361.306
 30
0.0
 70
    32
  0
VERTEX
  5
9D4C
  8
01
 10
-1057.9100000000001
 20
-2361.3000000000002
 30
0.0
 70
    32
  0
VERTEX
  5
9D4D
  8
01
 10
-1058.2
 20
-2361.306
 30
0.0
 70
    32
  0
VERTEX
  5
9D4E
  8
01
 10
-1058.5
 20
-2361.3270000000002
 30
0.0
 70
    32
  0
VERTEX
  5
9D4F
  8
01
 10
-1058.79
 20
-2361.3629999999998
 30
0.0
 70
    32
  0
VERTEX
  5
9D50
  8
01
 10
-1059.0799999999999
 20
-2361.4140000000002
 30
0.0
 70
    32
  0
VERTEX
  5
9D51
  8
01
 10
-1059.3699999999999
 20
-2361.48
 30
0.0
 70
    32
  0
VERTEX
  5
9D52
  8
01
 10
-1059.6500000000001
 20
-2361.558
 30
0.0
 70
    32
  0
VERTEX
  5
9D53
  8
01
 10
-1059.9300000000001
 20
-2361.6509999999998
 30
0.0
 70
    32
  0
VERTEX
  5
9D54
  8
01
 10
-1060.21
 20
-2361.7559999999999
 30
0.0
 70
    32
  0
VERTEX
  5
9D55
  8
01
 10
-1060.47
 20
-2361.8760000000002
 30
0.0
 70
    32
  0
VERTEX
  5
9D56
  8
01
 10
-1060.74
 20
-2362.0079999999998
 30
0.0
 70
    32
  0
VERTEX
  5
9D57
  8
01
 10
-1060.99
 20
-2362.152
 30
0.0
 70
    32
  0
VERTEX
  5
9D58
  8
01
 10
-1061.24
 20
-2362.3110000000001
 30
0.0
 70
    32
  0
VERTEX
  5
9D59
  8
01
 10
-1061.48
 20
-2362.4789999999998
 30
0.0
 70
    32
  0
VERTEX
  5
9D5A
  8
01
 10
-1061.72
 20
-2362.6619999999998
 30
0.0
 70
    32
  0
VERTEX
  5
9D5B
  8
01
 10
-1061.9400000000001
 20
-2362.8539999999998
 30
0.0
 70
    32
  0
VERTEX
  5
9D5C
  8
01
 10
-1062.1500000000001
 20
-2363.058
 30
0.0
 70
    32
  0
VERTEX
  5
9D5D
  8
01
 10
-1062.3499999999999
 20
-2363.2710000000002
 30
0.0
 70
    32
  0
VERTEX
  5
9D5E
  8
01
 10
-1062.55
 20
-2363.4929999999999
 30
0.0
 70
    32
  0
VERTEX
  5
9D5F
  8
01
 10
-1062.73
 20
-2363.7240000000002
 30
0.0
 70
    32
  0
VERTEX
  5
9D60
  8
01
 10
-1062.9000000000001
 20
-2363.9670000000001
 30
0.0
 70
    32
  0
VERTEX
  5
9D61
  8
01
 10
-1063.0599999999999
 20
-2364.2130000000002
 30
0.0
 70
    32
  0
VERTEX
  5
9D62
  8
01
 10
-1063.2
 20
-2364.4709999999991
 30
0.0
 70
    32
  0
VERTEX
  5
9D63
  8
01
 10
-1063.3299999999999
 20
-2364.7350000000001
 30
0.0
 70
    32
  0
VERTEX
  5
9D64
  8
01
 10
-1063.45
 20
-2365.002
 30
0.0
 70
    32
  0
VERTEX
  5
9D65
  8
01
 10
-1063.5599999999999
 20
-2365.2779999999998
 30
0.0
 70
    32
  0
VERTEX
  5
9D66
  8
01
 10
-1063.6500000000001
 20
-2365.5569999999998
 30
0.0
 70
    32
  0
VERTEX
  5
9D67
  8
01
 10
-1063.73
 20
-2365.8420000000001
 30
0.0
 70
    32
  0
VERTEX
  5
9D68
  8
01
 10
-1063.79
 20
-2366.127
 30
0.0
 70
    32
  0
VERTEX
  5
9D69
  8
01
 10
-1063.8399999999999
 20
-2366.4180000000001
 30
0.0
 70
    32
  0
VERTEX
  5
9D6A
  8
01
 10
-1063.8800000000001
 20
-2366.712
 30
0.0
 70
    32
  0
VERTEX
  5
9D6B
  8
01
 10
-1063.9000000000001
 20
-2367.0030000000002
 30
0.0
 70
    32
  0
VERTEX
  5
9D6C
  8
01
 10
-1063.9100000000001
 20
-2367.3000000000002
 30
0.0
 70
    32
  0
VERTEX
  5
9D6D
  8
01
 10
-1063.9000000000001
 20
-2367.5940000000001
 30
0.0
 70
    32
  0
VERTEX
  5
9D6E
  8
01
 10
-1063.8800000000001
 20
-2367.8879999999999
 30
0.0
 70
    32
  0
VERTEX
  5
9D6F
  8
01
 10
-1063.8399999999999
 20
-2368.1790000000001
 30
0.0
 70
    32
  0
VERTEX
  5
9D70
  8
01
 10
-1063.79
 20
-2368.4699999999998
 30
0.0
 70
    32
  0
VERTEX
  5
9D71
  8
01
 10
-1063.73
 20
-2368.7579999999998
 30
0.0
 70
    32
  0
VERTEX
  5
9D72
  8
01
 10
-1063.6500000000001
 20
-2369.04
 30
0.0
 70
    32
  0
VERTEX
  5
9D73
  8
01
 10
-1063.5599999999999
 20
-2369.319
 30
0.0
 70
    32
  0
VERTEX
  5
9D74
  8
01
 10
-1063.45
 20
-2369.5949999999998
 30
0.0
 70
    32
  0
VERTEX
  5
9D75
  8
01
 10
-1063.3299999999999
 20
-2369.8649999999998
 30
0.0
 70
    32
  0
VERTEX
  5
9D76
  8
01
 10
-1063.2
 20
-2370.1260000000002
 30
0.0
 70
    32
  0
VERTEX
  5
9D77
  8
01
 10
-1063.0599999999999
 20
-2370.384
 30
0.0
 70
    32
  0
VERTEX
  5
9D78
  8
01
 10
-1062.9000000000001
 20
-2370.6329999999998
 30
0.0
 70
    32
  0
VERTEX
  5
9D79
  8
01
 10
-1062.73
 20
-2370.873
 30
0.0
 70
    32
  0
VERTEX
  5
9D7A
  8
01
 10
-1062.55
 20
-2371.1039999999998
 30
0.0
 70
    32
  0
VERTEX
  5
9D7B
  8
01
 10
-1062.3499999999999
 20
-2371.3290000000002
 30
0.0
 70
    32
  0
VERTEX
  5
9D7C
  8
01
 10
-1062.1500000000001
 20
-2371.541999999999
 30
0.0
 70
    32
  0
VERTEX
  5
9D7D
  8
01
 10
-1061.9400000000001
 20
-2371.7429999999999
 30
0.0
 70
    32
  0
VERTEX
  5
9D7E
  8
01
 10
-1061.72
 20
-2371.9349999999999
 30
0.0
 70
    32
  0
VERTEX
  5
9D7F
  8
01
 10
-1061.48
 20
-2372.1179999999999
 30
0.0
 70
    32
  0
VERTEX
  5
9D80
  8
01
 10
-1061.24
 20
-2372.2860000000001
 30
0.0
 70
    32
  0
VERTEX
  5
9D81
  8
01
 10
-1060.99
 20
-2372.4450000000002
 30
0.0
 70
    32
  0
VERTEX
  5
9D82
  8
01
 10
-1060.74
 20
-2372.5889999999999
 30
0.0
 70
    32
  0
VERTEX
  5
9D83
  8
01
 10
-1060.47
 20
-2372.721
 30
0.0
 70
    32
  0
VERTEX
  5
9D84
  8
01
 10
-1060.21
 20
-2372.8409999999999
 30
0.0
 70
    32
  0
VERTEX
  5
9D85
  8
01
 10
-1059.9300000000001
 20
-2372.9459999999999
 30
0.0
 70
    32
  0
VERTEX
  5
9D86
  8
01
 10
-1059.6500000000001
 20
-2373.0390000000002
 30
0.0
 70
    32
  0
VERTEX
  5
9D87
  8
01
 10
-1059.3699999999999
 20
-2373.1170000000002
 30
0.0
 70
    32
  0
VERTEX
  5
9D88
  8
01
 10
-1059.0799999999999
 20
-2373.183
 30
0.0
 70
    32
  0
VERTEX
  5
9D89
  8
01
 10
-1058.79
 20
-2373.2339999999999
 30
0.0
 70
    32
  0
VERTEX
  5
9D8A
  8
01
 10
-1058.5
 20
-2373.27
 30
0.0
 70
    32
  0
VERTEX
  5
9D8B
  8
01
 10
-1058.2
 20
-2373.2910000000002
 30
0.0
 70
    32
  0
VERTEX
  5
9D8C
  8
01
 10
-1057.9100000000001
 20
-2373.2969999999991
 30
0.0
 70
    32
  0
VERTEX
  5
9D8D
  8
01
 10
-1057.6099999999999
 20
-2373.2910000000002
 30
0.0
 70
    32
  0
VERTEX
  5
9D8E
  8
01
 10
-1057.3199999999999
 20
-2373.27
 30
0.0
 70
    32
  0
VERTEX
  5
9D8F
  8
01
 10
-1057.03
 20
-2373.2339999999999
 30
0.0
 70
    32
  0
VERTEX
  5
9D90
  8
01
 10
-1056.74
 20
-2373.183
 30
0.0
 70
    32
  0
VERTEX
  5
9D91
  8
01
 10
-1056.45
 20
-2373.1170000000002
 30
0.0
 70
    32
  0
VERTEX
  5
9D92
  8
01
 10
-1056.1700000000001
 20
-2373.0390000000002
 30
0.0
 70
    32
  0
VERTEX
  5
9D93
  8
01
 10
-1055.8900000000001
 20
-2372.9459999999999
 30
0.0
 70
    32
  0
VERTEX
  5
9D94
  8
01
 10
-1055.6099999999999
 20
-2372.8409999999999
 30
0.0
 70
    32
  0
VERTEX
  5
9D95
  8
01
 10
-1055.3399999999999
 20
-2372.721
 30
0.0
 70
    32
  0
VERTEX
  5
9D96
  8
01
 10
-1055.0799999999999
 20
-2372.5889999999999
 30
0.0
 70
    32
  0
VERTEX
  5
9D97
  8
01
 10
-1054.8199999999999
 20
-2372.4450000000002
 30
0.0
 70
    32
  0
VERTEX
  5
9D98
  8
01
 10
-1054.5799999999999
 20
-2372.2860000000001
 30
0.0
 70
    32
  0
VERTEX
  5
9D99
  8
01
 10
-1054.3299999999999
 20
-2372.1179999999999
 30
0.0
 70
    32
  0
VERTEX
  5
9D9A
  8
01
 10
-1054.0999999999999
 20
-2371.9349999999999
 30
0.0
 70
    32
  0
VERTEX
  5
9D9B
  8
01
 10
-1053.8800000000001
 20
-2371.7429999999999
 30
0.0
 70
    32
  0
VERTEX
  5
9D9C
  8
01
 10
-1053.6700000000001
 20
-2371.541999999999
 30
0.0
 70
    32
  0
VERTEX
  5
9D9D
  8
01
 10
-1053.46
 20
-2371.3290000000002
 30
0.0
 70
    32
  0
VERTEX
  5
9D9E
  8
01
 10
-1053.27
 20
-2371.1039999999998
 30
0.0
 70
    32
  0
VERTEX
  5
9D9F
  8
01
 10
-1053.0899999999999
 20
-2370.873
 30
0.0
 70
    32
  0
VERTEX
  5
9DA0
  8
01
 10
-1052.9200000000001
 20
-2370.6329999999998
 30
0.0
 70
    32
  0
VERTEX
  5
9DA1
  8
01
 10
-1052.76
 20
-2370.384
 30
0.0
 70
    32
  0
VERTEX
  5
9DA2
  8
01
 10
-1052.6199999999999
 20
-2370.1260000000002
 30
0.0
 70
    32
  0
VERTEX
  5
9DA3
  8
01
 10
-1052.49
 20
-2369.8649999999998
 30
0.0
 70
    32
  0
VERTEX
  5
9DA4
  8
01
 10
-1052.3699999999999
 20
-2369.5949999999998
 30
0.0
 70
    32
  0
VERTEX
  5
9DA5
  8
01
 10
-1052.26
 20
-2369.319
 30
0.0
 70
    32
  0
VERTEX
  5
9DA6
  8
01
 10
-1052.1700000000001
 20
-2369.04
 30
0.0
 70
    32
  0
VERTEX
  5
9DA7
  8
01
 10
-1052.0899999999999
 20
-2368.7579999999998
 30
0.0
 70
    32
  0
VERTEX
  5
9DA8
  8
01
 10
-1052.02
 20
-2368.4699999999998
 30
0.0
 70
    32
  0
VERTEX
  5
9DA9
  8
01
 10
-1051.97
 20
-2368.1790000000001
 30
0.0
 70
    32
  0
VERTEX
  5
9DAA
  8
01
 10
-1051.9400000000001
 20
-2367.8879999999999
 30
0.0
 70
    32
  0
VERTEX
  5
9DAB
  8
01
 10
-1051.9200000000001
 20
-2367.5940000000001
 30
0.0
 70
    32
  0
VERTEX
  5
9DAC
  8
01
 10
-1051.9100000000001
 20
-2367.3000000000002
 30
0.0
 70
    32
  0
SEQEND
  5
9DAD
  8
01
  0
LINE
  5
9DAE
  8
01
 10
-1052.9091000000001
 20
-2394.2988
 30
0.0
 11
-1062.9091000000001
 21
-2394.2988
 31
0.0
  0
LINE
  5
9DAF
  8
01
 10
-1443.9091000000001
 20
-2289.7988999999998
 30
0.0
 11
-1443.4091000000001
 21
-2289.2991000000002
 31
0.0
  0
LINE
  5
9DB0
  8
01
 10
-1443.9091000000001
 20
-2300.799
 30
0.0
 11
-1443.4091000000001
 21
-2301.2991000000002
 31
0.0
  0
LINE
  5
9DB1
  8
01
 10
-1443.9091000000001
 20
-2300.799
 30
0.0
 11
-1443.9091000000001
 21
-2289.7988999999998
 31
0.0
  0
LINE
  5
9DB2
  8
01
 10
-1104.4091000000001
 20
-2301.2991000000002
 30
0.0
 11
-1443.4091000000001
 21
-2301.2991000000002
 31
0.0
  0
LINE
  5
9DB3
  8
01
 10
-1104.4091000000001
 20
-2289.2991000000002
 30
0.0
 11
-1443.4091000000001
 21
-2289.2991000000002
 31
0.0
  0
LINE
  5
9DB4
  8
01
 10
-1103.9091000000001
 20
-2300.799
 30
0.0
 11
-1103.9091000000001
 21
-2289.7988999999998
 31
0.0
  0
LINE
  5
9DB5
  8
01
 10
-1104.4091000000001
 20
-2301.2991000000002
 30
0.0
 11
-1103.9091000000001
 21
-2300.799
 31
0.0
  0
LINE
  5
9DB6
  8
01
 10
-1103.9091000000001
 20
-2289.7988999999998
 30
0.0
 11
-1104.4091000000001
 21
-2289.2991000000002
 31
0.0
  0
LINE
  5
9DB7
  8
01
 10
-1443.9091000000001
 20
-2372.799
 30
0.0
 11
-1443.4091000000001
 21
-2373.2988
 31
0.0
  0
LINE
  5
9DB8
  8
01
 10
-1443.9091000000001
 20
-2361.7988999999998
 30
0.0
 11
-1443.4091000000001
 21
-2361.2988
 31
0.0
  0
LINE
  5
9DB9
  8
01
 10
-1443.9091000000001
 20
-2361.7988999999998
 30
0.0
 11
-1443.9091000000001
 21
-2372.799
 31
0.0
  0
LINE
  5
9DBA
  8
01
 10
-1104.4091000000001
 20
-2361.2988
 30
0.0
 11
-1443.4091000000001
 21
-2361.2988
 31
0.0
  0
LINE
  5
9DBB
  8
01
 10
-1128.9091000000001
 20
-2373.2988
 30
0.0
 11
-1418.9091000000001
 21
-2373.2988
 31
0.0
  0
LINE
  5
9DBC
  8
01
 10
-1418.9091000000001
 20
-2394.2988
 30
0.0
 11
-1428.9091000000001
 21
-2394.2988
 31
0.0
  0
POLYLINE
  5
9DBD
  8
01
 66
     1
 10
0.0
 20
0.0
 30
0.0
 70
     8
  0
VERTEX
  5
9DBE
  8
01
 10
-1418.9100000000001
 20
-2373.3000000000002
 30
0.0
 70
    32
  0
VERTEX
  5
9DBF
  8
01
 10
-1418.96
 20
-2373.2190000000001
 30
0.0
 70
    32
  0
VERTEX
  5
9DC0
  8
01
 10
-1419.01
 20
-2373.1379999999999
 30
0.0
 70
    32
  0
VERTEX
  5
9DC1
  8
01
 10
-1419.0599999999999
 20
-2373.0599999999999
 30
0.0
 70
    32
  0
VERTEX
  5
9DC2
  8
01
 10
-1419.1099999999999
 20
-2372.982
 30
0.0
 70
    32
  0
VERTEX
  5
9DC3
  8
01
 10
-1419.1700000000001
 20
-2372.9070000000002
 30
0.0
 70
    32
  0
VERTEX
  5
9DC4
  8
01
 10
-1419.22
 20
-2372.8290000000002
 30
0.0
 70
    32
  0
VERTEX
  5
9DC5
  8
01
 10
-1419.28
 20
-2372.7539999999999
 30
0.0
 70
    32
  0
VERTEX
  5
9DC6
  8
01
 10
-1419.3299999999999
 20
-2372.6790000000001
 30
0.0
 70
    32
  0
VERTEX
  5
9DC7
  8
01
 10
-1419.3900000000001
 20
-2372.607
 30
0.0
 70
    32
  0
VERTEX
  5
9DC8
  8
01
 10
-1419.45
 20
-2372.5349999999999
 30
0.0
 70
    32
  0
VERTEX
  5
9DC9
  8
01
 10
-1419.51
 20
-2372.4630000000002
 30
0.0
 70
    32
  0
VERTEX
  5
9DCA
  8
01
 10
-1419.5799999999999
 20
-2372.3939999999998
 30
0.0
 70
    32
  0
VERTEX
  5
9DCB
  8
01
 10
-1419.6400000000001
 20
-2372.3220000000001
 30
0.0
 70
    32
  0
VERTEX
  5
9DCC
  8
01
 10
-1419.7
 20
-2372.2559999999999
 30
0.0
 70
    32
  0
VERTEX
  5
9DCD
  8
01
 10
-1419.77
 20
-2372.1869999999999
 30
0.0
 70
    32
  0
VERTEX
  5
9DCE
  8
01
 10
-1419.8399999999999
 20
-2372.1210000000001
 30
0.0
 70
    32
  0
VERTEX
  5
9DCF
  8
01
 10
-1419.9000000000001
 20
-2372.0549999999998
 30
0.0
 70
    32
  0
VERTEX
  5
9DD0
  8
01
 10
-1419.97
 20
-2371.9920000000002
 30
0.0
 70
    32
  0
VERTEX
  5
9DD1
  8
01
 10
-1420.04
 20
-2371.9290000000001
 30
0.0
 70
    32
  0
VERTEX
  5
9DD2
  8
01
 10
-1420.1099999999999
 20
-2371.866
 30
0.0
 70
    32
  0
VERTEX
  5
9DD3
  8
01
 10
-1420.1900000000001
 20
-2371.806
 30
0.0
 70
    32
  0
VERTEX
  5
9DD4
  8
01
 10
-1420.26
 20
-2371.7460000000001
 30
0.0
 70
    32
  0
VERTEX
  5
9DD5
  8
01
 10
-1420.3299999999999
 20
-2371.6889999999999
 30
0.0
 70
    32
  0
VERTEX
  5
9DD6
  8
01
 10
-1420.4100000000001
 20
-2371.6320000000001
 30
0.0
 70
    32
  0
VERTEX
  5
9DD7
  8
01
 10
-1420.48
 20
-2371.5749999999998
 30
0.0
 70
    32
  0
VERTEX
  5
9DD8
  8
01
 10
-1420.5599999999999
 20
-2371.5210000000002
 30
0.0
 70
    32
  0
VERTEX
  5
9DD9
  8
01
 10
-1420.6400000000001
 20
-2371.4670000000001
 30
0.0
 70
    32
  0
VERTEX
  5
9DDA
  8
01
 10
-1420.71
 20
-2371.4160000000002
 30
0.0
 70
    32
  0
VERTEX
  5
9DDB
  8
01
 10
-1420.79
 20
-2371.3649999999998
 30
0.0
 70
    32
  0
VERTEX
  5
9DDC
  8
01
 10
-1420.8699999999999
 20
-2371.3139999999999
 30
0.0
 70
    32
  0
VERTEX
  5
9DDD
  8
01
 10
-1420.95
 20
-2371.2660000000001
 30
0.0
 70
    32
  0
VERTEX
  5
9DDE
  8
01
 10
-1421.03
 20
-2371.2179999999998
 30
0.0
 70
    32
  0
VERTEX
  5
9DDF
  8
01
 10
-1421.1199999999999
 20
-2371.1729999999998
 30
0.0
 70
    32
  0
VERTEX
  5
9DE0
  8
01
 10
-1421.2
 20
-2371.1280000000002
 30
0.0
 70
    32
  0
VERTEX
  5
9DE1
  8
01
 10
-1421.28
 20
-2371.0859999999998
 30
0.0
 70
    32
  0
VERTEX
  5
9DE2
  8
01
 10
-1421.3699999999999
 20
-2371.0439999999999
 30
0.0
 70
    32
  0
VERTEX
  5
9DE3
  8
01
 10
-1421.45
 20
-2371.0050000000001
 30
0.0
 70
    32
  0
VERTEX
  5
9DE4
  8
01
 10
-1421.54
 20
-2370.9659999999999
 30
0.0
 70
    32
  0
VERTEX
  5
9DE5
  8
01
 10
-1421.6199999999999
 20
-2370.9270000000001
 30
0.0
 70
    32
  0
VERTEX
  5
9DE6
  8
01
 10
-1421.71
 20
-2370.8910000000001
 30
0.0
 70
    32
  0
VERTEX
  5
9DE7
  8
01
 10
-1421.8
 20
-2370.8580000000002
 30
0.0
 70
    32
  0
VERTEX
  5
9DE8
  8
01
 10
-1421.8900000000001
 20
-2370.8220000000001
 30
0.0
 70
    32
  0
VERTEX
  5
9DE9
  8
01
 10
-1421.97
 20
-2370.791999999999
 30
0.0
 70
    32
  0
VERTEX
  5
9DEA
  8
01
 10
-1422.0599999999999
 20
-2370.7620000000002
 30
0.0
 70
    32
  0
VERTEX
  5
9DEB
  8
01
 10
-1422.1500000000001
 20
-2370.732
 30
0.0
 70
    32
  0
VERTEX
  5
9DEC
  8
01
 10
-1422.24
 20
-2370.7049999999999
 30
0.0
 70
    32
  0
VERTEX
  5
9DED
  8
01
 10
-1422.3299999999999
 20
-2370.6780000000008
 30
0.0
 70
    32
  0
VERTEX
  5
9DEE
  8
01
 10
-1422.4200000000001
 20
-2370.654
 30
0.0
 70
    32
  0
VERTEX
  5
9DEF
  8
01
 10
-1422.51
 20
-2370.6300000000001
 30
0.0
 70
    32
  0
VERTEX
  5
9DF0
  8
01
 10
-1422.5999999999999
 20
-2370.6089999999999
 30
0.0
 70
    32
  0
VERTEX
  5
9DF1
  8
01
 10
-1422.7
 20
-2370.5880000000011
 30
0.0
 70
    32
  0
VERTEX
  5
9DF2
  8
01
 10
-1422.79
 20
-2370.5700000000002
 30
0.0
 70
    32
  0
VERTEX
  5
9DF3
  8
01
 10
-1422.8800000000001
 20
-2370.5519999999992
 30
0.0
 70
    32
  0
VERTEX
  5
9DF4
  8
01
 10
-1422.97
 20
-2370.5369999999998
 30
0.0
 70
    32
  0
VERTEX
  5
9DF5
  8
01
 10
-1423.0699999999999
 20
-2370.5219999999999
 30
0.0
 70
    32
  0
VERTEX
  5
9DF6
  8
01
 10
-1423.1600000000001
 20
-2370.5100000000002
 30
0.0
 70
    32
  0
VERTEX
  5
9DF7
  8
01
 10
-1423.25
 20
-2370.498
 30
0.0
 70
    32
  0
VERTEX
  5
9DF8
  8
01
 10
-1423.3499999999999
 20
-2370.4859999999999
 30
0.0
 70
    32
  0
VERTEX
  5
9DF9
  8
01
 10
-1423.4400000000001
 20
-2370.48
 30
0.0
 70
    32
  0
VERTEX
  5
9DFA
  8
01
 10
-1423.53
 20
-2370.471
 30
0.0
 70
    32
  0
VERTEX
  5
9DFB
  8
01
 10
-1423.6300000000001
 20
-2370.4679999999998
 30
0.0
 70
    32
  0
VERTEX
  5
9DFC
  8
01
 10
-1423.72
 20
-2370.462
 30
0.0
 70
    32
  0
VERTEX
  5
9DFD
  8
01
 10
-1423.8199999999999
 20
-2370.462
 30
0.0
 70
    32
  0
VERTEX
  5
9DFE
  8
01
 10
-1423.9100000000001
 20
-2370.4589999999998
 30
0.0
 70
    32
  0
VERTEX
  5
9DFF
  8
01
 10
-1424.0
 20
-2370.462
 30
0.0
 70
    32
  0
VERTEX
  5
9E00
  8
01
 10
-1424.0999999999999
 20
-2370.462
 30
0.0
 70
    32
  0
VERTEX
  5
9E01
  8
01
 10
-1424.1900000000001
 20
-2370.4679999999998
 30
0.0
 70
    32
  0
VERTEX
  5
9E02
  8
01
 10
-1424.28
 20
-2370.471
 30
0.0
 70
    32
  0
VERTEX
  5
9E03
  8
01
 10
-1424.3800000000001
 20
-2370.48
 30
0.0
 70
    32
  0
VERTEX
  5
9E04
  8
01
 10
-1424.47
 20
-2370.4859999999999
 30
0.0
 70
    32
  0
VERTEX
  5
9E05
  8
01
 10
-1424.5699999999999
 20
-2370.498
 30
0.0
 70
    32
  0
VERTEX
  5
9E06
  8
01
 10
-1424.6600000000001
 20
-2370.5100000000002
 30
0.0
 70
    32
  0
VERTEX
  5
9E07
  8
01
 10
-1424.75
 20
-2370.5219999999999
 30
0.0
 70
    32
  0
VERTEX
  5
9E08
  8
01
 10
-1424.8399999999999
 20
-2370.5369999999998
 30
0.0
 70
    32
  0
VERTEX
  5
9E09
  8
01
 10
-1424.9400000000001
 20
-2370.5519999999992
 30
0.0
 70
    32
  0
VERTEX
  5
9E0A
  8
01
 10
-1425.03
 20
-2370.5700000000002
 30
0.0
 70
    32
  0
VERTEX
  5
9E0B
  8
01
 10
-1425.1199999999999
 20
-2370.5880000000011
 30
0.0
 70
    32
  0
VERTEX
  5
9E0C
  8
01
 10
-1425.21
 20
-2370.6089999999999
 30
0.0
 70
    32
  0
VERTEX
  5
9E0D
  8
01
 10
-1425.3
 20
-2370.6300000000001
 30
0.0
 70
    32
  0
VERTEX
  5
9E0E
  8
01
 10
-1425.4000000000001
 20
-2370.654
 30
0.0
 70
    32
  0
VERTEX
  5
9E0F
  8
01
 10
-1425.49
 20
-2370.6780000000008
 30
0.0
 70
    32
  0
VERTEX
  5
9E10
  8
01
 10
-1425.5799999999999
 20
-2370.7049999999999
 30
0.0
 70
    32
  0
VERTEX
  5
9E11
  8
01
 10
-1425.6700000000001
 20
-2370.732
 30
0.0
 70
    32
  0
VERTEX
  5
9E12
  8
01
 10
-1425.76
 20
-2370.7620000000002
 30
0.0
 70
    32
  0
VERTEX
  5
9E13
  8
01
 10
-1425.8399999999999
 20
-2370.791999999999
 30
0.0
 70
    32
  0
VERTEX
  5
9E14
  8
01
 10
-1425.9300000000001
 20
-2370.8220000000001
 30
0.0
 70
    32
  0
VERTEX
  5
9E15
  8
01
 10
-1426.02
 20
-2370.8580000000002
 30
0.0
 70
    32
  0
VERTEX
  5
9E16
  8
01
 10
-1426.1099999999999
 20
-2370.8910000000001
 30
0.0
 70
    32
  0
VERTEX
  5
9E17
  8
01
 10
-1426.1900000000001
 20
-2370.9270000000001
 30
0.0
 70
    32
  0
VERTEX
  5
9E18
  8
01
 10
-1426.28
 20
-2370.9659999999999
 30
0.0
 70
    32
  0
VERTEX
  5
9E19
  8
01
 10
-1426.3699999999999
 20
-2371.0050000000001
 30
0.0
 70
    32
  0
VERTEX
  5
9E1A
  8
01
 10
-1426.45
 20
-2371.0439999999999
 30
0.0
 70
    32
  0
VERTEX
  5
9E1B
  8
01
 10
-1426.54
 20
-2371.0859999999998
 30
0.0
 70
    32
  0
VERTEX
  5
9E1C
  8
01
 10
-1426.6199999999999
 20
-2371.1280000000002
 30
0.0
 70
    32
  0
VERTEX
  5
9E1D
  8
01
 10
-1426.7
 20
-2371.1729999999998
 30
0.0
 70
    32
  0
VERTEX
  5
9E1E
  8
01
 10
-1426.78
 20
-2371.2179999999998
 30
0.0
 70
    32
  0
VERTEX
  5
9E1F
  8
01
 10
-1426.8699999999999
 20
-2371.2660000000001
 30
0.0
 70
    32
  0
VERTEX
  5
9E20
  8
01
 10
-1426.95
 20
-2371.3139999999999
 30
0.0
 70
    32
  0
VERTEX
  5
9E21
  8
01
 10
-1427.03
 20
-2371.3649999999998
 30
0.0
 70
    32
  0
VERTEX
  5
9E22
  8
01
 10
-1427.0999999999999
 20
-2371.4160000000002
 30
0.0
 70
    32
  0
VERTEX
  5
9E23
  8
01
 10
-1427.1800000000001
 20
-2371.4670000000001
 30
0.0
 70
    32
  0
VERTEX
  5
9E24
  8
01
 10
-1427.26
 20
-2371.5210000000002
 30
0.0
 70
    32
  0
VERTEX
  5
9E25
  8
01
 10
-1427.3399999999999
 20
-2371.5749999999998
 30
0.0
 70
    32
  0
VERTEX
  5
9E26
  8
01
 10
-1427.4100000000001
 20
-2371.6320000000001
 30
0.0
 70
    32
  0
VERTEX
  5
9E27
  8
01
 10
-1427.49
 20
-2371.6889999999999
 30
0.0
 70
    32
  0
VERTEX
  5
9E28
  8
01
 10
-1427.5599999999999
 20
-2371.7460000000001
 30
0.0
 70
    32
  0
VERTEX
  5
9E29
  8
01
 10
-1427.6300000000001
 20
-2371.806
 30
0.0
 70
    32
  0
VERTEX
  5
9E2A
  8
01
 10
-1427.7
 20
-2371.866
 30
0.0
 70
    32
  0
VERTEX
  5
9E2B
  8
01
 10
-1427.78
 20
-2371.9290000000001
 30
0.0
 70
    32
  0
VERTEX
  5
9E2C
  8
01
 10
-1427.8499999999999
 20
-2371.9920000000002
 30
0.0
 70
    32
  0
VERTEX
  5
9E2D
  8
01
 10
-1427.9100000000001
 20
-2372.0549999999998
 30
0.0
 70
    32
  0
VERTEX
  5
9E2E
  8
01
 10
-1427.98
 20
-2372.1210000000001
 30
0.0
 70
    32
  0
VERTEX
  5
9E2F
  8
01
 10
-1428.05
 20
-2372.1869999999999
 30
0.0
 70
    32
  0
VERTEX
  5
9E30
  8
01
 10
-1428.1099999999999
 20
-2372.2559999999999
 30
0.0
 70
    32
  0
VERTEX
  5
9E31
  8
01
 10
-1428.1800000000001
 20
-2372.3220000000001
 30
0.0
 70
    32
  0
VERTEX
  5
9E32
  8
01
 10
-1428.24
 20
-2372.3939999999998
 30
0.0
 70
    32
  0
VERTEX
  5
9E33
  8
01
 10
-1428.3
 20
-2372.4630000000002
 30
0.0
 70
    32
  0
VERTEX
  5
9E34
  8
01
 10
-1428.3599999999999
 20
-2372.5349999999999
 30
0.0
 70
    32
  0
VERTEX
  5
9E35
  8
01
 10
-1428.4200000000001
 20
-2372.607
 30
0.0
 70
    32
  0
VERTEX
  5
9E36
  8
01
 10
-1428.48
 20
-2372.6790000000001
 30
0.0
 70
    32
  0
VERTEX
  5
9E37
  8
01
 10
-1428.54
 20
-2372.7539999999999
 30
0.0
 70
    32
  0
VERTEX
  5
9E38
  8
01
 10
-1428.5999999999999
 20
-2372.8290000000002
 30
0.0
 70
    32
  0
VERTEX
  5
9E39
  8
01
 10
-1428.6500000000001
 20
-2372.9070000000002
 30
0.0
 70
    32
  0
VERTEX
  5
9E3A
  8
01
 10
-1428.71
 20
-2372.982
 30
0.0
 70
    32
  0
VERTEX
  5
9E3B
  8
01
 10
-1428.76
 20
-2373.0599999999999
 30
0.0
 70
    32
  0
VERTEX
  5
9E3C
  8
01
 10
-1428.8099999999999
 20
-2373.1379999999999
 30
0.0
 70
    32
  0
VERTEX
  5
9E3D
  8
01
 10
-1428.8599999999999
 20
-2373.2190000000001
 30
0.0
 70
    32
  0
VERTEX
  5
9E3E
  8
01
 10
-1428.9100000000001
 20
-2373.3000000000002
 30
0.0
 70
    32
  0
SEQEND
  5
9E3F
  8
01
  0
LINE
  5
9E40
  8
01
 10
-1428.9091000000001
 20
-2394.2988
 30
0.0
 11
-1428.9091000000001
 21
-2373.2988
 31
0.0
  0
LINE
  5
9E41
  8
01
 10
-1428.9091000000001
 20
-2373.2988
 30
0.0
 11
-1443.4091000000001
 21
-2373.2988
 31
0.0
  0
LINE
  5
9E42
  8
01
 10
-1418.9091000000001
 20
-2394.2988
 30
0.0
 11
-1418.9091000000001
 21
-2373.2988
 31
0.0
  0
LINE
  5
9E43
  8
01
 10
-1104.4091000000001
 20
-2373.2988
 30
0.0
 11
-1118.9091000000001
 21
-2373.2988
 31
0.0
  0
LINE
  5
9E44
  8
01
 10
-1128.9091000000001
 20
-2394.2988
 30
0.0
 11
-1128.9091000000001
 21
-2373.2988
 31
0.0
  0
LINE
  5
9E45
  8
01
 10
-1118.9091000000001
 20
-2394.2988
 30
0.0
 11
-1118.9091000000001
 21
-2373.2988
 31
0.0
  0
POLYLINE
  5
9E46
  8
01
 66
     1
 10
0.0
 20
0.0
 30
0.0
 70
     8
  0
VERTEX
  5
9E47
  8
01
 10
-1118.9100000000001
 20
-2373.3000000000002
 30
0.0
 70
    32
  0
VERTEX
  5
9E48
  8
01
 10
-1118.96
 20
-2373.2190000000001
 30
0.0
 70
    32
  0
VERTEX
  5
9E49
  8
01
 10
-1119.01
 20
-2373.1379999999999
 30
0.0
 70
    32
  0
VERTEX
  5
9E4A
  8
01
 10
-1119.0599999999999
 20
-2373.0599999999999
 30
0.0
 70
    32
  0
VERTEX
  5
9E4B
  8
01
 10
-1119.1099999999999
 20
-2372.982
 30
0.0
 70
    32
  0
VERTEX
  5
9E4C
  8
01
 10
-1119.1700000000001
 20
-2372.9070000000002
 30
0.0
 70
    32
  0
VERTEX
  5
9E4D
  8
01
 10
-1119.22
 20
-2372.8290000000002
 30
0.0
 70
    32
  0
VERTEX
  5
9E4E
  8
01
 10
-1119.28
 20
-2372.7539999999999
 30
0.0
 70
    32
  0
VERTEX
  5
9E4F
  8
01
 10
-1119.3299999999999
 20
-2372.6790000000001
 30
0.0
 70
    32
  0
VERTEX
  5
9E50
  8
01
 10
-1119.3900000000001
 20
-2372.607
 30
0.0
 70
    32
  0
VERTEX
  5
9E51
  8
01
 10
-1119.45
 20
-2372.5349999999999
 30
0.0
 70
    32
  0
VERTEX
  5
9E52
  8
01
 10
-1119.51
 20
-2372.4630000000002
 30
0.0
 70
    32
  0
VERTEX
  5
9E53
  8
01
 10
-1119.5799999999999
 20
-2372.3939999999998
 30
0.0
 70
    32
  0
VERTEX
  5
9E54
  8
01
 10
-1119.6400000000001
 20
-2372.3220000000001
 30
0.0
 70
    32
  0
VERTEX
  5
9E55
  8
01
 10
-1119.7
 20
-2372.2559999999999
 30
0.0
 70
    32
  0
VERTEX
  5
9E56
  8
01
 10
-1119.77
 20
-2372.1869999999999
 30
0.0
 70
    32
  0
VERTEX
  5
9E57
  8
01
 10
-1119.8399999999999
 20
-2372.1210000000001
 30
0.0
 70
    32
  0
VERTEX
  5
9E58
  8
01
 10
-1119.9000000000001
 20
-2372.0549999999998
 30
0.0
 70
    32
  0
VERTEX
  5
9E59
  8
01
 10
-1119.97
 20
-2371.9920000000002
 30
0.0
 70
    32
  0
VERTEX
  5
9E5A
  8
01
 10
-1120.04
 20
-2371.9290000000001
 30
0.0
 70
    32
  0
VERTEX
  5
9E5B
  8
01
 10
-1120.1099999999999
 20
-2371.866
 30
0.0
 70
    32
  0
VERTEX
  5
9E5C
  8
01
 10
-1120.1900000000001
 20
-2371.806
 30
0.0
 70
    32
  0
VERTEX
  5
9E5D
  8
01
 10
-1120.26
 20
-2371.7460000000001
 30
0.0
 70
    32
  0
VERTEX
  5
9E5E
  8
01
 10
-1120.3299999999999
 20
-2371.6889999999999
 30
0.0
 70
    32
  0
VERTEX
  5
9E5F
  8
01
 10
-1120.4100000000001
 20
-2371.6320000000001
 30
0.0
 70
    32
  0
VERTEX
  5
9E60
  8
01
 10
-1120.48
 20
-2371.5749999999998
 30
0.0
 70
    32
  0
VERTEX
  5
9E61
  8
01
 10
-1120.5599999999999
 20
-2371.5210000000002
 30
0.0
 70
    32
  0
VERTEX
  5
9E62
  8
01
 10
-1120.6400000000001
 20
-2371.4670000000001
 30
0.0
 70
    32
  0
VERTEX
  5
9E63
  8
01
 10
-1120.71
 20
-2371.4160000000002
 30
0.0
 70
    32
  0
VERTEX
  5
9E64
  8
01
 10
-1120.79
 20
-2371.3649999999998
 30
0.0
 70
    32
  0
VERTEX
  5
9E65
  8
01
 10
-1120.8699999999999
 20
-2371.3139999999999
 30
0.0
 70
    32
  0
VERTEX
  5
9E66
  8
01
 10
-1120.95
 20
-2371.2660000000001
 30
0.0
 70
    32
  0
VERTEX
  5
9E67
  8
01
 10
-1121.03
 20
-2371.2179999999998
 30
0.0
 70
    32
  0
VERTEX
  5
9E68
  8
01
 10
-1121.1199999999999
 20
-2371.1729999999998
 30
0.0
 70
    32
  0
VERTEX
  5
9E69
  8
01
 10
-1121.2
 20
-2371.1280000000002
 30
0.0
 70
    32
  0
VERTEX
  5
9E6A
  8
01
 10
-1121.28
 20
-2371.0859999999998
 30
0.0
 70
    32
  0
VERTEX
  5
9E6B
  8
01
 10
-1121.3699999999999
 20
-2371.0439999999999
 30
0.0
 70
    32
  0
VERTEX
  5
9E6C
  8
01
 10
-1121.45
 20
-2371.0050000000001
 30
0.0
 70
    32
  0
VERTEX
  5
9E6D
  8
01
 10
-1121.54
 20
-2370.9659999999999
 30
0.0
 70
    32
  0
VERTEX
  5
9E6E
  8
01
 10
-1121.6199999999999
 20
-2370.9270000000001
 30
0.0
 70
    32
  0
VERTEX
  5
9E6F
  8
01
 10
-1121.71
 20
-2370.8910000000001
 30
0.0
 70
    32
  0
VERTEX
  5
9E70
  8
01
 10
-1121.8
 20
-2370.8580000000002
 30
0.0
 70
    32
  0
VERTEX
  5
9E71
  8
01
 10
-1121.8900000000001
 20
-2370.8220000000001
 30
0.0
 70
    32
  0
VERTEX
  5
9E72
  8
01
 10
-1121.97
 20
-2370.791999999999
 30
0.0
 70
    32
  0
VERTEX
  5
9E73
  8
01
 10
-1122.0599999999999
 20
-2370.7620000000002
 30
0.0
 70
    32
  0
VERTEX
  5
9E74
  8
01
 10
-1122.1500000000001
 20
-2370.732
 30
0.0
 70
    32
  0
VERTEX
  5
9E75
  8
01
 10
-1122.24
 20
-2370.7049999999999
 30
0.0
 70
    32
  0
VERTEX
  5
9E76
  8
01
 10
-1122.3299999999999
 20
-2370.6780000000008
 30
0.0
 70
    32
  0
VERTEX
  5
9E77
  8
01
 10
-1122.4200000000001
 20
-2370.654
 30
0.0
 70
    32
  0
VERTEX
  5
9E78
  8
01
 10
-1122.51
 20
-2370.6300000000001
 30
0.0
 70
    32
  0
VERTEX
  5
9E79
  8
01
 10
-1122.5999999999999
 20
-2370.6089999999999
 30
0.0
 70
    32
  0
VERTEX
  5
9E7A
  8
01
 10
-1122.7
 20
-2370.5880000000011
 30
0.0
 70
    32
  0
VERTEX
  5
9E7B
  8
01
 10
-1122.79
 20
-2370.5700000000002
 30
0.0
 70
    32
  0
VERTEX
  5
9E7C
  8
01
 10
-1122.8800000000001
 20
-2370.5519999999992
 30
0.0
 70
    32
  0
VERTEX
  5
9E7D
  8
01
 10
-1122.97
 20
-2370.5369999999998
 30
0.0
 70
    32
  0
VERTEX
  5
9E7E
  8
01
 10
-1123.0699999999999
 20
-2370.5219999999999
 30
0.0
 70
    32
  0
VERTEX
  5
9E7F
  8
01
 10
-1123.1600000000001
 20
-2370.5100000000002
 30
0.0
 70
    32
  0
VERTEX
  5
9E80
  8
01
 10
-1123.25
 20
-2370.498
 30
0.0
 70
    32
  0
VERTEX
  5
9E81
  8
01
 10
-1123.3499999999999
 20
-2370.4859999999999
 30
0.0
 70
    32
  0
VERTEX
  5
9E82
  8
01
 10
-1123.4400000000001
 20
-2370.48
 30
0.0
 70
    32
  0
VERTEX
  5
9E83
  8
01
 10
-1123.53
 20
-2370.471
 30
0.0
 70
    32
  0
VERTEX
  5
9E84
  8
01
 10
-1123.6300000000001
 20
-2370.4679999999998
 30
0.0
 70
    32
  0
VERTEX
  5
9E85
  8
01
 10
-1123.72
 20
-2370.462
 30
0.0
 70
    32
  0
VERTEX
  5
9E86
  8
01
 10
-1123.8199999999999
 20
-2370.462
 30
0.0
 70
    32
  0
VERTEX
  5
9E87
  8
01
 10
-1123.9100000000001
 20
-2370.4589999999998
 30
0.0
 70
    32
  0
VERTEX
  5
9E88
  8
01
 10
-1124.0
 20
-2370.462
 30
0.0
 70
    32
  0
VERTEX
  5
9E89
  8
01
 10
-1124.0999999999999
 20
-2370.462
 30
0.0
 70
    32
  0
VERTEX
  5
9E8A
  8
01
 10
-1124.1900000000001
 20
-2370.4679999999998
 30
0.0
 70
    32
  0
VERTEX
  5
9E8B
  8
01
 10
-1124.28
 20
-2370.471
 30
0.0
 70
    32
  0
VERTEX
  5
9E8C
  8
01
 10
-1124.3800000000001
 20
-2370.48
 30
0.0
 70
    32
  0
VERTEX
  5
9E8D
  8
01
 10
-1124.47
 20
-2370.4859999999999
 30
0.0
 70
    32
  0
VERTEX
  5
9E8E
  8
01
 10
-1124.5699999999999
 20
-2370.498
 30
0.0
 70
    32
  0
VERTEX
  5
9E8F
  8
01
 10
-1124.6600000000001
 20
-2370.5100000000002
 30
0.0
 70
    32
  0
VERTEX
  5
9E90
  8
01
 10
-1124.75
 20
-2370.5219999999999
 30
0.0
 70
    32
  0
VERTEX
  5
9E91
  8
01
 10
-1124.8399999999999
 20
-2370.5369999999998
 30
0.0
 70
    32
  0
VERTEX
  5
9E92
  8
01
 10
-1124.9400000000001
 20
-2370.5519999999992
 30
0.0
 70
    32
  0
VERTEX
  5
9E93
  8
01
 10
-1125.03
 20
-2370.5700000000002
 30
0.0
 70
    32
  0
VERTEX
  5
9E94
  8
01
 10
-1125.1199999999999
 20
-2370.5880000000011
 30
0.0
 70
    32
  0
VERTEX
  5
9E95
  8
01
 10
-1125.21
 20
-2370.6089999999999
 30
0.0
 70
    32
  0
VERTEX
  5
9E96
  8
01
 10
-1125.3
 20
-2370.6300000000001
 30
0.0
 70
    32
  0
VERTEX
  5
9E97
  8
01
 10
-1125.4000000000001
 20
-2370.654
 30
0.0
 70
    32
  0
VERTEX
  5
9E98
  8
01
 10
-1125.49
 20
-2370.6780000000008
 30
0.0
 70
    32
  0
VERTEX
  5
9E99
  8
01
 10
-1125.5799999999999
 20
-2370.7049999999999
 30
0.0
 70
    32
  0
VERTEX
  5
9E9A
  8
01
 10
-1125.6700000000001
 20
-2370.732
 30
0.0
 70
    32
  0
VERTEX
  5
9E9B
  8
01
 10
-1125.76
 20
-2370.7620000000002
 30
0.0
 70
    32
  0
VERTEX
  5
9E9C
  8
01
 10
-1125.8399999999999
 20
-2370.791999999999
 30
0.0
 70
    32
  0
VERTEX
  5
9E9D
  8
01
 10
-1125.9300000000001
 20
-2370.8220000000001
 30
0.0
 70
    32
  0
VERTEX
  5
9E9E
  8
01
 10
-1126.02
 20
-2370.8580000000002
 30
0.0
 70
    32
  0
VERTEX
  5
9E9F
  8
01
 10
-1126.1099999999999
 20
-2370.8910000000001
 30
0.0
 70
    32
  0
VERTEX
  5
9EA0
  8
01
 10
-1126.1900000000001
 20
-2370.9270000000001
 30
0.0
 70
    32
  0
VERTEX
  5
9EA1
  8
01
 10
-1126.28
 20
-2370.9659999999999
 30
0.0
 70
    32
  0
VERTEX
  5
9EA2
  8
01
 10
-1126.3699999999999
 20
-2371.0050000000001
 30
0.0
 70
    32
  0
VERTEX
  5
9EA3
  8
01
 10
-1126.45
 20
-2371.0439999999999
 30
0.0
 70
    32
  0
VERTEX
  5
9EA4
  8
01
 10
-1126.54
 20
-2371.0859999999998
 30
0.0
 70
    32
  0
VERTEX
  5
9EA5
  8
01
 10
-1126.6199999999999
 20
-2371.1280000000002
 30
0.0
 70
    32
  0
VERTEX
  5
9EA6
  8
01
 10
-1126.7
 20
-2371.1729999999998
 30
0.0
 70
    32
  0
VERTEX
  5
9EA7
  8
01
 10
-1126.78
 20
-2371.2179999999998
 30
0.0
 70
    32
  0
VERTEX
  5
9EA8
  8
01
 10
-1126.8699999999999
 20
-2371.2660000000001
 30
0.0
 70
    32
  0
VERTEX
  5
9EA9
  8
01
 10
-1126.95
 20
-2371.3139999999999
 30
0.0
 70
    32
  0
VERTEX
  5
9EAA
  8
01
 10
-1127.03
 20
-2371.3649999999998
 30
0.0
 70
    32
  0
VERTEX
  5
9EAB
  8
01
 10
-1127.0999999999999
 20
-2371.4160000000002
 30
0.0
 70
    32
  0
VERTEX
  5
9EAC
  8
01
 10
-1127.1800000000001
 20
-2371.4670000000001
 30
0.0
 70
    32
  0
VERTEX
  5
9EAD
  8
01
 10
-1127.26
 20
-2371.5210000000002
 30
0.0
 70
    32
  0
VERTEX
  5
9EAE
  8
01
 10
-1127.3399999999999
 20
-2371.5749999999998
 30
0.0
 70
    32
  0
VERTEX
  5
9EAF
  8
01
 10
-1127.4100000000001
 20
-2371.6320000000001
 30
0.0
 70
    32
  0
VERTEX
  5
9EB0
  8
01
 10
-1127.49
 20
-2371.6889999999999
 30
0.0
 70
    32
  0
VERTEX
  5
9EB1
  8
01
 10
-1127.5599999999999
 20
-2371.7460000000001
 30
0.0
 70
    32
  0
VERTEX
  5
9EB2
  8
01
 10
-1127.6300000000001
 20
-2371.806
 30
0.0
 70
    32
  0
VERTEX
  5
9EB3
  8
01
 10
-1127.7
 20
-2371.866
 30
0.0
 70
    32
  0
VERTEX
  5
9EB4
  8
01
 10
-1127.78
 20
-2371.9290000000001
 30
0.0
 70
    32
  0
VERTEX
  5
9EB5
  8
01
 10
-1127.8499999999999
 20
-2371.9920000000002
 30
0.0
 70
    32
  0
VERTEX
  5
9EB6
  8
01
 10
-1127.9100000000001
 20
-2372.0549999999998
 30
0.0
 70
    32
  0
VERTEX
  5
9EB7
  8
01
 10
-1127.98
 20
-2372.1210000000001
 30
0.0
 70
    32
  0
VERTEX
  5
9EB8
  8
01
 10
-1128.05
 20
-2372.1869999999999
 30
0.0
 70
    32
  0
VERTEX
  5
9EB9
  8
01
 10
-1128.1099999999999
 20
-2372.2559999999999
 30
0.0
 70
    32
  0
VERTEX
  5
9EBA
  8
01
 10
-1128.1800000000001
 20
-2372.3220000000001
 30
0.0
 70
    32
  0
VERTEX
  5
9EBB
  8
01
 10
-1128.24
 20
-2372.3939999999998
 30
0.0
 70
    32
  0
VERTEX
  5
9EBC
  8
01
 10
-1128.3
 20
-2372.4630000000002
 30
0.0
 70
    32
  0
VERTEX
  5
9EBD
  8
01
 10
-1128.3599999999999
 20
-2372.5349999999999
 30
0.0
 70
    32
  0
VERTEX
  5
9EBE
  8
01
 10
-1128.4200000000001
 20
-2372.607
 30
0.0
 70
    32
  0
VERTEX
  5
9EBF
  8
01
 10
-1128.48
 20
-2372.6790000000001
 30
0.0
 70
    32
  0
VERTEX
  5
9EC0
  8
01
 10
-1128.54
 20
-2372.7539999999999
 30
0.0
 70
    32
  0
VERTEX
  5
9EC1
  8
01
 10
-1128.5999999999999
 20
-2372.8290000000002
 30
0.0
 70
    32
  0
VERTEX
  5
9EC2
  8
01
 10
-1128.6500000000001
 20
-2372.9070000000002
 30
0.0
 70
    32
  0
VERTEX
  5
9EC3
  8
01
 10
-1128.71
 20
-2372.982
 30
0.0
 70
    32
  0
VERTEX
  5
9EC4
  8
01
 10
-1128.76
 20
-2373.0599999999999
 30
0.0
 70
    32
  0
VERTEX
  5
9EC5
  8
01
 10
-1128.8099999999999
 20
-2373.1379999999999
 30
0.0
 70
    32
  0
VERTEX
  5
9EC6
  8
01
 10
-1128.8599999999999
 20
-2373.2190000000001
 30
0.0
 70
    32
  0
VERTEX
  5
9EC7
  8
01
 10
-1128.9100000000001
 20
-2373.3000000000002
 30
0.0
 70
    32
  0
SEQEND
  5
9EC8
  8
01
  0
LINE
  5
9EC9
  8
01
 10
-1118.9091000000001
 20
-2394.2988
 30
0.0
 11
-1128.9091000000001
 21
-2394.2988
 31
0.0
  0
LINE
  5
9ECA
  8
01
 10
-1103.9091000000001
 20
-2361.7988999999998
 30
0.0
 11
-1103.9091000000001
 21
-2372.799
 31
0.0
  0
LINE
  5
9ECB
  8
01
 10
-1104.4091000000001
 20
-2361.2988
 30
0.0
 11
-1103.9091000000001
 21
-2361.7988999999998
 31
0.0
  0
LINE
  5
9ECC
  8
01
 10
-1103.9091000000001
 20
-2372.799
 30
0.0
 11
-1104.4091000000001
 21
-2373.2988
 31
0.0
  0
TEXT
  5
9ECD
  8
1TEXT
 10
-1408.4272000000001
 20
-2271.2991000000002
 30
0.0
 40
10.40009999999984
  1
PA01-300
  0
TEXT
  5
9ECE
  8
1TEXT
 10
-1401.2720385714281
 20
-2461.4486999999999
 30
0.0
 40
5.1999000000000697
  1
表面処理：
 72
     1
 11
-1387.4304
 21
-2461.4486999999999
 31
0.0
  0
TEXT
  5
9ECF
  8
1TEXT
 10
-1404.9367299999999
 20
-2479.4346
 30
0.0
 40
5.1999000000000697
  1
黒アルマイト
 72
     1
 11
-1387.4304
 21
-2479.4346
 31
0.0
  0
LINE
  5
9ED0
  8
1DIM
 10
-1410.0504000000001
 20
-2454.2988
 30
0.0
 11
-1319.0504000000001
 21
-2454.2988
 31
0.0
  0
LINE
  5
9ED1
  8
1DIM
 10
-1410.0504000000001
 20
-2472.4989
 30
0.0
 11
-1319.0504000000001
 21
-2472.4989
 31
0.0
  0
LINE
  5
9ED2
  8
1DIM
 10
-1410.0504000000001
 20
-2463.3987000000002
 30
0.0
 11
-1319.0504000000001
 21
-2463.3987000000002
 31
0.0
  0
LINE
  5
9ED3
  8
1DIM
 10
-1410.0504000000001
 20
-2481.5988000000002
 30
0.0
 11
-1319.0504000000001
 21
-2481.5988000000002
 31
0.0
  0
LINE
  5
9ED4
  8
1DIM
 10
-1410.0504000000001
 20
-2481.5988000000002
 30
0.0
 11
-1319.0504000000001
 21
-2481.5988000000002
 31
0.0
  0
LINE
  5
9ED5
  8
1DIM
 10
-1364.5504000000001
 20
-2454.2988
 30
0.0
 11
-1364.5504000000001
 21
-2481.5988000000002
 31
0.0
  0
TEXT
  5
9ED6
  8
1TEXT
 10
-1359.696725
 20
-2479.9274999999998
 30
0.0
 40
5.1999000000000697
  1
PA01K300
 72
     1
 11
-1341.9304
 21
-2479.9274999999998
 31
0.0
  0
TEXT
  5
9ED7
  8
1TEXT
 10
-1359.696725
 20
-2470.8276000000001
 30
0.0
 40
5.1999000000000697
  1
PA01S300
 72
     1
 11
-1341.9304
 21
-2470.8276000000001
 31
0.0
  0
TEXT
  5
9ED8
  8
1TEXT
 10
-1350.7702300000001
 20
-2461.4486999999999
 30
0.0
 40
5.1999000000000697
  1
コード
 72
     1
 11
-1341.9304
 21
-2461.4486999999999
 31
0.0
  0
LINE
  5
9ED9
  8
1DIM
 10
-1410.0504000000001
 20
-2481.5988000000002
 30
0.0
 11
-1410.0504000000001
 21
-2454.2988
 31
0.0
  0
LINE
  5
9EDA
  8
1DIM
 10
-1319.0504000000001
 20
-2481.5988000000002
 30
0.0
 11
-1319.0504000000001
 21
-2454.2988
 31
0.0
  0
LINE
  5
9EDB
  8
1CENTER
 10
-1423.9091000000001
 20
-2384.2988999999998
 30
0.0
 11
-1423.9091000000001
 21
-2396.2988999999998
 31
0.0
  0
LINE
  5
9EDC
  8
1CENTER
 10
-1123.9091000000001
 20
-2384.2988999999998
 30
0.0
 11
-1123.9091000000001
 21
-2396.2988999999998
 31
0.0
  0
LINE
  5
9EDD
  8
1CENTER
 10
-1057.9091000000001
 20
-2384.2988999999998
 30
0.0
 11
-1057.9091000000001
 21
-2396.2988999999998
 31
0.0
  0
LINE
  5
9EDE
  8
1DIM
 10
-1423.9091000000001
 20
-2396.2988999999998
 30
0.0
 11
-1423.9091000000001
 21
-2425.5990000000002
 31
0.0
  0
LINE
  5
9EDF
  8
1DIM
 10
-1123.9091000000001
 20
-2396.2988999999998
 30
0.0
 11
-1123.9091000000001
 21
-2425.5990000000002
 31
0.0
  0
LINE
  5
9EE0
  8
1DIM
 10
-1421.3090999999999
 20
-2424.2988
 30
0.0
 11
-1126.5091
 21
-2424.2988
 31
0.0
  0
LINE
  5
9EE1
  8
0
  6
BYBLOCK
 10
-1421.3090999999999
 20
-2424.9953999999998
 30
0.0
 11
-1423.9091000000001
 21
-2424.2988
 31
0.0
  0
LINE
  5
9EE2
  8
0
  6
BYBLOCK
 10
-1423.9091000000001
 20
-2424.2988
 30
0.0
 11
-1421.3090999999999
 21
-2423.6021999999998
 31
0.0
  0
LINE
  5
9EE3
  8
0
  6
BYBLOCK
 10
-1423.9091000000001
 20
-2424.2988
 30
0.0
 11
-1421.3090999999999
 21
-2424.2988
 31
0.0
  0
LINE
  5
9EE4
  8
0
  6
BYBLOCK
 10
-1126.5091
 20
-2423.6021999999998
 30
0.0
 11
-1123.9091000000001
 21
-2424.2988
 31
0.0
  0
LINE
  5
9EE5
  8
0
  6
BYBLOCK
 10
-1123.9091000000001
 20
-2424.2988
 30
0.0
 11
-1126.5091
 21
-2424.9953999999998
 31
0.0
  0
LINE
  5
9EE6
  8
0
  6
BYBLOCK
 10
-1123.9091000000001
 20
-2424.2988
 30
0.0
 11
-1126.5091
 21
-2424.2988
 31
0.0
  0
TEXT
  5
9EE7
  8
1DIM
 10
-1281.4925000000001
 20
-2423.3888999999999
 30
0.0
 40
4.5500999999999294
  1
P300 
  0
LINE
  5
9EE8
  8
1DIM
 10
-1418.9091000000001
 20
-2394.2988
 30
0.0
 11
-1418.9091000000001
 21
-2415.5988000000011
 31
0.0
  0
LINE
  5
9EE9
  8
1DIM
 10
-1128.9091000000001
 20
-2394.2988
 30
0.0
 11
-1128.9091000000001
 21
-2415.5988000000011
 31
0.0
  0
LINE
  5
9EEA
  8
1DIM
 10
-1416.3090999999999
 20
-2414.2988999999998
 30
0.0
 11
-1131.5091
 21
-2414.2988999999998
 31
0.0
  0
LINE
  5
9EEB
  8
0
  6
BYBLOCK
 10
-1416.3090999999999
 20
-2414.9955
 30
0.0
 11
-1418.9091000000001
 21
-2414.2988999999998
 31
0.0
  0
LINE
  5
9EEC
  8
0
  6
BYBLOCK
 10
-1418.9091000000001
 20
-2414.2988999999998
 30
0.0
 11
-1416.3090999999999
 21
-2413.6023
 31
0.0
  0
LINE
  5
9EED
  8
0
  6
BYBLOCK
 10
-1418.9091000000001
 20
-2414.2988999999998
 30
0.0
 11
-1416.3090999999999
 21
-2414.2988999999998
 31
0.0
  0
LINE
  5
9EEE
  8
0
  6
BYBLOCK
 10
-1131.5091
 20
-2413.6023
 30
0.0
 11
-1128.9091000000001
 21
-2414.2988999999998
 31
0.0
  0
LINE
  5
9EEF
  8
0
  6
BYBLOCK
 10
-1128.9091000000001
 20
-2414.2988999999998
 30
0.0
 11
-1131.5091
 21
-2414.9955
 31
0.0
  0
LINE
  5
9EF0
  8
0
  6
BYBLOCK
 10
-1128.9091000000001
 20
-2414.2988999999998
 30
0.0
 11
-1131.5091
 21
-2414.2988999999998
 31
0.0
  0
TEXT
  5
9EF1
  8
1DIM
 10
-1279.5966000000001
 20
-2413.3890000000001
 30
0.0
 40
4.5500999999999294
  1
290 
  0
LINE
  5
9EF2
  8
1DIM
 10
-1118.9091000000001
 20
-2394.2988
 30
0.0
 11
-1082.6090999999999
 21
-2394.2988
 31
0.0
  0
LINE
  5
9EF3
  8
1DIM
 10
-1104.4091000000001
 20
-2373.2988
 30
0.0
 11
-1082.6090999999999
 21
-2373.2988
 31
0.0
  0
LINE
  5
9EF4
  8
1DIM
 10
-1083.9091000000001
 20
-2391.6990000000001
 30
0.0
 11
-1083.9091000000001
 21
-2375.898900000001
 31
0.0
  0
LINE
  5
9EF5
  8
0
  6
BYBLOCK
 10
-1083.2125000000001
 20
-2391.6990000000001
 30
0.0
 11
-1083.9091000000001
 21
-2394.2988
 31
0.0
  0
LINE
  5
9EF6
  8
0
  6
BYBLOCK
 10
-1083.9091000000001
 20
-2394.2988
 30
0.0
 11
-1084.6058
 21
-2391.6990000000001
 31
0.0
  0
LINE
  5
9EF7
  8
0
  6
BYBLOCK
 10
-1083.9091000000001
 20
-2394.2988
 30
0.0
 11
-1083.9091000000001
 21
-2391.6990000000001
 31
0.0
  0
LINE
  5
9EF8
  8
0
  6
BYBLOCK
 10
-1084.6058
 20
-2375.898900000001
 30
0.0
 11
-1083.9091000000001
 21
-2373.2988
 31
0.0
  0
LINE
  5
9EF9
  8
0
  6
BYBLOCK
 10
-1083.9091000000001
 20
-2373.2988
 30
0.0
 11
-1083.2125000000001
 21
-2375.898900000001
 31
0.0
  0
LINE
  5
9EFA
  8
0
  6
BYBLOCK
 10
-1083.9091000000001
 20
-2373.2988
 30
0.0
 11
-1083.9091000000001
 21
-2375.898900000001
 31
0.0
  0
TEXT
  5
9EFB
  8
1DIM
 10
-1084.8190999999999
 20
-2386.8321000000001
 30
0.0
 40
4.5499999999999536
  1
21 
 50
90.0
 41
0.9998999999998076
  0
LINE
  5
9EFC
  8
1DIM
 10
-1118.9091000000001
 20
-2394.2988
 30
0.0
 11
-1072.6090999999999
 21
-2394.2988
 31
0.0
  0
LINE
  5
9EFD
  8
1DIM
 10
-1104.4091000000001
 20
-2361.2988
 30
0.0
 11
-1072.6090999999999
 21
-2361.2988
 31
0.0
  0
LINE
  5
9EFE
  8
1DIM
 10
-1073.9091000000001
 20
-2391.6990000000001
 30
0.0
 11
-1073.9091000000001
 21
-2363.8989000000001
 31
0.0
  0
LINE
  5
9EFF
  8
0
  6
BYBLOCK
 10
-1073.2125000000001
 20
-2391.6990000000001
 30
0.0
 11
-1073.9091000000001
 21
-2394.2988
 31
0.0
  0
LINE
  5
9F00
  8
0
  6
BYBLOCK
 10
-1073.9091000000001
 20
-2394.2988
 30
0.0
 11
-1074.6058
 21
-2391.6990000000001
 31
0.0
  0
LINE
  5
9F01
  8
0
  6
BYBLOCK
 10
-1073.9091000000001
 20
-2394.2988
 30
0.0
 11
-1073.9091000000001
 21
-2391.6990000000001
 31
0.0
  0
LINE
  5
9F02
  8
0
  6
BYBLOCK
 10
-1074.6058
 20
-2363.8989000000001
 30
0.0
 11
-1073.9091000000001
 21
-2361.2988
 31
0.0
  0
LINE
  5
9F03
  8
0
  6
BYBLOCK
 10
-1073.9091000000001
 20
-2361.2988
 30
0.0
 11
-1073.2125000000001
 21
-2363.8989000000001
 31
0.0
  0
LINE
  5
9F04
  8
0
  6
BYBLOCK
 10
-1073.9091000000001
 20
-2361.2988
 30
0.0
 11
-1073.9091000000001
 21
-2363.8989000000001
 31
0.0
  0
TEXT
  5
9F05
  8
1DIM
 10
-1074.8190999999999
 20
-2381.5905000000012
 30
0.0
 40
4.5499999999999536
  1
33 
 50
90.0
 41
0.9999000000002624
  0
LINE
  5
9F06
  8
1DIM
 10
-1418.9091000000001
 20
-2394.2988
 30
0.0
 11
-1418.9091000000001
 21
-2415.5988000000011
 31
0.0
  0
LINE
  5
9F07
  8
1DIM
 10
-1428.9091000000001
 20
-2394.2988
 30
0.0
 11
-1428.9091000000001
 21
-2415.5988000000011
 31
0.0
  0
LINE
  5
9F08
  8
1DIM
 10
-1421.5091
 20
-2414.2988999999998
 30
0.0
 11
-1426.3090999999999
 21
-2414.2988999999998
 31
0.0
  0
LINE
  5
9F09
  8
1DIM
 10
-1428.9091000000001
 20
-2414.2988999999998
 30
0.0
 11
-1445.8958
 21
-2414.2988999999998
 31
0.0
  0
LINE
  5
9F0A
  8
0
  6
BYBLOCK
 10
-1421.5091
 20
-2413.6023
 30
0.0
 11
-1418.9091000000001
 21
-2414.2988999999998
 31
0.0
  0
LINE
  5
9F0B
  8
0
  6
BYBLOCK
 10
-1418.9091000000001
 20
-2414.2988999999998
 30
0.0
 11
-1421.5091
 21
-2414.9955
 31
0.0
  0
LINE
  5
9F0C
  8
0
  6
BYBLOCK
 10
-1418.9091000000001
 20
-2414.2988999999998
 30
0.0
 11
-1421.5091
 21
-2414.2988999999998
 31
0.0
  0
LINE
  5
9F0D
  8
0
  6
BYBLOCK
 10
-1426.3090999999999
 20
-2414.9955
 30
0.0
 11
-1428.9091000000001
 21
-2414.2988999999998
 31
0.0
  0
LINE
  5
9F0E
  8
0
  6
BYBLOCK
 10
-1428.9091000000001
 20
-2414.2988999999998
 30
0.0
 11
-1426.3090999999999
 21
-2413.6023
 31
0.0
  0
LINE
  5
9F0F
  8
0
  6
BYBLOCK
 10
-1428.9091000000001
 20
-2414.2988999999998
 30
0.0
 11
-1426.3090999999999
 21
-2414.2988999999998
 31
0.0
  0
TEXT
  5
9F10
  8
1DIM
 10
-1444.5416
 20
-2413.3890000000001
 30
0.0
 40
4.5500999999999294
  1
φ10
  0
LINE
  5
9F11
  8
1CENTER
 10
-1423.9091000000001
 20
-2298.2991000000002
 30
0.0
 11
-1423.9091000000001
 21
-2292.2991000000011
 31
0.0
  0
LINE
  5
9F12
  8
1CENTER
 10
-1426.9091000000001
 20
-2295.2991000000002
 30
0.0
 11
-1420.9091000000001
 21
-2295.2991000000002
 31
0.0
  0
LINE
  5
9F13
  8
1CENTER
 10
-1123.9091000000001
 20
-2298.2991000000002
 30
0.0
 11
-1123.9091000000001
 21
-2292.2991000000011
 31
0.0
  0
LINE
  5
9F14
  8
1CENTER
 10
-1126.9091000000001
 20
-2295.2991000000002
 30
0.0
 11
-1120.9091000000001
 21
-2295.2991000000002
 31
0.0
  0
TEXT
  5
9F15
  8
1TEXT
 10
-1403.8818100000001
 20
-2449.4031
 30
0.0
 40
5.1999000000000697
  1
材質：アルミニウム
 72
     1
 11
-1376.6690000000001
 21
-2449.4031
 31
0.0
  0
SOLID
  5
9F16
  8
1DIM
 10
-1059.3021000000001
 20
-2396.5365000000002
 30
0.0
 11
-1057.9091000000001
 21
-2394.2988
 31
0.0
 12
-1058.501
 22
-2396.8674000000001
 32
0.0
 13
-1058.501
 23
-2396.8674000000001
 33
0.0
1001
ACAD
1000
DSTYLE
1002
{
1070
    40
1040
1.3
1002
}
  0
LINE
  5
9F17
  8
1DIM
 10
-1058.9014999999999
 20
-2396.7021
 30
0.0
 11
-1065.46
 21
-2412.5838000000008
 31
0.0
1001
ACAD
1000
DSTYLE
1002
{
1070
    40
1040
1.3
1002
}
  0
LINE
  5
9F18
  8
1DIM
 10
-1065.46
 20
-2412.5838000000008
 30
0.0
 11
-1091.2867000000001
 21
-2412.5838000000008
 31
0.0
1001
ACAD
1000
DSTYLE
1002
{
1070
    40
1040
1.3
1002
}
  0
TEXT
  5
9F19
  8
1TEXT
 10
-1087.9284
 20
-2411.6738999999998
 30
0.0
 40
4.5500999999999294
  1
M4-10
  0
LINE
  5
9F1A
  8
1DIM
 10
-1104.4091000000001
 20
-2301.2991000000002
 30
0.0
 11
-1082.6090999999999
 21
-2301.2991000000002
 31
0.0
  0
LINE
  5
9F1B
  8
1DIM
 10
-1104.4091000000001
 20
-2289.2991000000002
 30
0.0
 11
-1082.6090999999999
 21
-2289.2991000000002
 31
0.0
  0
LINE
  5
9F1C
  8
1DIM
 10
-1083.9091000000001
 20
-2298.6990000000001
 30
0.0
 11
-1083.9091000000001
 21
-2291.8989000000001
 31
0.0
  0
LINE
  5
9F1D
  8
1DIM
 10
-1083.9091000000001
 20
-2289.2991000000002
 30
0.0
 11
-1083.9091000000001
 21
-2272.3125
 31
0.0
  0
LINE
  5
9F1E
  8
0
  6
BYBLOCK
 10
-1083.2125000000001
 20
-2298.6990000000001
 30
0.0
 11
-1083.9091000000001
 21
-2301.2991000000002
 31
0.0
  0
LINE
  5
9F1F
  8
0
  6
BYBLOCK
 10
-1083.9091000000001
 20
-2301.2991000000002
 30
0.0
 11
-1084.6058
 21
-2298.6990000000001
 31
0.0
  0
LINE
  5
9F20
  8
0
  6
BYBLOCK
 10
-1083.9091000000001
 20
-2301.2991000000002
 30
0.0
 11
-1083.9091000000001
 21
-2298.6990000000001
 31
0.0
  0
LINE
  5
9F21
  8
0
  6
BYBLOCK
 10
-1084.6058
 20
-2291.8989000000001
 30
0.0
 11
-1083.9091000000001
 21
-2289.2991000000002
 31
0.0
  0
LINE
  5
9F22
  8
0
  6
BYBLOCK
 10
-1083.9091000000001
 20
-2289.2991000000002
 30
0.0
 11
-1083.2125000000001
 21
-2291.8989000000001
 31
0.0
  0
LINE
  5
9F23
  8
0
  6
BYBLOCK
 10
-1083.9091000000001
 20
-2289.2991000000002
 30
0.0
 11
-1083.9091000000001
 21
-2291.8989000000001
 31
0.0
  0
TEXT
  5
9F24
  8
1DIM
 10
-1084.8190999999999
 20
-2285.7240000000002
 30
0.0
 40
4.5499999999999536
  1
φ12
 50
90.0
 41
0.9999000000002624
  0
LINE
  5
9F25
  8
1DIM
 10
-1443.9091000000001
 20
-2300.799
 30
0.0
 11
-1443.9091000000001
 21
-2322.5990999999999
 31
0.0
  0
LINE
  5
9F26
  8
1DIM
 10
-1103.9091000000001
 20
-2300.799
 30
0.0
 11
-1103.9091000000001
 21
-2322.5990999999999
 31
0.0
  0
LINE
  5
9F27
  8
1DIM
 10
-1441.3090999999999
 20
-2321.2988999999998
 30
0.0
 11
-1106.5091
 21
-2321.2988999999998
 31
0.0
  0
LINE
  5
9F28
  8
0
  6
BYBLOCK
 10
-1441.3090999999999
 20
-2321.9958000000001
 30
0.0
 11
-1443.9091000000001
 21
-2321.2988999999998
 31
0.0
  0
LINE
  5
9F29
  8
0
  6
BYBLOCK
 10
-1443.9091000000001
 20
-2321.2988999999998
 30
0.0
 11
-1441.3090999999999
 21
-2320.6023
 31
0.0
  0
LINE
  5
9F2A
  8
0
  6
BYBLOCK
 10
-1443.9091000000001
 20
-2321.2988999999998
 30
0.0
 11
-1441.3090999999999
 21
-2321.2988999999998
 31
0.0
  0
LINE
  5
9F2B
  8
0
  6
BYBLOCK
 10
-1106.5091
 20
-2320.6023
 30
0.0
 11
-1103.9091000000001
 21
-2321.2988999999998
 31
0.0
  0
LINE
  5
9F2C
  8
0
  6
BYBLOCK
 10
-1103.9091000000001
 20
-2321.2988999999998
 30
0.0
 11
-1106.5091
 21
-2321.9958000000001
 31
0.0
  0
LINE
  5
9F2D
  8
0
  6
BYBLOCK
 10
-1103.9091000000001
 20
-2321.2988999999998
 30
0.0
 11
-1106.5091
 21
-2321.2988999999998
 31
0.0
  0
TEXT
  5
9F2E
  8
1DIM
 10
-1279.5966000000001
 20
-2320.3890000000001
 30
0.0
 40
4.5500999999999294
  1
340 
  0
TEXT
  5
9F2F
  8
1TEXT
 10
-1404.6992
 20
-2470.3065000000001
 30
0.0
 40
5.1999000000000697
  1
ブラストアルマイト
 41
0.6999999999999602
  0
VIEWPORT
  5
57
 67
     1
  8
0
 10
5.6154163991372421
 20
3.9020832317081959
 30
0.0
 40
12.7102895252974
 41
8.7461330960491512
 68
     1
 69
     1
1001
ACAD
1000
MVIEW
1002
{
1070
    16
1010
0.0
1020
0.0
1030
0.0
1010
0.0
1020
0.0
1030
1.0
1040
0.0
1040
8.7461330960491512
1040
5.6154163991372421
1040
3.9020832317081959
1040
50.0
1040
0.0
1040
0.0
1070
     0
1070
   100
1070
     1
1070
     1
1070
     0
1070
     0
1070
     0
1070
     0
1040
0.0
1040
0.0
1040
0.0
1040
10.0
1040
10.0
1040
10.0
1040
10.0
1070
     0
1002
{
1002
}
1002
}
  0
ENDSEC
  0
EOF
