  0
SECTION
  2
HEADER
  9
$ACADVER
  1
AC1009
  9
$INSBASE
 10
0.0
 20
0.0
 30
0.0
  9
$EXTMIN
 10
-1218.8145999999999
 20
-2690.7777000000001
 30
0.0
  9
$EXTMAX
 10
-840.67780000000005
 20
-2478.2777999999989
 30
0.0
  9
$LIMMIN
 10
0.0
 20
0.0
  9
$LIMMAX
 10
420.0
 20
297.0
  9
$ORTHOMODE
 70
     0
  9
$REGENMODE
 70
     1
  9
$FILLMODE
 70
     1
  9
$QTEXTMODE
 70
     0
  9
$MIRRTEXT
 70
     1
  9
$DRAGMODE
 70
     2
  9
$LTSCALE
 40
0.5
  9
$OSMODE
 70
  2173
  9
$ATTMODE
 70
     1
  9
$TEXTSIZE
 40
4.0
  9
$TRACEWID
 40
1.0
  9
$TEXTSTYLE
  7
STANDARD
  9
$CLAYER
  8
1TEXT
  9
$CELTYPE
  6
BYLAYER
  9
$CECOLOR
 62
   256
  9
$DIMSCALE
 40
1.0
  9
$DIMASZ
 40
2.0
  9
$DIMEXO
 40
0.0
  9
$DIMDLI
 40
7.0
  9
$DIMRND
 40
0.0
  9
$DIMDLE
 40
0.0
  9
$DIMEXE
 40
1.0
  9
$DIMTP
 40
0.0
  9
$DIMTM
 40
0.0
  9
$DIMTXT
 40
3.5
  9
$DIMCEN
 40
0.0
  9
$DIMTSZ
 40
0.0
  9
$DIMTOL
 70
     0
  9
$DIMLIM
 70
     0
  9
$DIMTIH
 70
     0
  9
$DIMTOH
 70
     0
  9
$DIMSE1
 70
     0
  9
$DIMSE2
 70
     0
  9
$DIMTAD
 70
     1
  9
$DIMZIN
 70
     8
  9
$DIMBLK
  1

  9
$DIMASO
 70
     1
  9
$DIMSHO
 70
     1
  9
$DIMPOST
  1
 
  9
$DIMAPOST
  1

  9
$DIMALT
 70
     0
  9
$DIMALTD
 70
     2
  9
$DIMALTF
 40
25.399999999999999
  9
$DIMLFAC
 40
1.0
  9
$DIMTOFL
 70
     1
  9
$DIMTVP
 40
0.0
  9
$DIMTIX
 70
     0
  9
$DIMSOXD
 70
     0
  9
$DIMSAH
 70
     1
  9
$DIMBLK1
  1
OPEN30
  9
$DIMBLK2
  1
OPEN30
  9
$DIMSTYLE
  2
NEWX10
  9
$DIMCLRD
 70
   256
  9
$DIMCLRE
 70
   256
  9
$DIMCLRT
 70
   201
  9
$DIMTFAC
 40
0.7
  9
$DIMGAP
 40
0.7
  9
$LUNITS
 70
     2
  9
$LUPREC
 70
     4
  9
$SKETCHINC
 40
1.0
  9
$FILLETRAD
 40
0.0
  9
$AUNITS
 70
     0
  9
$AUPREC
 70
     2
  9
$MENU
  1
acad
  9
$ELEVATION
 40
0.0
  9
$PELEVATION
 40
0.0
  9
$THICKNESS
 40
0.0
  9
$LIMCHECK
 70
     0
  9
$BLIPMODE
 70
     0
  9
$CHAMFERA
 40
10.0
  9
$CHAMFERB
 40
10.0
  9
$SKPOLY
 70
     0
  9
$TDCREATE
 40
2453033.7327000001
  9
$TDUPDATE
 40
2453335.4898967361
  9
$TDINDWG
 40
0.2267227894
  9
$TDUSRTIMER
 40
0.2267227894
  9
$USRTIMER
 70
     1
  9
$ANGBASE
 50
0.0
  9
$ANGDIR
 70
     0
  9
$PDMODE
 70
     0
  9
$PDSIZE
 40
0.0
  9
$PLINEWID
 40
0.0
  9
$COORDS
 70
     2
  9
$SPLFRAME
 70
     0
  9
$SPLINETYPE
 70
     6
  9
$SPLINESEGS
 70
     8
  9
$ATTDIA
 70
     0
  9
$ATTREQ
 70
     1
  9
$HANDLING
 70
     1
  9
$HANDSEED
  5
91E4
  9
$SURFTAB1
 70
     6
  9
$SURFTAB2
 70
     6
  9
$SURFTYPE
 70
     6
  9
$SURFU
 70
     6
  9
$SURFV
 70
     6
  9
$UCSNAME
  2

  9
$UCSORG
 10
0.0
 20
0.0
 30
0.0
  9
$UCSXDIR
 10
1.0
 20
0.0
 30
0.0
  9
$UCSYDIR
 10
0.0
 20
1.0
 30
0.0
  9
$PUCSNAME
  2

  9
$PUCSORG
 10
0.0
 20
0.0
 30
0.0
  9
$PUCSXDIR
 10
1.0
 20
0.0
 30
0.0
  9
$PUCSYDIR
 10
0.0
 20
1.0
 30
0.0
  9
$USERI1
 70
     0
  9
$USERI2
 70
     0
  9
$USERI3
 70
     0
  9
$USERI4
 70
     0
  9
$USERI5
 70
     0
  9
$USERR1
 40
0.0
  9
$USERR2
 40
0.0
  9
$USERR3
 40
0.0
  9
$USERR4
 40
0.0
  9
$USERR5
 40
0.0
  9
$WORLDVIEW
 70
     1
  9
$SHADEDGE
 70
     3
  9
$SHADEDIF
 70
    70
  9
$TILEMODE
 70
     1
  9
$MAXACTVP
 70
    48
  9
$PLIMCHECK
 70
     0
  9
$PEXTMIN
 10
1.0000000000000000E+020
 20
1.0000000000000000E+020
 30
1.0000000000000000E+020
  9
$PEXTMAX
 10
-1.0000000000000000E+020
 20
-1.0000000000000000E+020
 30
-1.0000000000000000E+020
  9
$PLIMMIN
 10
0.0
 20
0.0
  9
$PLIMMAX
 10
420.0
 20
297.0
  9
$UNITMODE
 70
     0
  9
$VISRETAIN
 70
     1
  9
$PLINEGEN
 70
     0
  9
$PSLTSCALE
 70
     1
  0
ENDSEC
  0
SECTION
  2
TABLES
  0
TABLE
  2
VPORT
 70
     4
  0
VPORT
  2
*ACTIVE
 70
     0
 10
0.0
 20
0.0
 11
1.0
 21
1.0
 12
-1029.7462
 22
-2584.5277499999988
 13
0.0
 23
0.0
 14
10.0
 24
10.0
 15
10.0
 25
10.0
 16
0.0
 26
0.0
 36
1.0
 17
0.0
 27
0.0
 37
0.0
 40
275.3628891609228
 41
1.453246753246753
 42
50.0
 43
0.0
 44
0.0
 50
0.0
 51
0.0
 71
     0
 72
   100
 73
     1
 74
     1
 75
     0
 76
     0
 77
     0
 78
     0
  0
ENDTAB
  0
TABLE
  2
LTYPE
 70
     4
  0
LTYPE
  2
CONTINUOUS
 70
     0
  3
Solid line
 72
    65
 73
     0
 40
0.0
  0
LTYPE
  2
CENTER2
 70
     0
  3
Center (.5x) ___ _ ___ _ ___ _ ___ _ ___ _ ___
 72
    65
 73
     4
 40
28.574999999999999
 49
19.050000000000001
 49
-3.1749999999999989
 49
3.1749999999999989
 49
-3.1749999999999989
  0
ENDTAB
  0
TABLE
  2
LAYER
 70
    11
  0
LAYER
  2
0
 70
     0
 62
     7
  6
CONTINUOUS
  0
LAYER
  2
1TEXT
 70
     0
 62
     7
  6
CONTINUOUS
  0
LAYER
  2
1CENTER
 70
     0
 62
     7
  6
CENTER2
  0
LAYER
  2
1DIM
 70
     0
 62
     7
  6
CONTINUOUS
  0
LAYER
  2
01
 70
     0
 62
     1
  6
CONTINUOUS
  0
ENDTAB
  0
TABLE
  2
STYLE
 70
     1
  0
STYLE
  2
STANDARD
 70
     0
 40
0.0
 41
1.0
 50
0.0
 71
     0
 42
4.0
  3
txt.shx
  4
extfont.shx
  0
ENDTAB
  0
TABLE
  2
VIEW
 70
     0
  0
ENDTAB
  0
TABLE
  2
UCS
 70
     0
  0
ENDTAB
  0
TABLE
  2
APPID
 70
     9
  0
APPID
  2
ACAD
 70
     0
  0
APPID
  2
DRAWINGVARIABLESXDATA
 70
     0
  0
APPID
  2
CONTENTTABDATA
 70
     0
  0
APPID
  2
CONTENTCURRENTTAB
 70
     0
  0
APPID
  2
CONTENTBLOCKDESCRIPTION
 70
     0
  0
APPID
  2
CONTENTBLOCKICON
 70
     0
  0
APPID
  2
CONTENTLONGBLOCKNAME
 70
     0
  0
APPID
  2
ACAD_PSEXT
 70
     0
  0
APPID
  2
ACAD_DSTYLE_DIMTEXT_FILL
 70
     0
  0
ENDTAB
  0
TABLE
  2
DIMSTYLE
 70
     1
  0
DIMSTYLE
  2
NEWX10
 70
     0
  3
 
  4

  5

  6

  7

 40
1.0
 41
2.0
 42
0.0
 43
7.0
 44
1.0
 45
0.0
 46
0.0
 47
0.0
 48
0.0
140
3.5
141
0.0
142
0.0
143
25.399999999999999
144
1.0
145
0.0
146
0.7
147
0.7
 71
     0
 72
     0
 73
     0
 74
     0
 75
     0
 76
     0
 77
     1
 78
     8
170
     0
171
     2
172
     1
173
     1
174
     0
175
     0
176
   256
177
   256
178
   201
  0
ENDTAB
  0
ENDSEC
  0
SECTION
  2
BLOCKS
  0
BLOCK
  8
0
  2
$MODEL_SPACE
 70
     0
 10
0.0
 20
0.0
 30
0.0
  3
$MODEL_SPACE
  1

  0
ENDBLK
  5
8D6D
  8
0
  0
BLOCK
 67
     1
  8
0
  2
$PAPER_SPACE
 70
     0
 10
0.0
 20
0.0
 30
0.0
  3
$PAPER_SPACE
  1

  0
ENDBLK
  5
8D69
 67
     1
  8
0
  0
BLOCK
  8
0
  2
_OPEN30
 70
     0
 10
0.0
 20
0.0
 30
0.0
  3
_OPEN30
  1

  0
LINE
  5
44
  8
0
  6
BYBLOCK
 62
     0
 10
-1.0
 20
0.2679
 30
0.0
 11
0.0
 21
0.0
 31
0.0
  0
LINE
  5
45
  8
0
  6
BYBLOCK
 62
     0
 10
0.0
 20
0.0
 30
0.0
 11
-1.0
 21
-0.2679
 31
0.0
  0
LINE
  5
46
  8
0
  6
BYBLOCK
 62
     0
 10
0.0
 20
0.0
 30
0.0
 11
-1.0
 21
0.0
 31
0.0
  0
ENDBLK
  5
47
  8
0
  0
ENDSEC
  0
SECTION
  2
ENTITIES
  0
TEXT
  5
8FC0
  8
1TEXT
 10
-1210.3471
 20
-2486.2779
 30
0.0
 40
8.0000999999997475
  1
PK03-250
  0
TEXT
  5
8FC1
  8
1TEXT
 10
-1204.6029799999999
 20
-2666.0118000000011
 30
0.0
 40
3.999900000000252
  1
材質：真鍮
 72
     1
 11
-1193.1366
 21
-2666.0118000000011
 31
0.0
  0
LINE
  5
8FC2
  8
1DIM
 10
-1218.8145999999999
 20
-2690.7777000000001
 30
0.0
 11
-1148.8145999999999
 21
-2690.7777000000001
 31
0.0
  0
TEXT
  5
8FC3
  8
1TEXT
 10
-1212.0619528571431
 20
-2675.2775999999999
 30
0.0
 40
3.999900000000252
  1
表面処理：
 72
     1
 11
-1201.4146000000001
 21
-2675.2775999999999
 31
0.0
  0
TEXT
  5
8FC4
  8
1TEXT
 10
-1210.7476999999999
 20
-2682.1131
 30
0.0
 40
3.999900000000252
  1
クローム
 72
     1
 11
-1201.4146000000001
 21
-2682.1131
 31
0.0
  0
LINE
  5
8FC5
  8
1DIM
 10
-1218.8145999999999
 20
-2669.7777000000001
 30
0.0
 11
-1148.8145999999999
 21
-2669.7777000000001
 31
0.0
  0
LINE
  5
8FC6
  8
1DIM
 10
-1218.8145999999999
 20
-2676.7775999999999
 30
0.0
 11
-1148.8145999999999
 21
-2676.7775999999999
 31
0.0
  0
LINE
  5
8FC7
  8
1DIM
 10
-1218.8145999999999
 20
-2683.7777999999998
 30
0.0
 11
-1148.8145999999999
 21
-2683.7777999999998
 31
0.0
  0
LINE
  5
8FC8
  8
1DIM
 10
-1218.8145999999999
 20
-2683.7777999999998
 30
0.0
 11
-1148.8145999999999
 21
-2683.7777999999998
 31
0.0
  0
LINE
  5
8FC9
  8
1DIM
 10
-1183.8145999999999
 20
-2669.7777000000001
 30
0.0
 11
-1183.8145999999999
 21
-2690.7777000000001
 31
0.0
  0
TEXT
  5
8FCA
  8
1TEXT
 10
-1181.0808999999999
 20
-2682.4920000000002
 30
0.0
 40
3.999900000000252
  1
PK03C250
 72
     1
 11
-1166.4146000000001
 21
-2682.4920000000002
 31
0.0
  0
TEXT
  5
8FCB
  8
1TEXT
 10
-1173.21443
 20
-2675.2775999999999
 30
0.0
 40
3.999900000000252
  1
コード
 72
     1
 11
-1166.4146000000001
 21
-2675.2775999999999
 31
0.0
  0
TEXT
  5
8FCC
  8
1TEXT
 10
-1217.6808599999999
 20
-2689.0886999999998
 30
0.0
 40
3.9998999999997968
  1
サテンニッケル
 72
     1
 11
-1201.4146000000001
 21
-2689.0886999999998
 31
0.0
  0
LINE
  5
8FCD
  8
1DIM
 10
-1218.8145999999999
 20
-2690.7777000000001
 30
0.0
 11
-1218.8145999999999
 21
-2669.7777000000001
 31
0.0
  0
LINE
  5
8FCE
  8
1DIM
 10
-1148.8145999999999
 20
-2690.7777000000001
 30
0.0
 11
-1148.8145999999999
 21
-2669.7777000000001
 31
0.0
  0
TEXT
  5
8FCF
  8
1TEXT
 10
-1181.0808999999999
 20
-2689.4919
 30
0.0
 40
3.9998999999997968
  1
PK03N250
 72
     1
 11
-1166.4146000000001
 21
-2689.4919
 31
0.0
  0
LINE
  5
8FD0
  8
01
 10
-878.31460000000004
 20
-2590.2143999999998
 30
0.0
 11
-878.31460000000004
 21
-2609.7777000000001
 31
0.0
  0
LINE
  5
8FD1
  8
01
 10
-871.31460000000004
 20
-2590.2143999999998
 30
0.0
 11
-871.31460000000004
 21
-2609.7777000000001
 31
0.0
  0
LINE
  5
8FD2
  8
01
 10
-940.31460000000015
 20
-2592.2777999999998
 30
0.0
 11
-940.31460000000015
 21
-2609.7777000000001
 31
0.0
  0
LINE
  5
8FD3
  8
01
 10
-947.31459999999993
 20
-2592.2777999999998
 30
0.0
 11
-947.31459999999993
 21
-2609.7777000000001
 31
0.0
  0
LINE
  5
8FD4
  8
01
 10
-1190.3145999999999
 20
-2592.2777999999998
 30
0.0
 11
-1190.3145999999999
 21
-2609.7777000000001
 31
0.0
  0
LINE
  5
8FD5
  8
01
 10
-1197.3145999999999
 20
-2592.2777999999998
 30
0.0
 11
-1197.3145999999999
 21
-2609.7777000000001
 31
0.0
  0
LINE
  5
8FD6
  8
01
 10
-1197.3145999999999
 20
-2609.7777000000001
 30
0.0
 11
-1190.3145999999999
 21
-2609.7777000000001
 31
0.0
  0
LINE
  5
8FD7
  8
01
 10
-947.31459999999993
 20
-2609.7777000000001
 30
0.0
 11
-940.31460000000015
 21
-2609.7777000000001
 31
0.0
  0
LINE
  5
8FD8
  8
01
 10
-871.31460000000004
 20
-2609.7777000000001
 30
0.0
 11
-878.31460000000004
 21
-2609.7777000000001
 31
0.0
  0
LINE
  5
8FD9
  8
01
 10
-1190.3145999999999
 20
-2592.2777999999998
 30
0.0
 11
-947.31459999999993
 21
-2592.2777999999998
 31
0.0
  0
LINE
  5
8FDA
  8
01
 10
-1218.8145999999999
 20
-2584.2777000000001
 30
0.0
 11
-918.81460000000015
 21
-2584.2777000000001
 31
0.0
  0
LINE
  5
8FDB
  8
01
 10
-1218.8145999999999
 20
-2516.2779
 30
0.0
 11
-918.81460000000015
 21
-2516.2779
 31
0.0
  0
LINE
  5
8FDC
  8
01
 10
-1218.8145999999999
 20
-2524.2777000000001
 30
0.0
 11
-918.81460000000015
 21
-2524.2777000000001
 31
0.0
  0
LINE
  5
8FDD
  8
01
 10
-1218.8145999999999
 20
-2592.2777999999998
 30
0.0
 11
-1197.3145999999999
 21
-2592.2777999999998
 31
0.0
  0
LINE
  5
8FDE
  8
01
 10
-1218.8145999999999
 20
-2584.2777000000001
 30
0.0
 11
-1218.8145999999999
 21
-2592.2777999999998
 31
0.0
  0
POLYLINE
  5
8FDF
  8
01
 66
     1
 10
0.0
 20
0.0
 30
0.0
 70
     8
  0
VERTEX
  5
8FE0
  8
01
 10
-1190.3099999999999
 20
-2592.2790000000009
 30
0.0
 70
    32
  0
VERTEX
  5
8FE1
  8
01
 10
-1190.3499999999999
 20
-2592.2190000000001
 30
0.0
 70
    32
  0
VERTEX
  5
8FE2
  8
01
 10
-1190.3800000000001
 20
-2592.1619999999998
 30
0.0
 70
    32
  0
VERTEX
  5
8FE3
  8
01
 10
-1190.4200000000001
 20
-2592.105
 30
0.0
 70
    32
  0
VERTEX
  5
8FE4
  8
01
 10
-1190.45
 20
-2592.0479999999998
 30
0.0
 70
    32
  0
VERTEX
  5
8FE5
  8
01
 10
-1190.49
 20
-2591.9940000000001
 30
0.0
 70
    32
  0
VERTEX
  5
8FE6
  8
01
 10
-1190.53
 20
-2591.9400000000001
 30
0.0
 70
    32
  0
VERTEX
  5
8FE7
  8
01
 10
-1190.5599999999999
 20
-2591.8829999999998
 30
0.0
 70
    32
  0
VERTEX
  5
8FE8
  8
01
 10
-1190.5999999999999
 20
-2591.8290000000002
 30
0.0
 70
    32
  0
VERTEX
  5
8FE9
  8
01
 10
-1190.6400000000001
 20
-2591.7780000000012
 30
0.0
 70
    32
  0
VERTEX
  5
8FEA
  8
01
 10
-1190.6800000000001
 20
-2591.7240000000011
 30
0.0
 70
    32
  0
VERTEX
  5
8FEB
  8
01
 10
-1190.73
 20
-2591.6729999999998
 30
0.0
 70
    32
  0
VERTEX
  5
8FEC
  8
01
 10
-1190.77
 20
-2591.6219999999998
 30
0.0
 70
    32
  0
VERTEX
  5
8FED
  8
01
 10
-1190.8099999999999
 20
-2591.5709999999999
 30
0.0
 70
    32
  0
VERTEX
  5
8FEE
  8
01
 10
-1190.8599999999999
 20
-2591.5230000000001
 30
0.0
 70
    32
  0
VERTEX
  5
8FEF
  8
01
 10
-1190.9000000000001
 20
-2591.4720000000002
 30
0.0
 70
    32
  0
VERTEX
  5
8FF0
  8
01
 10
-1190.95
 20
-2591.424
 30
0.0
 70
    32
  0
VERTEX
  5
8FF1
  8
01
 10
-1190.99
 20
-2591.3789999999999
 30
0.0
 70
    32
  0
VERTEX
  5
8FF2
  8
01
 10
-1191.04
 20
-2591.3310000000001
 30
0.0
 70
    32
  0
VERTEX
  5
8FF3
  8
01
 10
-1191.0899999999999
 20
-2591.2860000000001
 30
0.0
 70
    32
  0
VERTEX
  5
8FF4
  8
01
 10
-1191.1400000000001
 20
-2591.241
 30
0.0
 70
    32
  0
VERTEX
  5
8FF5
  8
01
 10
-1191.1900000000001
 20
-2591.1959999999999
 30
0.0
 70
    32
  0
VERTEX
  5
8FF6
  8
01
 10
-1191.24
 20
-2591.1540000000009
 30
0.0
 70
    32
  0
VERTEX
  5
8FF7
  8
01
 10
-1191.29
 20
-2591.1120000000001
 30
0.0
 70
    32
  0
VERTEX
  5
8FF8
  8
01
 10
-1191.3399999999999
 20
-2591.0700000000002
 30
0.0
 70
    32
  0
VERTEX
  5
8FF9
  8
01
 10
-1191.4000000000001
 20
-2591.0279999999998
 30
0.0
 70
    32
  0
VERTEX
  5
8FFA
  8
01
 10
-1191.45
 20
-2590.989
 30
0.0
 70
    32
  0
VERTEX
  5
8FFB
  8
01
 10
-1191.5
 20
-2590.9499999999998
 30
0.0
 70
    32
  0
VERTEX
  5
8FFC
  8
01
 10
-1191.5599999999999
 20
-2590.9110000000001
 30
0.0
 70
    32
  0
VERTEX
  5
8FFD
  8
01
 10
-1191.6099999999999
 20
-2590.875
 30
0.0
 70
    32
  0
VERTEX
  5
8FFE
  8
01
 10
-1191.6700000000001
 20
-2590.8389999999999
 30
0.0
 70
    32
  0
VERTEX
  5
8FFF
  8
01
 10
-1191.73
 20
-2590.8030000000008
 30
0.0
 70
    32
  0
VERTEX
  5
9000
  8
01
 10
-1191.78
 20
-2590.77
 30
0.0
 70
    32
  0
VERTEX
  5
9001
  8
01
 10
-1191.8399999999999
 20
-2590.7370000000001
 30
0.0
 70
    32
  0
VERTEX
  5
9002
  8
01
 10
-1191.9000000000001
 20
-2590.7040000000002
 30
0.0
 70
    32
  0
VERTEX
  5
9003
  8
01
 10
-1191.96
 20
-2590.6709999999998
 30
0.0
 70
    32
  0
VERTEX
  5
9004
  8
01
 10
-1192.02
 20
-2590.6410000000001
 30
0.0
 70
    32
  0
VERTEX
  5
9005
  8
01
 10
-1192.0799999999999
 20
-2590.6109999999999
 30
0.0
 70
    32
  0
VERTEX
  5
9006
  8
01
 10
-1192.1400000000001
 20
-2590.5839999999998
 30
0.0
 70
    32
  0
VERTEX
  5
9007
  8
01
 10
-1192.2
 20
-2590.5569999999998
 30
0.0
 70
    32
  0
VERTEX
  5
9008
  8
01
 10
-1192.26
 20
-2590.5300000000002
 30
0.0
 70
    32
  0
VERTEX
  5
9009
  8
01
 10
-1192.3199999999999
 20
-2590.5030000000002
 30
0.0
 70
    32
  0
VERTEX
  5
900A
  8
01
 10
-1192.3800000000001
 20
-2590.4789999999998
 30
0.0
 70
    32
  0
VERTEX
  5
900B
  8
01
 10
-1192.4400000000001
 20
-2590.458000000001
 30
0.0
 70
    32
  0
VERTEX
  5
900C
  8
01
 10
-1192.51
 20
-2590.4340000000002
 30
0.0
 70
    32
  0
VERTEX
  5
900D
  8
01
 10
-1192.5699999999999
 20
-2590.413
 30
0.0
 70
    32
  0
VERTEX
  5
900E
  8
01
 10
-1192.6300000000001
 20
-2590.3919999999998
 30
0.0
 70
    32
  0
VERTEX
  5
900F
  8
01
 10
-1192.7
 20
-2590.3740000000012
 30
0.0
 70
    32
  0
VERTEX
  5
9010
  8
01
 10
-1192.76
 20
-2590.3560000000002
 30
0.0
 70
    32
  0
VERTEX
  5
9011
  8
01
 10
-1192.8299999999999
 20
-2590.3380000000002
 30
0.0
 70
    32
  0
VERTEX
  5
9012
  8
01
 10
-1192.8900000000001
 20
-2590.3230000000008
 30
0.0
 70
    32
  0
VERTEX
  5
9013
  8
01
 10
-1192.96
 20
-2590.308
 30
0.0
 70
    32
  0
VERTEX
  5
9014
  8
01
 10
-1193.02
 20
-2590.2930000000001
 30
0.0
 70
    32
  0
VERTEX
  5
9015
  8
01
 10
-1193.0899999999999
 20
-2590.2809999999999
 30
0.0
 70
    32
  0
VERTEX
  5
9016
  8
01
 10
-1193.1500000000001
 20
-2590.2690000000011
 30
0.0
 70
    32
  0
VERTEX
  5
9017
  8
01
 10
-1193.22
 20
-2590.2600000000002
 30
0.0
 70
    32
  0
VERTEX
  5
9018
  8
01
 10
-1193.28
 20
-2590.2510000000002
 30
0.0
 70
    32
  0
VERTEX
  5
9019
  8
01
 10
-1193.3499999999999
 20
-2590.2420000000002
 30
0.0
 70
    32
  0
VERTEX
  5
901A
  8
01
 10
-1193.4200000000001
 20
-2590.2359999999999
 30
0.0
 70
    32
  0
VERTEX
  5
901B
  8
01
 10
-1193.48
 20
-2590.23
 30
0.0
 70
    32
  0
VERTEX
  5
901C
  8
01
 10
-1193.55
 20
-2590.2240000000002
 30
0.0
 70
    32
  0
VERTEX
  5
901D
  8
01
 10
-1193.6099999999999
 20
-2590.221
 30
0.0
 70
    32
  0
VERTEX
  5
901E
  8
01
 10
-1193.6800000000001
 20
-2590.2180000000012
 30
0.0
 70
    32
  0
VERTEX
  5
901F
  8
01
 10
-1193.75
 20
-2590.2150000000011
 30
0.0
 70
    32
  0
VERTEX
  5
9020
  8
01
 10
-1193.8099999999999
 20
-2590.2150000000011
 30
0.0
 70
    32
  0
VERTEX
  5
9021
  8
01
 10
-1193.8800000000001
 20
-2590.2150000000011
 30
0.0
 70
    32
  0
VERTEX
  5
9022
  8
01
 10
-1193.95
 20
-2590.2180000000012
 30
0.0
 70
    32
  0
VERTEX
  5
9023
  8
01
 10
-1194.01
 20
-2590.221
 30
0.0
 70
    32
  0
VERTEX
  5
9024
  8
01
 10
-1194.0799999999999
 20
-2590.2240000000002
 30
0.0
 70
    32
  0
VERTEX
  5
9025
  8
01
 10
-1194.1500000000001
 20
-2590.23
 30
0.0
 70
    32
  0
VERTEX
  5
9026
  8
01
 10
-1194.21
 20
-2590.2359999999999
 30
0.0
 70
    32
  0
VERTEX
  5
9027
  8
01
 10
-1194.28
 20
-2590.2420000000002
 30
0.0
 70
    32
  0
VERTEX
  5
9028
  8
01
 10
-1194.3499999999999
 20
-2590.2510000000002
 30
0.0
 70
    32
  0
VERTEX
  5
9029
  8
01
 10
-1194.4100000000001
 20
-2590.2600000000002
 30
0.0
 70
    32
  0
VERTEX
  5
902A
  8
01
 10
-1194.48
 20
-2590.2690000000011
 30
0.0
 70
    32
  0
VERTEX
  5
902B
  8
01
 10
-1194.54
 20
-2590.2809999999999
 30
0.0
 70
    32
  0
VERTEX
  5
902C
  8
01
 10
-1194.6099999999999
 20
-2590.2930000000001
 30
0.0
 70
    32
  0
VERTEX
  5
902D
  8
01
 10
-1194.6700000000001
 20
-2590.308
 30
0.0
 70
    32
  0
VERTEX
  5
902E
  8
01
 10
-1194.74
 20
-2590.3230000000008
 30
0.0
 70
    32
  0
VERTEX
  5
902F
  8
01
 10
-1194.8
 20
-2590.3380000000002
 30
0.0
 70
    32
  0
VERTEX
  5
9030
  8
01
 10
-1194.8699999999999
 20
-2590.3560000000002
 30
0.0
 70
    32
  0
VERTEX
  5
9031
  8
01
 10
-1194.9300000000001
 20
-2590.3740000000012
 30
0.0
 70
    32
  0
VERTEX
  5
9032
  8
01
 10
-1195.0
 20
-2590.3919999999998
 30
0.0
 70
    32
  0
VERTEX
  5
9033
  8
01
 10
-1195.0599999999999
 20
-2590.413
 30
0.0
 70
    32
  0
VERTEX
  5
9034
  8
01
 10
-1195.1199999999999
 20
-2590.4340000000002
 30
0.0
 70
    32
  0
VERTEX
  5
9035
  8
01
 10
-1195.1800000000001
 20
-2590.458000000001
 30
0.0
 70
    32
  0
VERTEX
  5
9036
  8
01
 10
-1195.25
 20
-2590.4789999999998
 30
0.0
 70
    32
  0
VERTEX
  5
9037
  8
01
 10
-1195.3099999999999
 20
-2590.5030000000002
 30
0.0
 70
    32
  0
VERTEX
  5
9038
  8
01
 10
-1195.3699999999999
 20
-2590.5300000000002
 30
0.0
 70
    32
  0
VERTEX
  5
9039
  8
01
 10
-1195.4300000000001
 20
-2590.5569999999998
 30
0.0
 70
    32
  0
VERTEX
  5
903A
  8
01
 10
-1195.49
 20
-2590.5839999999998
 30
0.0
 70
    32
  0
VERTEX
  5
903B
  8
01
 10
-1195.55
 20
-2590.6109999999999
 30
0.0
 70
    32
  0
VERTEX
  5
903C
  8
01
 10
-1195.6099999999999
 20
-2590.6410000000001
 30
0.0
 70
    32
  0
VERTEX
  5
903D
  8
01
 10
-1195.6700000000001
 20
-2590.6709999999998
 30
0.0
 70
    32
  0
VERTEX
  5
903E
  8
01
 10
-1195.73
 20
-2590.7040000000002
 30
0.0
 70
    32
  0
VERTEX
  5
903F
  8
01
 10
-1195.79
 20
-2590.7370000000001
 30
0.0
 70
    32
  0
VERTEX
  5
9040
  8
01
 10
-1195.8499999999999
 20
-2590.77
 30
0.0
 70
    32
  0
VERTEX
  5
9041
  8
01
 10
-1195.9000000000001
 20
-2590.8030000000008
 30
0.0
 70
    32
  0
VERTEX
  5
9042
  8
01
 10
-1195.96
 20
-2590.8389999999999
 30
0.0
 70
    32
  0
VERTEX
  5
9043
  8
01
 10
-1196.02
 20
-2590.875
 30
0.0
 70
    32
  0
VERTEX
  5
9044
  8
01
 10
-1196.0699999999999
 20
-2590.9110000000001
 30
0.0
 70
    32
  0
VERTEX
  5
9045
  8
01
 10
-1196.1300000000001
 20
-2590.9499999999998
 30
0.0
 70
    32
  0
VERTEX
  5
9046
  8
01
 10
-1196.1800000000001
 20
-2590.989
 30
0.0
 70
    32
  0
VERTEX
  5
9047
  8
01
 10
-1196.23
 20
-2591.0279999999998
 30
0.0
 70
    32
  0
VERTEX
  5
9048
  8
01
 10
-1196.29
 20
-2591.0700000000002
 30
0.0
 70
    32
  0
VERTEX
  5
9049
  8
01
 10
-1196.3399999999999
 20
-2591.1120000000001
 30
0.0
 70
    32
  0
VERTEX
  5
904A
  8
01
 10
-1196.3900000000001
 20
-2591.1540000000009
 30
0.0
 70
    32
  0
VERTEX
  5
904B
  8
01
 10
-1196.4400000000001
 20
-2591.1959999999999
 30
0.0
 70
    32
  0
VERTEX
  5
904C
  8
01
 10
-1196.49
 20
-2591.241
 30
0.0
 70
    32
  0
VERTEX
  5
904D
  8
01
 10
-1196.54
 20
-2591.2860000000001
 30
0.0
 70
    32
  0
VERTEX
  5
904E
  8
01
 10
-1196.5899999999999
 20
-2591.3310000000001
 30
0.0
 70
    32
  0
VERTEX
  5
904F
  8
01
 10
-1196.6300000000001
 20
-2591.3789999999999
 30
0.0
 70
    32
  0
VERTEX
  5
9050
  8
01
 10
-1196.6800000000001
 20
-2591.424
 30
0.0
 70
    32
  0
VERTEX
  5
9051
  8
01
 10
-1196.73
 20
-2591.4720000000002
 30
0.0
 70
    32
  0
VERTEX
  5
9052
  8
01
 10
-1196.77
 20
-2591.5230000000001
 30
0.0
 70
    32
  0
VERTEX
  5
9053
  8
01
 10
-1196.8199999999999
 20
-2591.5709999999999
 30
0.0
 70
    32
  0
VERTEX
  5
9054
  8
01
 10
-1196.8599999999999
 20
-2591.6219999999998
 30
0.0
 70
    32
  0
VERTEX
  5
9055
  8
01
 10
-1196.9000000000001
 20
-2591.6729999999998
 30
0.0
 70
    32
  0
VERTEX
  5
9056
  8
01
 10
-1196.95
 20
-2591.7240000000011
 30
0.0
 70
    32
  0
VERTEX
  5
9057
  8
01
 10
-1196.99
 20
-2591.7780000000012
 30
0.0
 70
    32
  0
VERTEX
  5
9058
  8
01
 10
-1197.03
 20
-2591.8290000000002
 30
0.0
 70
    32
  0
VERTEX
  5
9059
  8
01
 10
-1197.0699999999999
 20
-2591.8829999999998
 30
0.0
 70
    32
  0
VERTEX
  5
905A
  8
01
 10
-1197.0999999999999
 20
-2591.9400000000001
 30
0.0
 70
    32
  0
VERTEX
  5
905B
  8
01
 10
-1197.1400000000001
 20
-2591.9940000000001
 30
0.0
 70
    32
  0
VERTEX
  5
905C
  8
01
 10
-1197.1800000000001
 20
-2592.0479999999998
 30
0.0
 70
    32
  0
VERTEX
  5
905D
  8
01
 10
-1197.21
 20
-2592.105
 30
0.0
 70
    32
  0
VERTEX
  5
905E
  8
01
 10
-1197.25
 20
-2592.1619999999998
 30
0.0
 70
    32
  0
VERTEX
  5
905F
  8
01
 10
-1197.28
 20
-2592.2190000000001
 30
0.0
 70
    32
  0
VERTEX
  5
9060
  8
01
 10
-1197.3099999999999
 20
-2592.2790000000009
 30
0.0
 70
    32
  0
SEQEND
  5
9061
  8
01
  0
LINE
  5
9062
  8
01
 10
-1218.8145999999999
 20
-2524.2777000000001
 30
0.0
 11
-1218.8145999999999
 21
-2516.2779
 31
0.0
  0
LINE
  5
9063
  8
01
 10
-940.31460000000015
 20
-2592.2777999999998
 30
0.0
 11
-918.81460000000015
 21
-2592.2777999999998
 31
0.0
  0
POLYLINE
  5
9064
  8
01
 66
     1
 10
0.0
 20
0.0
 30
0.0
 70
     8
  0
VERTEX
  5
9065
  8
01
 10
-940.31500000000005
 20
-2592.2790000000009
 30
0.0
 70
    32
  0
VERTEX
  5
9066
  8
01
 10
-940.34699999999998
 20
-2592.2190000000001
 30
0.0
 70
    32
  0
VERTEX
  5
9067
  8
01
 10
-940.38100000000009
 20
-2592.1619999999998
 30
0.0
 70
    32
  0
VERTEX
  5
9068
  8
01
 10
-940.41600000000005
 20
-2592.105
 30
0.0
 70
    32
  0
VERTEX
  5
9069
  8
01
 10
-940.45100000000002
 20
-2592.0479999999998
 30
0.0
 70
    32
  0
VERTEX
  5
906A
  8
01
 10
-940.48800000000006
 20
-2591.9940000000001
 30
0.0
 70
    32
  0
VERTEX
  5
906B
  8
01
 10
-940.52499999999998
 20
-2591.9400000000001
 30
0.0
 70
    32
  0
VERTEX
  5
906C
  8
01
 10
-940.56299999999999
 20
-2591.8829999999998
 30
0.0
 70
    32
  0
VERTEX
  5
906D
  8
01
 10
-940.60300000000007
 20
-2591.8290000000002
 30
0.0
 70
    32
  0
VERTEX
  5
906E
  8
01
 10
-940.64300000000003
 20
-2591.7780000000012
 30
0.0
 70
    32
  0
VERTEX
  5
906F
  8
01
 10
-940.68399999999997
 20
-2591.7240000000011
 30
0.0
 70
    32
  0
VERTEX
  5
9070
  8
01
 10
-940.726
 20
-2591.6729999999998
 30
0.0
 70
    32
  0
VERTEX
  5
9071
  8
01
 10
-940.76800000000003
 20
-2591.6219999999998
 30
0.0
 70
    32
  0
VERTEX
  5
9072
  8
01
 10
-940.81200000000001
 20
-2591.5709999999999
 30
0.0
 70
    32
  0
VERTEX
  5
9073
  8
01
 10
-940.85600000000011
 20
-2591.5230000000001
 30
0.0
 70
    32
  0
VERTEX
  5
9074
  8
01
 10
-940.90199999999993
 20
-2591.4720000000002
 30
0.0
 70
    32
  0
VERTEX
  5
9075
  8
01
 10
-940.94799999999998
 20
-2591.424
 30
0.0
 70
    32
  0
VERTEX
  5
9076
  8
01
 10
-940.995
 20
-2591.3789999999999
 30
0.0
 70
    32
  0
VERTEX
  5
9077
  8
01
 10
-941.04200000000003
 20
-2591.3310000000001
 30
0.0
 70
    32
  0
VERTEX
  5
9078
  8
01
 10
-941.09099999999989
 20
-2591.2860000000001
 30
0.0
 70
    32
  0
VERTEX
  5
9079
  8
01
 10
-941.13999999999999
 20
-2591.241
 30
0.0
 70
    32
  0
VERTEX
  5
907A
  8
01
 10
-941.19000000000005
 20
-2591.1959999999999
 30
0.0
 70
    32
  0
VERTEX
  5
907B
  8
01
 10
-941.2399999999999
 20
-2591.1540000000009
 30
0.0
 70
    32
  0
VERTEX
  5
907C
  8
01
 10
-941.29199999999992
 20
-2591.1120000000001
 30
0.0
 70
    32
  0
VERTEX
  5
907D
  8
01
 10
-941.34399999999994
 20
-2591.0700000000002
 30
0.0
 70
    32
  0
VERTEX
  5
907E
  8
01
 10
-941.39600000000007
 20
-2591.0279999999998
 30
0.0
 70
    32
  0
VERTEX
  5
907F
  8
01
 10
-941.45000000000005
 20
-2590.989
 30
0.0
 70
    32
  0
VERTEX
  5
9080
  8
01
 10
-941.50399999999991
 20
-2590.9499999999998
 30
0.0
 70
    32
  0
VERTEX
  5
9081
  8
01
 10
-941.55799999999999
 20
-2590.9110000000001
 30
0.0
 70
    32
  0
VERTEX
  5
9082
  8
01
 10
-941.61399999999981
 20
-2590.875
 30
0.0
 70
    32
  0
VERTEX
  5
9083
  8
01
 10
-941.66999999999996
 20
-2590.8389999999999
 30
0.0
 70
    32
  0
VERTEX
  5
9084
  8
01
 10
-941.726
 20
-2590.8030000000008
 30
0.0
 70
    32
  0
VERTEX
  5
9085
  8
01
 10
-941.78300000000002
 20
-2590.77
 30
0.0
 70
    32
  0
VERTEX
  5
9086
  8
01
 10
-941.84099999999989
 20
-2590.7370000000001
 30
0.0
 70
    32
  0
VERTEX
  5
9087
  8
01
 10
-941.89899999999989
 20
-2590.7040000000002
 30
0.0
 70
    32
  0
VERTEX
  5
9088
  8
01
 10
-941.95800000000008
 20
-2590.6709999999998
 30
0.0
 70
    32
  0
VERTEX
  5
9089
  8
01
 10
-942.01699999999983
 20
-2590.6410000000001
 30
0.0
 70
    32
  0
VERTEX
  5
908A
  8
01
 10
-942.077
 20
-2590.6109999999999
 30
0.0
 70
    32
  0
VERTEX
  5
908B
  8
01
 10
-942.13699999999994
 20
-2590.5839999999998
 30
0.0
 70
    32
  0
VERTEX
  5
908C
  8
01
 10
-942.19799999999987
 20
-2590.5569999999998
 30
0.0
 70
    32
  0
VERTEX
  5
908D
  8
01
 10
-942.2589999999999
 20
-2590.5300000000002
 30
0.0
 70
    32
  0
VERTEX
  5
908E
  8
01
 10
-942.32000000000005
 20
-2590.5030000000002
 30
0.0
 70
    32
  0
VERTEX
  5
908F
  8
01
 10
-942.38199999999995
 20
-2590.4789999999998
 30
0.0
 70
    32
  0
VERTEX
  5
9090
  8
01
 10
-942.44500000000005
 20
-2590.458000000001
 30
0.0
 70
    32
  0
VERTEX
  5
9091
  8
01
 10
-942.50699999999995
 20
-2590.4340000000002
 30
0.0
 70
    32
  0
VERTEX
  5
9092
  8
01
 10
-942.57000000000005
 20
-2590.413
 30
0.0
 70
    32
  0
VERTEX
  5
9093
  8
01
 10
-942.6339999999999
 20
-2590.3919999999998
 30
0.0
 70
    32
  0
VERTEX
  5
9094
  8
01
 10
-942.69799999999998
 20
-2590.3740000000012
 30
0.0
 70
    32
  0
VERTEX
  5
9095
  8
01
 10
-942.76199999999994
 20
-2590.3560000000002
 30
0.0
 70
    32
  0
VERTEX
  5
9096
  8
01
 10
-942.82599999999991
 20
-2590.3380000000002
 30
0.0
 70
    32
  0
VERTEX
  5
9097
  8
01
 10
-942.89099999999996
 20
-2590.3230000000008
 30
0.0
 70
    32
  0
VERTEX
  5
9098
  8
01
 10
-942.95600000000002
 20
-2590.308
 30
0.0
 70
    32
  0
VERTEX
  5
9099
  8
01
 10
-943.02099999999996
 20
-2590.2930000000001
 30
0.0
 70
    32
  0
VERTEX
  5
909A
  8
01
 10
-943.08600000000001
 20
-2590.2809999999999
 30
0.0
 70
    32
  0
VERTEX
  5
909B
  8
01
 10
-943.15199999999993
 20
-2590.2690000000011
 30
0.0
 70
    32
  0
VERTEX
  5
909C
  8
01
 10
-943.21799999999996
 20
-2590.2600000000002
 30
0.0
 70
    32
  0
VERTEX
  5
909D
  8
01
 10
-943.28300000000002
 20
-2590.2510000000002
 30
0.0
 70
    32
  0
VERTEX
  5
909E
  8
01
 10
-943.35000000000002
 20
-2590.2420000000002
 30
0.0
 70
    32
  0
VERTEX
  5
909F
  8
01
 10
-943.41600000000005
 20
-2590.2359999999999
 30
0.0
 70
    32
  0
VERTEX
  5
90A0
  8
01
 10
-943.48199999999997
 20
-2590.23
 30
0.0
 70
    32
  0
VERTEX
  5
90A1
  8
01
 10
-943.548
 20
-2590.2240000000002
 30
0.0
 70
    32
  0
VERTEX
  5
90A2
  8
01
 10
-943.6149999999999
 20
-2590.221
 30
0.0
 70
    32
  0
VERTEX
  5
90A3
  8
01
 10
-943.68100000000015
 20
-2590.2180000000012
 30
0.0
 70
    32
  0
VERTEX
  5
90A4
  8
01
 10
-943.74800000000005
 20
-2590.2150000000011
 30
0.0
 70
    32
  0
VERTEX
  5
90A5
  8
01
 10
-943.81500000000005
 20
-2590.2150000000011
 30
0.0
 70
    32
  0
VERTEX
  5
90A6
  8
01
 10
-943.88100000000009
 20
-2590.2150000000011
 30
0.0
 70
    32
  0
VERTEX
  5
90A7
  8
01
 10
-943.94799999999987
 20
-2590.2180000000012
 30
0.0
 70
    32
  0
VERTEX
  5
90A8
  8
01
 10
-944.0139999999999
 20
-2590.221
 30
0.0
 70
    32
  0
VERTEX
  5
90A9
  8
01
 10
-944.08100000000002
 20
-2590.2240000000002
 30
0.0
 70
    32
  0
VERTEX
  5
90AA
  8
01
 10
-944.14699999999982
 20
-2590.23
 30
0.0
 70
    32
  0
VERTEX
  5
90AB
  8
01
 10
-944.21299999999997
 20
-2590.2359999999999
 30
0.0
 70
    32
  0
VERTEX
  5
90AC
  8
01
 10
-944.27999999999997
 20
-2590.2420000000002
 30
0.0
 70
    32
  0
VERTEX
  5
90AD
  8
01
 10
-944.34599999999989
 20
-2590.2510000000002
 30
0.0
 70
    32
  0
VERTEX
  5
90AE
  8
01
 10
-944.41199999999992
 20
-2590.2600000000002
 30
0.0
 70
    32
  0
VERTEX
  5
90AF
  8
01
 10
-944.47699999999998
 20
-2590.2690000000011
 30
0.0
 70
    32
  0
VERTEX
  5
90B0
  8
01
 10
-944.54299999999989
 20
-2590.2809999999999
 30
0.0
 70
    32
  0
VERTEX
  5
90B1
  8
01
 10
-944.60799999999995
 20
-2590.2930000000001
 30
0.0
 70
    32
  0
VERTEX
  5
90B2
  8
01
 10
-944.67399999999998
 20
-2590.308
 30
0.0
 70
    32
  0
VERTEX
  5
90B3
  8
01
 10
-944.73800000000006
 20
-2590.3230000000008
 30
0.0
 70
    32
  0
VERTEX
  5
90B4
  8
01
 10
-944.80300000000011
 20
-2590.3380000000002
 30
0.0
 70
    32
  0
VERTEX
  5
90B5
  8
01
 10
-944.86699999999985
 20
-2590.3560000000002
 30
0.0
 70
    32
  0
VERTEX
  5
90B6
  8
01
 10
-944.93200000000002
 20
-2590.3740000000012
 30
0.0
 70
    32
  0
VERTEX
  5
90B7
  8
01
 10
-944.99499999999989
 20
-2590.3919999999998
 30
0.0
 70
    32
  0
VERTEX
  5
90B8
  8
01
 10
-945.05899999999997
 20
-2590.413
 30
0.0
 70
    32
  0
VERTEX
  5
90B9
  8
01
 10
-945.12199999999984
 20
-2590.4340000000002
 30
0.0
 70
    32
  0
VERTEX
  5
90BA
  8
01
 10
-945.18499999999995
 20
-2590.458000000001
 30
0.0
 70
    32
  0
VERTEX
  5
90BB
  8
01
 10
-945.24699999999984
 20
-2590.4789999999998
 30
0.0
 70
    32
  0
VERTEX
  5
90BC
  8
01
 10
-945.30899999999986
 20
-2590.5030000000002
 30
0.0
 70
    32
  0
VERTEX
  5
90BD
  8
01
 10
-945.37099999999998
 20
-2590.5300000000002
 30
0.0
 70
    32
  0
VERTEX
  5
90BE
  8
01
 10
-945.43200000000002
 20
-2590.5569999999998
 30
0.0
 70
    32
  0
VERTEX
  5
90BF
  8
01
 10
-945.49199999999985
 20
-2590.5839999999998
 30
0.0
 70
    32
  0
VERTEX
  5
90C0
  8
01
 10
-945.55299999999988
 20
-2590.6109999999999
 30
0.0
 70
    32
  0
VERTEX
  5
90C1
  8
01
 10
-945.61199999999997
 20
-2590.6410000000001
 30
0.0
 70
    32
  0
VERTEX
  5
90C2
  8
01
 10
-945.67200000000003
 20
-2590.6709999999998
 30
0.0
 70
    32
  0
VERTEX
  5
90C3
  8
01
 10
-945.73000000000002
 20
-2590.7040000000002
 30
0.0
 70
    32
  0
VERTEX
  5
90C4
  8
01
 10
-945.78800000000012
 20
-2590.7370000000001
 30
0.0
 70
    32
  0
VERTEX
  5
90C5
  8
01
 10
-945.846
 20
-2590.77
 30
0.0
 70
    32
  0
VERTEX
  5
90C6
  8
01
 10
-945.90300000000002
 20
-2590.8030000000008
 30
0.0
 70
    32
  0
VERTEX
  5
90C7
  8
01
 10
-945.96000000000004
 20
-2590.8389999999999
 30
0.0
 70
    32
  0
VERTEX
  5
90C8
  8
01
 10
-946.01599999999996
 20
-2590.875
 30
0.0
 70
    32
  0
VERTEX
  5
90C9
  8
01
 10
-946.07100000000003
 20
-2590.9110000000001
 30
0.0
 70
    32
  0
VERTEX
  5
90CA
  8
01
 10
-946.12600000000009
 20
-2590.9499999999998
 30
0.0
 70
    32
  0
VERTEX
  5
90CB
  8
01
 10
-946.17999999999995
 20
-2590.989
 30
0.0
 70
    32
  0
VERTEX
  5
90CC
  8
01
 10
-946.23300000000006
 20
-2591.0279999999998
 30
0.0
 70
    32
  0
VERTEX
  5
90CD
  8
01
 10
-946.28599999999994
 20
-2591.0700000000002
 30
0.0
 70
    32
  0
VERTEX
  5
90CE
  8
01
 10
-946.33799999999997
 20
-2591.1120000000001
 30
0.0
 70
    32
  0
VERTEX
  5
90CF
  8
01
 10
-946.3889999999999
 20
-2591.1540000000009
 30
0.0
 70
    32
  0
VERTEX
  5
90D0
  8
01
 10
-946.44000000000005
 20
-2591.1959999999999
 30
0.0
 70
    32
  0
VERTEX
  5
90D1
  8
01
 10
-946.48899999999981
 20
-2591.241
 30
0.0
 70
    32
  0
VERTEX
  5
90D2
  8
01
 10
-946.53899999999987
 20
-2591.2860000000001
 30
0.0
 70
    32
  0
VERTEX
  5
90D3
  8
01
 10
-946.58699999999999
 20
-2591.3310000000001
 30
0.0
 70
    32
  0
VERTEX
  5
90D4
  8
01
 10
-946.63499999999999
 20
-2591.3789999999999
 30
0.0
 70
    32
  0
VERTEX
  5
90D5
  8
01
 10
-946.68100000000004
 20
-2591.424
 30
0.0
 70
    32
  0
VERTEX
  5
90D6
  8
01
 10
-946.72699999999986
 20
-2591.4720000000002
 30
0.0
 70
    32
  0
VERTEX
  5
90D7
  8
01
 10
-946.77300000000014
 20
-2591.5230000000001
 30
0.0
 70
    32
  0
VERTEX
  5
90D8
  8
01
 10
-946.81700000000001
 20
-2591.5709999999999
 30
0.0
 70
    32
  0
VERTEX
  5
90D9
  8
01
 10
-946.8610000000001
 20
-2591.6219999999998
 30
0.0
 70
    32
  0
VERTEX
  5
90DA
  8
01
 10
-946.90300000000002
 20
-2591.6729999999998
 30
0.0
 70
    32
  0
VERTEX
  5
90DB
  8
01
 10
-946.94500000000005
 20
-2591.7240000000011
 30
0.0
 70
    32
  0
VERTEX
  5
90DC
  8
01
 10
-946.98599999999999
 20
-2591.7780000000012
 30
0.0
 70
    32
  0
VERTEX
  5
90DD
  8
01
 10
-947.02600000000007
 20
-2591.8290000000002
 30
0.0
 70
    32
  0
VERTEX
  5
90DE
  8
01
 10
-947.06600000000003
 20
-2591.8829999999998
 30
0.0
 70
    32
  0
VERTEX
  5
90DF
  8
01
 10
-947.10400000000004
 20
-2591.9400000000001
 30
0.0
 70
    32
  0
VERTEX
  5
90E0
  8
01
 10
-947.14099999999996
 20
-2591.9940000000001
 30
0.0
 70
    32
  0
VERTEX
  5
90E1
  8
01
 10
-947.178
 20
-2592.0479999999998
 30
0.0
 70
    32
  0
VERTEX
  5
90E2
  8
01
 10
-947.21399999999994
 20
-2592.105
 30
0.0
 70
    32
  0
VERTEX
  5
90E3
  8
01
 10
-947.24800000000005
 20
-2592.1619999999998
 30
0.0
 70
    32
  0
VERTEX
  5
90E4
  8
01
 10
-947.28199999999981
 20
-2592.2190000000001
 30
0.0
 70
    32
  0
VERTEX
  5
90E5
  8
01
 10
-947.31500000000005
 20
-2592.2790000000009
 30
0.0
 70
    32
  0
SEQEND
  5
90E6
  8
01
  0
POLYLINE
  5
90E7
  8
01
 66
     1
 10
0.0
 20
0.0
 30
0.0
 70
     8
  0
VERTEX
  5
90E8
  8
01
 10
-870.81500000000005
 20
-2588.277
 30
0.0
 70
    32
  0
VERTEX
  5
90E9
  8
01
 10
-870.81899999999996
 20
-2588.0819999999999
 30
0.0
 70
    32
  0
VERTEX
  5
90EA
  8
01
 10
-870.83399999999995
 20
-2587.8870000000002
 30
0.0
 70
    32
  0
VERTEX
  5
90EB
  8
01
 10
-870.85800000000006
 20
-2587.692
 30
0.0
 70
    32
  0
VERTEX
  5
90EC
  8
01
 10
-870.89100000000008
 20
-2587.4969999999998
 30
0.0
 70
    32
  0
VERTEX
  5
90ED
  8
01
 10
-870.93399999999986
 20
-2587.3049999999998
 30
0.0
 70
    32
  0
VERTEX
  5
90EE
  8
01
 10
-870.98699999999997
 20
-2587.116
 30
0.0
 70
    32
  0
VERTEX
  5
90EF
  8
01
 10
-871.048
 20
-2586.9299999999998
 30
0.0
 70
    32
  0
VERTEX
  5
90F0
  8
01
 10
-871.11900000000003
 20
-2586.7469999999998
 30
0.0
 70
    32
  0
VERTEX
  5
90F1
  8
01
 10
-871.19899999999996
 20
-2586.567
 30
0.0
 70
    32
  0
VERTEX
  5
90F2
  8
01
 10
-871.28699999999981
 20
-2586.393
 30
0.0
 70
    32
  0
VERTEX
  5
90F3
  8
01
 10
-871.3839999999999
 20
-2586.2220000000002
 30
0.0
 70
    32
  0
VERTEX
  5
90F4
  8
01
 10
-871.48899999999981
 20
-2586.0569999999998
 30
0.0
 70
    32
  0
VERTEX
  5
90F5
  8
01
 10
-871.60199999999998
 20
-2585.895
 30
0.0
 70
    32
  0
VERTEX
  5
90F6
  8
01
 10
-871.72299999999996
 20
-2585.7420000000002
 30
0.0
 70
    32
  0
VERTEX
  5
90F7
  8
01
 10
-871.85100000000011
 20
-2585.5920000000001
 30
0.0
 70
    32
  0
VERTEX
  5
90F8
  8
01
 10
-871.98599999999999
 20
-2585.451
 30
0.0
 70
    32
  0
VERTEX
  5
90F9
  8
01
 10
-872.12800000000004
 20
-2585.3130000000001
 30
0.0
 70
    32
  0
VERTEX
  5
90FA
  8
01
 10
-872.27699999999982
 20
-2585.1869999999999
 30
0.0
 70
    32
  0
VERTEX
  5
90FB
  8
01
 10
-872.43200000000002
 20
-2585.0639999999999
 30
0.0
 70
    32
  0
VERTEX
  5
90FC
  8
01
 10
-872.59199999999998
 20
-2584.953
 30
0.0
 70
    32
  0
VERTEX
  5
90FD
  8
01
 10
-872.75800000000015
 20
-2584.8480000000009
 30
0.0
 70
    32
  0
VERTEX
  5
90FE
  8
01
 10
-872.92899999999997
 20
-2584.752
 30
0.0
 70
    32
  0
VERTEX
  5
90FF
  8
01
 10
-873.10400000000004
 20
-2584.6619999999998
 30
0.0
 70
    32
  0
VERTEX
  5
9100
  8
01
 10
-873.28399999999988
 20
-2584.5839999999998
 30
0.0
 70
    32
  0
VERTEX
  5
9101
  8
01
 10
-873.46699999999987
 20
-2584.5120000000002
 30
0.0
 70
    32
  0
VERTEX
  5
9102
  8
01
 10
-873.65300000000002
 20
-2584.4520000000002
 30
0.0
 70
    32
  0
VERTEX
  5
9103
  8
01
 10
-873.84300000000007
 20
-2584.3980000000001
 30
0.0
 70
    32
  0
VERTEX
  5
9104
  8
01
 10
-874.03399999999988
 20
-2584.3560000000002
 30
0.0
 70
    32
  0
VERTEX
  5
9105
  8
01
 10
-874.22799999999995
 20
-2584.3230000000008
 30
0.0
 70
    32
  0
VERTEX
  5
9106
  8
01
 10
-874.42299999999989
 20
-2584.299
 30
0.0
 70
    32
  0
VERTEX
  5
9107
  8
01
 10
-874.61800000000005
 20
-2584.2840000000001
 30
0.0
 70
    32
  0
VERTEX
  5
9108
  8
01
 10
-874.81500000000005
 20
-2584.2780000000012
 30
0.0
 70
    32
  0
VERTEX
  5
9109
  8
01
 10
-875.01100000000008
 20
-2584.2840000000001
 30
0.0
 70
    32
  0
VERTEX
  5
910A
  8
01
 10
-875.20699999999988
 20
-2584.299
 30
0.0
 70
    32
  0
VERTEX
  5
910B
  8
01
 10
-875.40199999999982
 20
-2584.3230000000008
 30
0.0
 70
    32
  0
VERTEX
  5
910C
  8
01
 10
-875.59500000000003
 20
-2584.3560000000002
 30
0.0
 70
    32
  0
VERTEX
  5
910D
  8
01
 10
-875.78699999999981
 20
-2584.3980000000001
 30
0.0
 70
    32
  0
VERTEX
  5
910E
  8
01
 10
-875.97600000000011
 20
-2584.4520000000002
 30
0.0
 70
    32
  0
VERTEX
  5
910F
  8
01
 10
-876.16199999999981
 20
-2584.5120000000002
 30
0.0
 70
    32
  0
VERTEX
  5
9110
  8
01
 10
-876.34500000000003
 20
-2584.5839999999998
 30
0.0
 70
    32
  0
VERTEX
  5
9111
  8
01
 10
-876.52499999999986
 20
-2584.6619999999998
 30
0.0
 70
    32
  0
VERTEX
  5
9112
  8
01
 10
-876.70000000000005
 20
-2584.752
 30
0.0
 70
    32
  0
VERTEX
  5
9113
  8
01
 10
-876.87099999999998
 20
-2584.8480000000009
 30
0.0
 70
    32
  0
VERTEX
  5
9114
  8
01
 10
-877.03699999999992
 20
-2584.953
 30
0.0
 70
    32
  0
VERTEX
  5
9115
  8
01
 10
-877.19699999999989
 20
-2585.0639999999999
 30
0.0
 70
    32
  0
VERTEX
  5
9116
  8
01
 10
-877.35199999999986
 20
-2585.1869999999999
 30
0.0
 70
    32
  0
VERTEX
  5
9117
  8
01
 10
-877.50100000000009
 20
-2585.3130000000001
 30
0.0
 70
    32
  0
VERTEX
  5
9118
  8
01
 10
-877.64300000000014
 20
-2585.451
 30
0.0
 70
    32
  0
VERTEX
  5
9119
  8
01
 10
-877.77799999999991
 20
-2585.5920000000001
 30
0.0
 70
    32
  0
VERTEX
  5
911A
  8
01
 10
-877.90699999999993
 20
-2585.7420000000002
 30
0.0
 70
    32
  0
VERTEX
  5
911B
  8
01
 10
-878.02699999999993
 20
-2585.895
 30
0.0
 70
    32
  0
VERTEX
  5
911C
  8
01
 10
-878.13999999999987
 20
-2586.0569999999998
 30
0.0
 70
    32
  0
VERTEX
  5
911D
  8
01
 10
-878.24599999999998
 20
-2586.2220000000002
 30
0.0
 70
    32
  0
VERTEX
  5
911E
  8
01
 10
-878.34199999999987
 20
-2586.393
 30
0.0
 70
    32
  0
VERTEX
  5
911F
  8
01
 10
-878.43100000000015
 20
-2586.567
 30
0.0
 70
    32
  0
VERTEX
  5
9120
  8
01
 10
-878.50999999999988
 20
-2586.7469999999998
 30
0.0
 70
    32
  0
VERTEX
  5
9121
  8
01
 10
-878.5809999999999
 20
-2586.9299999999998
 30
0.0
 70
    32
  0
VERTEX
  5
9122
  8
01
 10
-878.64199999999994
 20
-2587.116
 30
0.0
 70
    32
  0
VERTEX
  5
9123
  8
01
 10
-878.69500000000005
 20
-2587.3049999999998
 30
0.0
 70
    32
  0
VERTEX
  5
9124
  8
01
 10
-878.73800000000006
 20
-2587.4969999999998
 30
0.0
 70
    32
  0
VERTEX
  5
9125
  8
01
 10
-878.77099999999996
 20
-2587.692
 30
0.0
 70
    32
  0
VERTEX
  5
9126
  8
01
 10
-878.79499999999996
 20
-2587.8870000000002
 30
0.0
 70
    32
  0
VERTEX
  5
9127
  8
01
 10
-878.80999999999995
 20
-2588.0819999999999
 30
0.0
 70
    32
  0
VERTEX
  5
9128
  8
01
 10
-878.81499999999994
 20
-2588.277
 30
0.0
 70
    32
  0
VERTEX
  5
9129
  8
01
 10
-878.80999999999995
 20
-2588.4750000000008
 30
0.0
 70
    32
  0
VERTEX
  5
912A
  8
01
 10
-878.79499999999996
 20
-2588.6700000000001
 30
0.0
 70
    32
  0
VERTEX
  5
912B
  8
01
 10
-878.77099999999996
 20
-2588.8649999999998
 30
0.0
 70
    32
  0
VERTEX
  5
912C
  8
01
 10
-878.73800000000006
 20
-2589.0569999999998
 30
0.0
 70
    32
  0
VERTEX
  5
912D
  8
01
 10
-878.69500000000005
 20
-2589.2490000000012
 30
0.0
 70
    32
  0
VERTEX
  5
912E
  8
01
 10
-878.64199999999994
 20
-2589.4380000000001
 30
0.0
 70
    32
  0
VERTEX
  5
912F
  8
01
 10
-878.5809999999999
 20
-2589.6240000000012
 30
0.0
 70
    32
  0
VERTEX
  5
9130
  8
01
 10
-878.50999999999988
 20
-2589.8069999999998
 30
0.0
 70
    32
  0
VERTEX
  5
9131
  8
01
 10
-878.43100000000015
 20
-2589.9870000000001
 30
0.0
 70
    32
  0
VERTEX
  5
9132
  8
01
 10
-878.34199999999987
 20
-2590.1640000000011
 30
0.0
 70
    32
  0
VERTEX
  5
9133
  8
01
 10
-878.24599999999998
 20
-2590.335
 30
0.0
 70
    32
  0
VERTEX
  5
9134
  8
01
 10
-878.13999999999987
 20
-2590.5
 30
0.0
 70
    32
  0
VERTEX
  5
9135
  8
01
 10
-878.02699999999993
 20
-2590.6590000000001
 30
0.0
 70
    32
  0
VERTEX
  5
9136
  8
01
 10
-877.90699999999993
 20
-2590.8150000000001
 30
0.0
 70
    32
  0
VERTEX
  5
9137
  8
01
 10
-877.77799999999991
 20
-2590.9650000000011
 30
0.0
 70
    32
  0
VERTEX
  5
9138
  8
01
 10
-877.64300000000014
 20
-2591.1060000000002
 30
0.0
 70
    32
  0
VERTEX
  5
9139
  8
01
 10
-877.50100000000009
 20
-2591.241
 30
0.0
 70
    32
  0
VERTEX
  5
913A
  8
01
 10
-877.35199999999986
 20
-2591.3699999999999
 30
0.0
 70
    32
  0
VERTEX
  5
913B
  8
01
 10
-877.19699999999989
 20
-2591.4899999999998
 30
0.0
 70
    32
  0
VERTEX
  5
913C
  8
01
 10
-877.03699999999992
 20
-2591.6039999999998
 30
0.0
 70
    32
  0
VERTEX
  5
913D
  8
01
 10
-876.87099999999998
 20
-2591.7089999999998
 30
0.0
 70
    32
  0
VERTEX
  5
913E
  8
01
 10
-876.70000000000005
 20
-2591.8049999999998
 30
0.0
 70
    32
  0
VERTEX
  5
913F
  8
01
 10
-876.52499999999986
 20
-2591.8919999999998
 30
0.0
 70
    32
  0
VERTEX
  5
9140
  8
01
 10
-876.34500000000003
 20
-2591.9730000000009
 30
0.0
 70
    32
  0
VERTEX
  5
9141
  8
01
 10
-876.16199999999981
 20
-2592.045000000001
 30
0.0
 70
    32
  0
VERTEX
  5
9142
  8
01
 10
-875.97600000000011
 20
-2592.105
 30
0.0
 70
    32
  0
VERTEX
  5
9143
  8
01
 10
-875.78699999999981
 20
-2592.1590000000001
 30
0.0
 70
    32
  0
VERTEX
  5
9144
  8
01
 10
-875.59500000000003
 20
-2592.201
 30
0.0
 70
    32
  0
VERTEX
  5
9145
  8
01
 10
-875.40199999999982
 20
-2592.2339999999999
 30
0.0
 70
    32
  0
VERTEX
  5
9146
  8
01
 10
-875.20699999999988
 20
-2592.2579999999998
 30
0.0
 70
    32
  0
VERTEX
  5
9147
  8
01
 10
-875.01100000000008
 20
-2592.2730000000001
 30
0.0
 70
    32
  0
VERTEX
  5
9148
  8
01
 10
-874.81500000000005
 20
-2592.2790000000009
 30
0.0
 70
    32
  0
VERTEX
  5
9149
  8
01
 10
-874.61800000000005
 20
-2592.2730000000001
 30
0.0
 70
    32
  0
VERTEX
  5
914A
  8
01
 10
-874.42299999999989
 20
-2592.2579999999998
 30
0.0
 70
    32
  0
VERTEX
  5
914B
  8
01
 10
-874.22799999999995
 20
-2592.2339999999999
 30
0.0
 70
    32
  0
VERTEX
  5
914C
  8
01
 10
-874.03399999999988
 20
-2592.201
 30
0.0
 70
    32
  0
VERTEX
  5
914D
  8
01
 10
-873.84300000000007
 20
-2592.1590000000001
 30
0.0
 70
    32
  0
VERTEX
  5
914E
  8
01
 10
-873.65300000000002
 20
-2592.105
 30
0.0
 70
    32
  0
VERTEX
  5
914F
  8
01
 10
-873.46699999999987
 20
-2592.045000000001
 30
0.0
 70
    32
  0
VERTEX
  5
9150
  8
01
 10
-873.28399999999988
 20
-2591.9730000000009
 30
0.0
 70
    32
  0
VERTEX
  5
9151
  8
01
 10
-873.10400000000004
 20
-2591.8919999999998
 30
0.0
 70
    32
  0
VERTEX
  5
9152
  8
01
 10
-872.92899999999997
 20
-2591.8049999999998
 30
0.0
 70
    32
  0
VERTEX
  5
9153
  8
01
 10
-872.75800000000015
 20
-2591.7089999999998
 30
0.0
 70
    32
  0
VERTEX
  5
9154
  8
01
 10
-872.59199999999998
 20
-2591.6039999999998
 30
0.0
 70
    32
  0
VERTEX
  5
9155
  8
01
 10
-872.43200000000002
 20
-2591.4899999999998
 30
0.0
 70
    32
  0
VERTEX
  5
9156
  8
01
 10
-872.27699999999982
 20
-2591.3699999999999
 30
0.0
 70
    32
  0
VERTEX
  5
9157
  8
01
 10
-872.12800000000004
 20
-2591.241
 30
0.0
 70
    32
  0
VERTEX
  5
9158
  8
01
 10
-871.98599999999999
 20
-2591.1060000000002
 30
0.0
 70
    32
  0
VERTEX
  5
9159
  8
01
 10
-871.85100000000011
 20
-2590.9650000000011
 30
0.0
 70
    32
  0
VERTEX
  5
915A
  8
01
 10
-871.72299999999996
 20
-2590.8150000000001
 30
0.0
 70
    32
  0
VERTEX
  5
915B
  8
01
 10
-871.60199999999998
 20
-2590.6590000000001
 30
0.0
 70
    32
  0
VERTEX
  5
915C
  8
01
 10
-871.48899999999981
 20
-2590.5
 30
0.0
 70
    32
  0
VERTEX
  5
915D
  8
01
 10
-871.3839999999999
 20
-2590.335
 30
0.0
 70
    32
  0
VERTEX
  5
915E
  8
01
 10
-871.28699999999981
 20
-2590.1640000000011
 30
0.0
 70
    32
  0
VERTEX
  5
915F
  8
01
 10
-871.19899999999996
 20
-2589.9870000000001
 30
0.0
 70
    32
  0
VERTEX
  5
9160
  8
01
 10
-871.11900000000003
 20
-2589.8069999999998
 30
0.0
 70
    32
  0
VERTEX
  5
9161
  8
01
 10
-871.048
 20
-2589.6240000000012
 30
0.0
 70
    32
  0
VERTEX
  5
9162
  8
01
 10
-870.98699999999997
 20
-2589.4380000000001
 30
0.0
 70
    32
  0
VERTEX
  5
9163
  8
01
 10
-870.93399999999986
 20
-2589.2490000000012
 30
0.0
 70
    32
  0
VERTEX
  5
9164
  8
01
 10
-870.89100000000008
 20
-2589.0569999999998
 30
0.0
 70
    32
  0
VERTEX
  5
9165
  8
01
 10
-870.85800000000006
 20
-2588.8649999999998
 30
0.0
 70
    32
  0
VERTEX
  5
9166
  8
01
 10
-870.83399999999995
 20
-2588.6700000000001
 30
0.0
 70
    32
  0
VERTEX
  5
9167
  8
01
 10
-870.81899999999996
 20
-2588.4750000000008
 30
0.0
 70
    32
  0
VERTEX
  5
9168
  8
01
 10
-870.81500000000005
 20
-2588.277
 30
0.0
 70
    32
  0
SEQEND
  5
9169
  8
01
  0
LINE
  5
916A
  8
01
 10
-918.81460000000015
 20
-2524.2777000000001
 30
0.0
 11
-918.81460000000015
 21
-2516.2779
 31
0.0
  0
LINE
  5
916B
  8
1DIM
 10
-918.81460000000015
 20
-2516.2779
 30
0.0
 11
-897.81460000000004
 21
-2516.2779
 31
0.0
  0
LINE
  5
916C
  8
1DIM
 10
-918.81460000000015
 20
-2524.2777000000001
 30
0.0
 11
-897.81460000000004
 21
-2524.2777000000001
 31
0.0
  0
LINE
  5
916D
  8
1DIM
 10
-898.81460000000004
 20
-2518.2779999999998
 30
0.0
 11
-898.81460000000004
 21
-2522.277900000001
 31
0.0
  0
LINE
  5
916E
  8
0
  6
BYBLOCK
 10
-899.35050000000001
 20
-2518.2779999999998
 30
0.0
 11
-898.81460000000004
 21
-2516.2779
 31
0.0
  0
LINE
  5
916F
  8
0
  6
BYBLOCK
 10
-898.81460000000004
 20
-2516.2779
 30
0.0
 11
-898.27869999999996
 21
-2518.2779999999998
 31
0.0
  0
LINE
  5
9170
  8
0
  6
BYBLOCK
 10
-898.81460000000004
 20
-2516.2779
 30
0.0
 11
-898.81460000000004
 21
-2518.2779999999998
 31
0.0
  0
LINE
  5
9171
  8
0
  6
BYBLOCK
 10
-898.27869999999996
 20
-2522.277900000001
 30
0.0
 11
-898.81460000000004
 21
-2524.2777000000001
 31
0.0
  0
LINE
  5
9172
  8
0
  6
BYBLOCK
 10
-898.81460000000004
 20
-2524.2777000000001
 30
0.0
 11
-899.35050000000001
 21
-2522.277900000001
 31
0.0
  0
LINE
  5
9173
  8
0
  6
BYBLOCK
 10
-898.81460000000004
 20
-2524.2777000000001
 30
0.0
 11
-898.81460000000004
 21
-2522.277900000001
 31
0.0
  0
TEXT
  5
9174
  8
1DIM
 10
-899.51459999999997
 20
-2523.8946000000001
 30
0.0
 40
3.5
  1
φ8
 50
90.0
 41
0.9998999999997977
  0
LINE
  5
9175
  8
1CENTER
 10
-1193.8145999999999
 20
-2599.7777999999998
 30
0.0
 11
-1193.8145999999999
 21
-2611.7777999999998
 31
0.0
  0
LINE
  5
9176
  8
1CENTER
 10
-943.81460000000015
 20
-2599.7777999999998
 30
0.0
 11
-943.81460000000015
 21
-2611.7777999999998
 31
0.0
  0
LINE
  5
9177
  8
1DIM
 10
-878.31460000000004
 20
-2609.7777000000001
 30
0.0
 11
-878.31460000000004
 21
-2640.7775999999999
 31
0.0
  0
LINE
  5
9178
  8
1DIM
 10
-871.31460000000004
 20
-2609.7777000000001
 30
0.0
 11
-871.31460000000004
 21
-2640.7775999999999
 31
0.0
  0
LINE
  5
9179
  8
1DIM
 10
-876.31460000000004
 20
-2639.7777000000001
 30
0.0
 11
-873.31460000000015
 21
-2639.7777000000001
 31
0.0
  0
LINE
  5
917A
  8
1DIM
 10
-871.31460000000004
 20
-2639.7777000000001
 30
0.0
 11
-861.58119999999997
 21
-2639.7777000000001
 31
0.0
  0
LINE
  5
917B
  8
0
  6
BYBLOCK
 10
-876.31460000000004
 20
-2640.3135000000002
 30
0.0
 11
-878.31460000000004
 21
-2639.7777000000001
 31
0.0
  0
LINE
  5
917C
  8
0
  6
BYBLOCK
 10
-878.31460000000004
 20
-2639.7777000000001
 30
0.0
 11
-876.31460000000004
 21
-2639.2419
 31
0.0
  0
LINE
  5
917D
  8
0
  6
BYBLOCK
 10
-878.31460000000004
 20
-2639.7777000000001
 30
0.0
 11
-876.31460000000004
 21
-2639.7777000000001
 31
0.0
  0
LINE
  5
917E
  8
0
  6
BYBLOCK
 10
-873.31460000000015
 20
-2639.2419
 30
0.0
 11
-871.31460000000004
 21
-2639.7777000000001
 31
0.0
  0
LINE
  5
917F
  8
0
  6
BYBLOCK
 10
-871.31460000000004
 20
-2639.7777000000001
 30
0.0
 11
-873.31460000000015
 21
-2640.3135000000002
 31
0.0
  0
LINE
  5
9180
  8
0
  6
BYBLOCK
 10
-871.31460000000004
 20
-2639.7777000000001
 30
0.0
 11
-873.31460000000015
 21
-2639.7777000000001
 31
0.0
  0
TEXT
  5
9181
  8
1DIM
 10
-869.06460000000004
 20
-2639.0778
 30
0.0
 40
3.5001000000002018
  1
φ7
  0
LINE
  5
9182
  8
1CENTER
 10
-874.81460000000004
 20
-2599.7777999999998
 30
0.0
 11
-874.81460000000004
 21
-2611.7777999999998
 31
0.0
  0
LINE
  5
9183
  8
1DIM
 10
-918.81460000000015
 20
-2592.2777999999998
 30
0.0
 11
-897.81460000000004
 21
-2592.2777999999998
 31
0.0
  0
LINE
  5
9184
  8
1DIM
 10
-940.31460000000015
 20
-2609.7777000000001
 30
0.0
 11
-897.81460000000004
 21
-2609.7777000000001
 31
0.0
  0
LINE
  5
9185
  8
1DIM
 10
-898.81460000000004
 20
-2594.2779
 30
0.0
 11
-898.81460000000004
 21
-2607.7775999999999
 31
0.0
  0
LINE
  5
9186
  8
0
  6
BYBLOCK
 10
-899.35050000000001
 20
-2594.2779
 30
0.0
 11
-898.81460000000004
 21
-2592.2777999999998
 31
0.0
  0
LINE
  5
9187
  8
0
  6
BYBLOCK
 10
-898.81460000000004
 20
-2592.2777999999998
 30
0.0
 11
-898.27869999999996
 21
-2594.2779
 31
0.0
  0
LINE
  5
9188
  8
0
  6
BYBLOCK
 10
-898.81460000000004
 20
-2592.2777999999998
 30
0.0
 11
-898.81460000000004
 21
-2594.2779
 31
0.0
  0
LINE
  5
9189
  8
0
  6
BYBLOCK
 10
-898.27869999999996
 20
-2607.7775999999999
 30
0.0
 11
-898.81460000000004
 21
-2609.7777000000001
 31
0.0
  0
LINE
  5
918A
  8
0
  6
BYBLOCK
 10
-898.81460000000004
 20
-2609.7777000000001
 30
0.0
 11
-899.35050000000001
 21
-2607.7775999999999
 31
0.0
  0
LINE
  5
918B
  8
0
  6
BYBLOCK
 10
-898.81460000000004
 20
-2609.7777000000001
 30
0.0
 11
-898.81460000000004
 21
-2607.7775999999999
 31
0.0
  0
TEXT
  5
918C
  8
1DIM
 10
-899.51459999999997
 20
-2605.6943999999999
 30
0.0
 40
3.5
  1
17.5 
 50
90.0
 41
0.9998999999997977
  0
LINE
  5
918D
  8
1DIM
 10
-918.81460000000015
 20
-2584.2777000000001
 30
0.0
 11
-887.81460000000004
 21
-2584.2777000000001
 31
0.0
  0
LINE
  5
918E
  8
1DIM
 10
-940.31460000000015
 20
-2609.7777000000001
 30
0.0
 11
-887.81460000000004
 21
-2609.7777000000001
 31
0.0
  0
LINE
  5
918F
  8
1DIM
 10
-888.81460000000004
 20
-2586.2777999999998
 30
0.0
 11
-888.81460000000004
 21
-2607.7775999999999
 31
0.0
  0
LINE
  5
9190
  8
0
  6
BYBLOCK
 10
-889.35050000000012
 20
-2586.2777999999998
 30
0.0
 11
-888.81460000000004
 21
-2584.2777000000001
 31
0.0
  0
LINE
  5
9191
  8
0
  6
BYBLOCK
 10
-888.81460000000004
 20
-2584.2777000000001
 30
0.0
 11
-888.27869999999996
 21
-2586.2777999999998
 31
0.0
  0
LINE
  5
9192
  8
0
  6
BYBLOCK
 10
-888.81460000000004
 20
-2584.2777000000001
 30
0.0
 11
-888.81460000000004
 21
-2586.2777999999998
 31
0.0
  0
LINE
  5
9193
  8
0
  6
BYBLOCK
 10
-888.27869999999996
 20
-2607.7775999999999
 30
0.0
 11
-888.81460000000004
 21
-2609.7777000000001
 31
0.0
  0
LINE
  5
9194
  8
0
  6
BYBLOCK
 10
-888.81460000000004
 20
-2609.7777000000001
 30
0.0
 11
-889.35050000000012
 21
-2607.7775999999999
 31
0.0
  0
LINE
  5
9195
  8
0
  6
BYBLOCK
 10
-888.81460000000004
 20
-2609.7777000000001
 30
0.0
 11
-888.81460000000004
 21
-2607.7775999999999
 31
0.0
  0
TEXT
  5
9196
  8
1DIM
 10
-889.51459999999997
 20
-2602.2777000000001
 30
0.0
 40
3.5
  1
25.5 
 50
90.0
 41
0.9998999999997977
  0
LINE
  5
9197
  8
01
 10
-918.81460000000015
 20
-2584.2777000000001
 30
0.0
 11
-918.81460000000015
 21
-2592.2777999999998
 31
0.0
  0
LINE
  5
9198
  8
1CENTER
 10
-943.81460000000015
 20
-2523.2777999999998
 30
0.0
 11
-943.81460000000015
 21
-2517.2777999999998
 31
0.0
  0
LINE
  5
9199
  8
1CENTER
 10
-946.81460000000004
 20
-2520.2777999999998
 30
0.0
 11
-940.81460000000004
 21
-2520.2777999999998
 31
0.0
  0
LINE
  5
919A
  8
1CENTER
 10
-1193.8145999999999
 20
-2523.2777999999998
 30
0.0
 11
-1193.8145999999999
 21
-2517.2777999999998
 31
0.0
  0
LINE
  5
919B
  8
1CENTER
 10
-1196.8145999999999
 20
-2520.2777999999998
 30
0.0
 11
-1190.8145999999999
 21
-2520.2777999999998
 31
0.0
  0
LINE
  5
919C
  8
1DIM
 10
-1218.8145999999999
 20
-2592.2777999999998
 30
0.0
 11
-1218.8145999999999
 21
-2640.7775999999999
 31
0.0
  0
LINE
  5
919D
  8
1DIM
 10
-1193.8145999999999
 20
-2611.7777999999998
 30
0.0
 11
-1193.8145999999999
 21
-2640.7775999999999
 31
0.0
  0
LINE
  5
919E
  8
1DIM
 10
-1216.8145999999999
 20
-2639.7777000000001
 30
0.0
 11
-1195.8145999999999
 21
-2639.7777000000001
 31
0.0
  0
LINE
  5
919F
  8
0
  6
BYBLOCK
 10
-1216.8145999999999
 20
-2640.3135000000002
 30
0.0
 11
-1218.8145999999999
 21
-2639.7777000000001
 31
0.0
  0
LINE
  5
91A0
  8
0
  6
BYBLOCK
 10
-1218.8145999999999
 20
-2639.7777000000001
 30
0.0
 11
-1216.8145999999999
 21
-2639.2419
 31
0.0
  0
LINE
  5
91A1
  8
0
  6
BYBLOCK
 10
-1218.8145999999999
 20
-2639.7777000000001
 30
0.0
 11
-1216.8145999999999
 21
-2639.7777000000001
 31
0.0
  0
LINE
  5
91A2
  8
0
  6
BYBLOCK
 10
-1195.8145999999999
 20
-2639.2419
 30
0.0
 11
-1193.8145999999999
 21
-2639.7777000000001
 31
0.0
  0
LINE
  5
91A3
  8
0
  6
BYBLOCK
 10
-1193.8145999999999
 20
-2639.7777000000001
 30
0.0
 11
-1195.8145999999999
 21
-2640.3135000000002
 31
0.0
  0
LINE
  5
91A4
  8
0
  6
BYBLOCK
 10
-1193.8145999999999
 20
-2639.7777000000001
 30
0.0
 11
-1195.8145999999999
 21
-2639.7777000000001
 31
0.0
  0
TEXT
  5
91A5
  8
1DIM
 10
-1209.2311999999999
 20
-2639.0778
 30
0.0
 40
3.5001000000002018
  1
25 
  0
LINE
  5
91A6
  8
1DIM
 10
-943.81460000000015
 20
-2611.7777999999998
 30
0.0
 11
-943.81460000000015
 21
-2640.7775999999999
 31
0.0
  0
LINE
  5
91A7
  8
1DIM
 10
-918.81460000000015
 20
-2592.2777999999998
 30
0.0
 11
-918.81460000000015
 21
-2640.7775999999999
 31
0.0
  0
LINE
  5
91A8
  8
1DIM
 10
-941.81460000000004
 20
-2639.7777000000001
 30
0.0
 11
-920.81460000000015
 21
-2639.7777000000001
 31
0.0
  0
LINE
  5
91A9
  8
0
  6
BYBLOCK
 10
-941.81460000000004
 20
-2640.3135000000002
 30
0.0
 11
-943.81460000000015
 21
-2639.7777000000001
 31
0.0
  0
LINE
  5
91AA
  8
0
  6
BYBLOCK
 10
-943.81460000000015
 20
-2639.7777000000001
 30
0.0
 11
-941.81460000000004
 21
-2639.2419
 31
0.0
  0
LINE
  5
91AB
  8
0
  6
BYBLOCK
 10
-943.81460000000015
 20
-2639.7777000000001
 30
0.0
 11
-941.81460000000004
 21
-2639.7777000000001
 31
0.0
  0
LINE
  5
91AC
  8
0
  6
BYBLOCK
 10
-920.81460000000015
 20
-2639.2419
 30
0.0
 11
-918.81460000000015
 21
-2639.7777000000001
 31
0.0
  0
LINE
  5
91AD
  8
0
  6
BYBLOCK
 10
-918.81460000000015
 20
-2639.7777000000001
 30
0.0
 11
-920.81460000000015
 21
-2640.3135000000002
 31
0.0
  0
LINE
  5
91AE
  8
0
  6
BYBLOCK
 10
-918.81460000000015
 20
-2639.7777000000001
 30
0.0
 11
-920.81460000000015
 21
-2639.7777000000001
 31
0.0
  0
TEXT
  5
91AF
  8
1DIM
 10
-934.23119999999994
 20
-2639.0778
 30
0.0
 40
3.5001000000002018
  1
25 
  0
LINE
  5
91B0
  8
1DIM
 10
-1193.8145999999999
 20
-2611.7777999999998
 30
0.0
 11
-1193.8145999999999
 21
-2640.7775999999999
 31
0.0
  0
LINE
  5
91B1
  8
1DIM
 10
-943.81460000000015
 20
-2611.7777999999998
 30
0.0
 11
-943.81460000000015
 21
-2640.7775999999999
 31
0.0
  0
LINE
  5
91B2
  8
1DIM
 10
-1191.8145999999999
 20
-2639.7777000000001
 30
0.0
 11
-945.81460000000015
 21
-2639.7777000000001
 31
0.0
  0
LINE
  5
91B3
  8
0
  6
BYBLOCK
 10
-1191.8145999999999
 20
-2640.3135000000002
 30
0.0
 11
-1193.8145999999999
 21
-2639.7777000000001
 31
0.0
  0
LINE
  5
91B4
  8
0
  6
BYBLOCK
 10
-1193.8145999999999
 20
-2639.7777000000001
 30
0.0
 11
-1191.8145999999999
 21
-2639.2419
 31
0.0
  0
LINE
  5
91B5
  8
0
  6
BYBLOCK
 10
-1193.8145999999999
 20
-2639.7777000000001
 30
0.0
 11
-1191.8145999999999
 21
-2639.7777000000001
 31
0.0
  0
LINE
  5
91B6
  8
0
  6
BYBLOCK
 10
-945.81460000000015
 20
-2639.2419
 30
0.0
 11
-943.81460000000015
 21
-2639.7777000000001
 31
0.0
  0
LINE
  5
91B7
  8
0
  6
BYBLOCK
 10
-943.81460000000015
 20
-2639.7777000000001
 30
0.0
 11
-945.81460000000015
 21
-2640.3135000000002
 31
0.0
  0
LINE
  5
91B8
  8
0
  6
BYBLOCK
 10
-943.81460000000015
 20
-2639.7777000000001
 30
0.0
 11
-945.81460000000015
 21
-2639.7777000000001
 31
0.0
  0
TEXT
  5
91B9
  8
1DIM
 10
-1074.9395999999999
 20
-2639.0778
 30
0.0
 40
3.5001000000002018
  1
P250 
  0
LINE
  5
91BA
  8
1DIM
 10
-1190.3145999999999
 20
-2609.7777000000001
 30
0.0
 11
-1190.3145999999999
 21
-2630.7777000000001
 31
0.0
  0
LINE
  5
91BB
  8
1DIM
 10
-947.31459999999993
 20
-2609.7777000000001
 30
0.0
 11
-947.31459999999993
 21
-2630.7777000000001
 31
0.0
  0
LINE
  5
91BC
  8
1DIM
 10
-1188.3145999999999
 20
-2629.7777999999998
 30
0.0
 11
-949.31460000000015
 21
-2629.7777999999998
 31
0.0
  0
LINE
  5
91BD
  8
0
  6
BYBLOCK
 10
-1188.3145999999999
 20
-2630.3136
 30
0.0
 11
-1190.3145999999999
 21
-2629.7777999999998
 31
0.0
  0
LINE
  5
91BE
  8
0
  6
BYBLOCK
 10
-1190.3145999999999
 20
-2629.7777999999998
 30
0.0
 11
-1188.3145999999999
 21
-2629.2417
 31
0.0
  0
LINE
  5
91BF
  8
0
  6
BYBLOCK
 10
-1190.3145999999999
 20
-2629.7777999999998
 30
0.0
 11
-1188.3145999999999
 21
-2629.7777999999998
 31
0.0
  0
LINE
  5
91C0
  8
0
  6
BYBLOCK
 10
-949.31460000000015
 20
-2629.2417
 30
0.0
 11
-947.31459999999993
 21
-2629.7777999999998
 31
0.0
  0
LINE
  5
91C1
  8
0
  6
BYBLOCK
 10
-947.31459999999993
 20
-2629.7777999999998
 30
0.0
 11
-949.31460000000015
 21
-2630.3136
 31
0.0
  0
LINE
  5
91C2
  8
0
  6
BYBLOCK
 10
-947.31459999999993
 20
-2629.7777999999998
 30
0.0
 11
-949.31460000000015
 21
-2629.7777999999998
 31
0.0
  0
TEXT
  5
91C3
  8
1DIM
 10
-1073.4811999999999
 20
-2629.0776000000001
 30
0.0
 40
3.5001000000002018
  1
243 
  0
LINE
  5
91C4
  8
1DIM
 10
-1218.8145999999999
 20
-2524.2777000000001
 30
0.0
 11
-1218.8145999999999
 21
-2545.2777000000001
 31
0.0
  0
LINE
  5
91C5
  8
1DIM
 10
-918.81460000000015
 20
-2524.2777000000001
 30
0.0
 11
-918.81460000000015
 21
-2545.2777000000001
 31
0.0
  0
LINE
  5
91C6
  8
1DIM
 10
-1216.8145999999999
 20
-2544.2777999999998
 30
0.0
 11
-920.81460000000015
 21
-2544.2777999999998
 31
0.0
  0
LINE
  5
91C7
  8
0
  6
BYBLOCK
 10
-1216.8145999999999
 20
-2544.8136
 30
0.0
 11
-1218.8145999999999
 21
-2544.2777999999998
 31
0.0
  0
LINE
  5
91C8
  8
0
  6
BYBLOCK
 10
-1218.8145999999999
 20
-2544.2777999999998
 30
0.0
 11
-1216.8145999999999
 21
-2543.7420000000002
 31
0.0
  0
LINE
  5
91C9
  8
0
  6
BYBLOCK
 10
-1218.8145999999999
 20
-2544.2777999999998
 30
0.0
 11
-1216.8145999999999
 21
-2544.2777999999998
 31
0.0
  0
LINE
  5
91CA
  8
0
  6
BYBLOCK
 10
-920.81460000000015
 20
-2543.7420000000002
 30
0.0
 11
-918.81460000000015
 21
-2544.2777999999998
 31
0.0
  0
LINE
  5
91CB
  8
0
  6
BYBLOCK
 10
-918.81460000000015
 20
-2544.2777999999998
 30
0.0
 11
-920.81460000000015
 21
-2544.8136
 31
0.0
  0
LINE
  5
91CC
  8
0
  6
BYBLOCK
 10
-918.81460000000015
 20
-2544.2777999999998
 30
0.0
 11
-920.81460000000015
 21
-2544.2777999999998
 31
0.0
  0
TEXT
  5
91CD
  8
1DIM
 10
-1072.8978999999999
 20
-2543.5779000000002
 30
0.0
 40
3.5000999999997471
  1
300 
  0
SOLID
  5
91CE
  8
1DIM
 10
-873.95389999999998
 20
-2611.6136999999999
 30
0.0
 11
-874.81460000000004
 21
-2609.7777000000001
 31
0.0
 12
-873.40499999999986
 22
-2611.2350999999999
 32
0.0
 13
-873.40499999999986
 23
-2611.2350999999999
 33
0.0
  0
LINE
  5
91CF
  8
1DIM
 10
-873.67939999999987
 20
-2611.4243999999999
 30
0.0
 11
-860.54449999999986
 21
-2630.4777000000008
 31
0.0
  0
LINE
  5
91D0
  8
1DIM
 10
-860.54449999999986
 20
-2630.4777000000008
 30
0.0
 11
-840.67780000000005
 21
-2630.4777000000008
 31
0.0
  0
TEXT
  5
91D1
  8
1DIM
 10
-857.84450000000004
 20
-2629.7777999999998
 30
0.0
 40
3.5001000000002018
  1
M4-10
  0
VIEWPORT
  5
57
 67
     1
  8
0
 10
5.6154163991372421
 20
3.9020832317081959
 30
0.0
 40
12.7102895252974
 41
8.7461330960491512
 68
     1
 69
     1
1001
ACAD
1000
MVIEW
1002
{
1070
    16
1010
0.0
1020
0.0
1030
0.0
1010
0.0
1020
0.0
1030
1.0
1040
0.0
1040
8.7461330960491512
1040
5.6154163991372421
1040
3.9020832317081959
1040
50.0
1040
0.0
1040
0.0
1070
     0
1070
   100
1070
     1
1070
     1
1070
     0
1070
     0
1070
     0
1070
     0
1040
0.0
1040
0.0
1040
0.0
1040
10.0
1040
10.0
1040
10.0
1040
10.0
1070
     0
1002
{
1002
}
1002
}
  0
ENDSEC
  0
EOF
