  0
SECTION
  2
HEADER
  9
$ACADVER
  1
AC1009
  9
$INSBASE
 10
0.0
 20
0.0
 30
0.0
  9
$EXTMIN
 10
-710.11919999999998
 20
-2331.0336000000002
 30
0.0
  9
$EXTMAX
 10
-431.98239999999993
 20
-2118.533699999999
 30
0.0
  9
$LIMMIN
 10
0.0
 20
0.0
  9
$LIMMAX
 10
420.0
 20
297.0
  9
$ORTHOMODE
 70
     0
  9
$REGENMODE
 70
     1
  9
$FILLMODE
 70
     1
  9
$QTEXTMODE
 70
     0
  9
$MIRRTEXT
 70
     1
  9
$DRAGMODE
 70
     2
  9
$LTSCALE
 40
0.5
  9
$OSMODE
 70
  2173
  9
$ATTMODE
 70
     1
  9
$TEXTSIZE
 40
4.0
  9
$TRACEWID
 40
1.0
  9
$TEXTSTYLE
  7
STANDARD
  9
$CLAYER
  8
1TEXT
  9
$CELTYPE
  6
BYLAYER
  9
$CECOLOR
 62
   256
  9
$DIMSCALE
 40
1.0
  9
$DIMASZ
 40
2.0
  9
$DIMEXO
 40
0.0
  9
$DIMDLI
 40
7.0
  9
$DIMRND
 40
0.0
  9
$DIMDLE
 40
0.0
  9
$DIMEXE
 40
1.0
  9
$DIMTP
 40
0.0
  9
$DIMTM
 40
0.0
  9
$DIMTXT
 40
3.5
  9
$DIMCEN
 40
0.0
  9
$DIMTSZ
 40
0.0
  9
$DIMTOL
 70
     0
  9
$DIMLIM
 70
     0
  9
$DIMTIH
 70
     0
  9
$DIMTOH
 70
     0
  9
$DIMSE1
 70
     0
  9
$DIMSE2
 70
     0
  9
$DIMTAD
 70
     1
  9
$DIMZIN
 70
     8
  9
$DIMBLK
  1

  9
$DIMASO
 70
     1
  9
$DIMSHO
 70
     1
  9
$DIMPOST
  1
 
  9
$DIMAPOST
  1

  9
$DIMALT
 70
     0
  9
$DIMALTD
 70
     2
  9
$DIMALTF
 40
25.399999999999999
  9
$DIMLFAC
 40
1.0
  9
$DIMTOFL
 70
     1
  9
$DIMTVP
 40
0.0
  9
$DIMTIX
 70
     0
  9
$DIMSOXD
 70
     0
  9
$DIMSAH
 70
     1
  9
$DIMBLK1
  1
OPEN30
  9
$DIMBLK2
  1
OPEN30
  9
$DIMSTYLE
  2
NEWX10
  9
$DIMCLRD
 70
   256
  9
$DIMCLRE
 70
   256
  9
$DIMCLRT
 70
   201
  9
$DIMTFAC
 40
0.7
  9
$DIMGAP
 40
0.7
  9
$LUNITS
 70
     2
  9
$LUPREC
 70
     4
  9
$SKETCHINC
 40
1.0
  9
$FILLETRAD
 40
0.0
  9
$AUNITS
 70
     0
  9
$AUPREC
 70
     2
  9
$MENU
  1
acad
  9
$ELEVATION
 40
0.0
  9
$PELEVATION
 40
0.0
  9
$THICKNESS
 40
0.0
  9
$LIMCHECK
 70
     0
  9
$BLIPMODE
 70
     0
  9
$CHAMFERA
 40
10.0
  9
$CHAMFERB
 40
10.0
  9
$SKPOLY
 70
     0
  9
$TDCREATE
 40
2453033.7327000001
  9
$TDUPDATE
 40
2453335.4893359379
  9
$TDINDWG
 40
0.2245338194
  9
$TDUSRTIMER
 40
0.2245338194
  9
$USRTIMER
 70
     1
  9
$ANGBASE
 50
0.0
  9
$ANGDIR
 70
     0
  9
$PDMODE
 70
     0
  9
$PDSIZE
 40
0.0
  9
$PLINEWID
 40
0.0
  9
$COORDS
 70
     2
  9
$SPLFRAME
 70
     0
  9
$SPLINETYPE
 70
     6
  9
$SPLINESEGS
 70
     8
  9
$ATTDIA
 70
     0
  9
$ATTREQ
 70
     1
  9
$HANDLING
 70
     1
  9
$HANDSEED
  5
8E31
  9
$SURFTAB1
 70
     6
  9
$SURFTAB2
 70
     6
  9
$SURFTYPE
 70
     6
  9
$SURFU
 70
     6
  9
$SURFV
 70
     6
  9
$UCSNAME
  2

  9
$UCSORG
 10
0.0
 20
0.0
 30
0.0
  9
$UCSXDIR
 10
1.0
 20
0.0
 30
0.0
  9
$UCSYDIR
 10
0.0
 20
1.0
 30
0.0
  9
$PUCSNAME
  2

  9
$PUCSORG
 10
0.0
 20
0.0
 30
0.0
  9
$PUCSXDIR
 10
1.0
 20
0.0
 30
0.0
  9
$PUCSYDIR
 10
0.0
 20
1.0
 30
0.0
  9
$USERI1
 70
     0
  9
$USERI2
 70
     0
  9
$USERI3
 70
     0
  9
$USERI4
 70
     0
  9
$USERI5
 70
     0
  9
$USERR1
 40
0.0
  9
$USERR2
 40
0.0
  9
$USERR3
 40
0.0
  9
$USERR4
 40
0.0
  9
$USERR5
 40
0.0
  9
$WORLDVIEW
 70
     1
  9
$SHADEDGE
 70
     3
  9
$SHADEDIF
 70
    70
  9
$TILEMODE
 70
     1
  9
$MAXACTVP
 70
    48
  9
$PLIMCHECK
 70
     0
  9
$PEXTMIN
 10
1.0000000000000000E+020
 20
1.0000000000000000E+020
 30
1.0000000000000000E+020
  9
$PEXTMAX
 10
-1.0000000000000000E+020
 20
-1.0000000000000000E+020
 30
-1.0000000000000000E+020
  9
$PLIMMIN
 10
0.0
 20
0.0
  9
$PLIMMAX
 10
420.0
 20
297.0
  9
$UNITMODE
 70
     0
  9
$VISRETAIN
 70
     1
  9
$PLINEGEN
 70
     0
  9
$PSLTSCALE
 70
     1
  0
ENDSEC
  0
SECTION
  2
TABLES
  0
TABLE
  2
VPORT
 70
     4
  0
VPORT
  2
*ACTIVE
 70
     0
 10
0.0
 20
0.0
 11
1.0
 21
1.0
 12
-571.05079999999987
 22
-2224.7836499999999
 13
0.0
 23
0.0
 14
10.0
 24
10.0
 15
10.0
 25
10.0
 16
0.0
 26
0.0
 36
1.0
 17
0.0
 27
0.0
 37
0.0
 40
225.42483759983671
 41
1.453246753246753
 42
50.0
 43
0.0
 44
0.0
 50
0.0
 51
0.0
 71
     0
 72
   100
 73
     1
 74
     1
 75
     0
 76
     0
 77
     0
 78
     0
  0
ENDTAB
  0
TABLE
  2
LTYPE
 70
     4
  0
LTYPE
  2
CONTINUOUS
 70
     0
  3
Solid line
 72
    65
 73
     0
 40
0.0
  0
LTYPE
  2
CENTER2
 70
     0
  3
Center (.5x) ___ _ ___ _ ___ _ ___ _ ___ _ ___
 72
    65
 73
     4
 40
28.574999999999999
 49
19.050000000000001
 49
-3.1749999999999989
 49
3.1749999999999989
 49
-3.1749999999999989
  0
ENDTAB
  0
TABLE
  2
LAYER
 70
    11
  0
LAYER
  2
0
 70
     0
 62
     7
  6
CONTINUOUS
  0
LAYER
  2
1TEXT
 70
     0
 62
     7
  6
CONTINUOUS
  0
LAYER
  2
1CENTER
 70
     0
 62
     7
  6
CENTER2
  0
LAYER
  2
1DIM
 70
     0
 62
     7
  6
CONTINUOUS
  0
LAYER
  2
01
 70
     0
 62
     1
  6
CONTINUOUS
  0
ENDTAB
  0
TABLE
  2
STYLE
 70
     1
  0
STYLE
  2
STANDARD
 70
     0
 40
0.0
 41
1.0
 50
0.0
 71
     0
 42
4.0
  3
txt.shx
  4
extfont.shx
  0
ENDTAB
  0
TABLE
  2
VIEW
 70
     0
  0
ENDTAB
  0
TABLE
  2
UCS
 70
     0
  0
ENDTAB
  0
TABLE
  2
APPID
 70
     9
  0
APPID
  2
ACAD
 70
     0
  0
APPID
  2
DRAWINGVARIABLESXDATA
 70
     0
  0
APPID
  2
CONTENTTABDATA
 70
     0
  0
APPID
  2
CONTENTCURRENTTAB
 70
     0
  0
APPID
  2
CONTENTBLOCKDESCRIPTION
 70
     0
  0
APPID
  2
CONTENTBLOCKICON
 70
     0
  0
APPID
  2
CONTENTLONGBLOCKNAME
 70
     0
  0
APPID
  2
ACAD_PSEXT
 70
     0
  0
APPID
  2
ACAD_DSTYLE_DIMTEXT_FILL
 70
     0
  0
ENDTAB
  0
TABLE
  2
DIMSTYLE
 70
     1
  0
DIMSTYLE
  2
NEWX10
 70
     0
  3
 
  4

  5

  6

  7

 40
1.0
 41
2.0
 42
0.0
 43
7.0
 44
1.0
 45
0.0
 46
0.0
 47
0.0
 48
0.0
140
3.5
141
0.0
142
0.0
143
25.399999999999999
144
1.0
145
0.0
146
0.7
147
0.7
 71
     0
 72
     0
 73
     0
 74
     0
 75
     0
 76
     0
 77
     1
 78
     8
170
     0
171
     2
172
     1
173
     1
174
     0
175
     0
176
   256
177
   256
178
   201
  0
ENDTAB
  0
ENDSEC
  0
SECTION
  2
BLOCKS
  0
BLOCK
  8
0
  2
$MODEL_SPACE
 70
     0
 10
0.0
 20
0.0
 30
0.0
  3
$MODEL_SPACE
  1

  0
ENDBLK
  5
89BA
  8
0
  0
BLOCK
 67
     1
  8
0
  2
$PAPER_SPACE
 70
     0
 10
0.0
 20
0.0
 30
0.0
  3
$PAPER_SPACE
  1

  0
ENDBLK
  5
89B6
 67
     1
  8
0
  0
BLOCK
  8
0
  2
_OPEN30
 70
     0
 10
0.0
 20
0.0
 30
0.0
  3
_OPEN30
  1

  0
LINE
  5
44
  8
0
  6
BYBLOCK
 62
     0
 10
-1.0
 20
0.2679
 30
0.0
 11
0.0
 21
0.0
 31
0.0
  0
LINE
  5
45
  8
0
  6
BYBLOCK
 62
     0
 10
0.0
 20
0.0
 30
0.0
 11
-1.0
 21
-0.2679
 31
0.0
  0
LINE
  5
46
  8
0
  6
BYBLOCK
 62
     0
 10
0.0
 20
0.0
 30
0.0
 11
-1.0
 21
0.0
 31
0.0
  0
ENDBLK
  5
47
  8
0
  0
ENDSEC
  0
SECTION
  2
ENTITIES
  0
TEXT
  5
8C0C
  8
1TEXT
 10
-701.65170000000001
 20
-2126.5338000000002
 30
0.0
 40
8.0001000000002023
  1
PK03-150
  0
TEXT
  5
8C0D
  8
1TEXT
 10
-695.90757999999994
 20
-2306.2676999999999
 30
0.0
 40
3.9998999999997968
  1
材質：真鍮
 72
     1
 11
-684.44119999999998
 21
-2306.2676999999999
 31
0.0
  0
LINE
  5
8C0E
  8
1DIM
 10
-710.11919999999998
 20
-2331.0336000000002
 30
0.0
 11
-640.11919999999986
 21
-2331.0336000000002
 31
0.0
  0
TEXT
  5
8C0F
  8
1TEXT
 10
-703.36655285714289
 20
-2315.5338000000002
 30
0.0
 40
3.999900000000252
  1
表面処理：
 72
     1
 11
-692.71919999999989
 21
-2315.5338000000002
 31
0.0
  0
TEXT
  5
8C10
  8
1TEXT
 10
-702.05229999999995
 20
-2322.3690000000001
 30
0.0
 40
3.999900000000252
  1
クローム
 72
     1
 11
-692.71919999999989
 21
-2322.3690000000001
 31
0.0
  0
LINE
  5
8C11
  8
1DIM
 10
-710.11919999999998
 20
-2310.0336000000002
 30
0.0
 11
-640.11919999999986
 21
-2310.0336000000002
 31
0.0
  0
LINE
  5
8C12
  8
1DIM
 10
-710.11919999999998
 20
-2317.0338000000002
 30
0.0
 11
-640.11919999999986
 21
-2317.0338000000002
 31
0.0
  0
LINE
  5
8C13
  8
1DIM
 10
-710.11919999999998
 20
-2324.0337
 30
0.0
 11
-640.11919999999986
 21
-2324.0337
 31
0.0
  0
LINE
  5
8C14
  8
1DIM
 10
-710.11919999999998
 20
-2324.0337
 30
0.0
 11
-640.11919999999986
 21
-2324.0337
 31
0.0
  0
LINE
  5
8C15
  8
1DIM
 10
-675.11919999999986
 20
-2310.0336000000002
 30
0.0
 11
-675.11919999999986
 21
-2331.0336000000002
 31
0.0
  0
TEXT
  5
8C16
  8
1TEXT
 10
-671.71884999999986
 20
-2322.7482
 30
0.0
 40
3.9998999999997968
  1
PK03C150
 72
     1
 11
-657.7192
 21
-2322.7482
 31
0.0
  0
TEXT
  5
8C17
  8
1TEXT
 10
-664.51903000000004
 20
-2315.5338000000002
 30
0.0
 40
3.999900000000252
  1
コード
 72
     1
 11
-657.7192
 21
-2315.5338000000002
 31
0.0
  0
TEXT
  5
8C18
  8
1TEXT
 10
-708.98545999999988
 20
-2329.3445999999999
 30
0.0
 40
3.999900000000252
  1
サテンニッケル
 72
     1
 11
-692.71919999999989
 21
-2329.3445999999999
 31
0.0
  0
LINE
  5
8C19
  8
1DIM
 10
-710.11919999999998
 20
-2331.0336000000002
 30
0.0
 11
-710.11919999999998
 21
-2310.0336000000002
 31
0.0
  0
LINE
  5
8C1A
  8
1DIM
 10
-640.11919999999986
 20
-2331.0336000000002
 30
0.0
 11
-640.11919999999986
 21
-2310.0336000000002
 31
0.0
  0
TEXT
  5
8C1B
  8
1TEXT
 10
-671.71884999999986
 20
-2329.7480999999998
 30
0.0
 40
3.999900000000252
  1
PK03N150
 72
     1
 11
-657.7192
 21
-2329.7480999999998
 31
0.0
  0
LINE
  5
8C1C
  8
01
 10
-469.61919999999992
 20
-2230.4703
 30
0.0
 11
-469.61919999999992
 21
-2250.0338999999999
 31
0.0
  0
LINE
  5
8C1D
  8
01
 10
-462.61919999999992
 20
-2230.4703
 30
0.0
 11
-462.61919999999992
 21
-2250.0338999999999
 31
0.0
  0
LINE
  5
8C1E
  8
01
 10
-531.61919999999998
 20
-2232.5337
 30
0.0
 11
-531.61919999999998
 21
-2250.0338999999999
 31
0.0
  0
LINE
  5
8C1F
  8
01
 10
-538.61919999999998
 20
-2232.5337
 30
0.0
 11
-538.61919999999998
 21
-2250.0338999999999
 31
0.0
  0
LINE
  5
8C20
  8
01
 10
-681.61919999999998
 20
-2232.5337
 30
0.0
 11
-681.61919999999998
 21
-2250.0338999999999
 31
0.0
  0
LINE
  5
8C21
  8
01
 10
-688.61919999999998
 20
-2232.5337
 30
0.0
 11
-688.61919999999998
 21
-2250.0338999999999
 31
0.0
  0
LINE
  5
8C22
  8
01
 10
-688.61919999999998
 20
-2250.0338999999999
 30
0.0
 11
-681.61919999999998
 21
-2250.0338999999999
 31
0.0
  0
LINE
  5
8C23
  8
01
 10
-538.61919999999998
 20
-2250.0338999999999
 30
0.0
 11
-531.61919999999998
 21
-2250.0338999999999
 31
0.0
  0
LINE
  5
8C24
  8
01
 10
-462.61919999999992
 20
-2250.0338999999999
 30
0.0
 11
-469.61919999999992
 21
-2250.0338999999999
 31
0.0
  0
LINE
  5
8C25
  8
01
 10
-710.11919999999998
 20
-2232.5337
 30
0.0
 11
-688.61919999999998
 21
-2232.5337
 31
0.0
  0
LINE
  5
8C26
  8
01
 10
-681.61919999999998
 20
-2232.5337
 30
0.0
 11
-538.61919999999998
 21
-2232.5337
 31
0.0
  0
LINE
  5
8C27
  8
01
 10
-710.11919999999998
 20
-2224.5338999999999
 30
0.0
 11
-510.11919999999998
 21
-2224.5338999999999
 31
0.0
  0
LINE
  5
8C28
  8
01
 10
-710.11919999999998
 20
-2156.5338000000002
 30
0.0
 11
-510.11919999999998
 21
-2156.5338000000002
 31
0.0
  0
LINE
  5
8C29
  8
01
 10
-710.11919999999998
 20
-2164.5338999999999
 30
0.0
 11
-510.11919999999998
 21
-2164.5338999999999
 31
0.0
  0
LINE
  5
8C2A
  8
01
 10
-710.11919999999998
 20
-2232.5337
 30
0.0
 11
-688.61919999999998
 21
-2232.5337
 31
0.0
  0
LINE
  5
8C2B
  8
01
 10
-710.11919999999998
 20
-2224.5338999999999
 30
0.0
 11
-710.11919999999998
 21
-2232.5337
 31
0.0
  0
POLYLINE
  5
8C2C
  8
01
 66
     1
 10
0.0
 20
0.0
 30
0.0
 70
     8
  0
VERTEX
  5
8C2D
  8
01
 10
-681.6189999999998
 20
-2232.5340000000001
 30
0.0
 70
    32
  0
VERTEX
  5
8C2E
  8
01
 10
-681.65199999999993
 20
-2232.4769999999999
 30
0.0
 70
    32
  0
VERTEX
  5
8C2F
  8
01
 10
-681.68600000000004
 20
-2232.416999999999
 30
0.0
 70
    32
  0
VERTEX
  5
8C30
  8
01
 10
-681.72000000000003
 20
-2232.3630000000012
 30
0.0
 70
    32
  0
VERTEX
  5
8C31
  8
01
 10
-681.75600000000009
 20
-2232.306
 30
0.0
 70
    32
  0
VERTEX
  5
8C32
  8
01
 10
-681.79199999999992
 20
-2232.2489999999998
 30
0.0
 70
    32
  0
VERTEX
  5
8C33
  8
01
 10
-681.83000000000004
 20
-2232.1950000000002
 30
0.0
 70
    32
  0
VERTEX
  5
8C34
  8
01
 10
-681.86800000000005
 20
-2232.1410000000001
 30
0.0
 70
    32
  0
VERTEX
  5
8C35
  8
01
 10
-681.90699999999993
 20
-2232.087
 30
0.0
 70
    32
  0
VERTEX
  5
8C36
  8
01
 10
-681.94699999999989
 20
-2232.0330000000008
 30
0.0
 70
    32
  0
VERTEX
  5
8C37
  8
01
 10
-681.98800000000006
 20
-2231.982
 30
0.0
 70
    32
  0
VERTEX
  5
8C38
  8
01
 10
-682.02999999999986
 20
-2231.9279999999999
 30
0.0
 70
    32
  0
VERTEX
  5
8C39
  8
01
 10
-682.07299999999998
 20
-2231.877
 30
0.0
 70
    32
  0
VERTEX
  5
8C3A
  8
01
 10
-682.11699999999985
 20
-2231.8290000000002
 30
0.0
 70
    32
  0
VERTEX
  5
8C3B
  8
01
 10
-682.16099999999994
 20
-2231.7779999999998
 30
0.0
 70
    32
  0
VERTEX
  5
8C3C
  8
01
 10
-682.20600000000002
 20
-2231.73
 30
0.0
 70
    32
  0
VERTEX
  5
8C3D
  8
01
 10
-682.25199999999995
 20
-2231.6819999999998
 30
0.0
 70
    32
  0
VERTEX
  5
8C3E
  8
01
 10
-682.29899999999986
 20
-2231.634
 30
0.0
 70
    32
  0
VERTEX
  5
8C3F
  8
01
 10
-682.34699999999998
 20
-2231.5859999999998
 30
0.0
 70
    32
  0
VERTEX
  5
8C40
  8
01
 10
-682.39499999999987
 20
-2231.5410000000002
 30
0.0
 70
    32
  0
VERTEX
  5
8C41
  8
01
 10
-682.44399999999996
 20
-2231.4960000000001
 30
0.0
 70
    32
  0
VERTEX
  5
8C42
  8
01
 10
-682.4939999999998
 20
-2231.451
 30
0.0
 70
    32
  0
VERTEX
  5
8C43
  8
01
 10
-682.54499999999996
 20
-2231.4090000000001
 30
0.0
 70
    32
  0
VERTEX
  5
8C44
  8
01
 10
-682.596
 20
-2231.3670000000002
 30
0.0
 70
    32
  0
VERTEX
  5
8C45
  8
01
 10
-682.64800000000002
 20
-2231.3249999999998
 30
0.0
 70
    32
  0
VERTEX
  5
8C46
  8
01
 10
-682.70100000000002
 20
-2231.2830000000008
 30
0.0
 70
    32
  0
VERTEX
  5
8C47
  8
01
 10
-682.75399999999991
 20
-2231.2440000000001
 30
0.0
 70
    32
  0
VERTEX
  5
8C48
  8
01
 10
-682.80799999999988
 20
-2231.2049999999999
 30
0.0
 70
    32
  0
VERTEX
  5
8C49
  8
01
 10
-682.86300000000006
 20
-2231.1689999999999
 30
0.0
 70
    32
  0
VERTEX
  5
8C4A
  8
01
 10
-682.91800000000001
 20
-2231.1300000000001
 30
0.0
 70
    32
  0
VERTEX
  5
8C4B
  8
01
 10
-682.97399999999993
 20
-2231.0940000000001
 30
0.0
 70
    32
  0
VERTEX
  5
8C4C
  8
01
 10
-683.03099999999995
 20
-2231.058
 30
0.0
 70
    32
  0
VERTEX
  5
8C4D
  8
01
 10
-683.08799999999997
 20
-2231.0250000000001
 30
0.0
 70
    32
  0
VERTEX
  5
8C4E
  8
01
 10
-683.14499999999998
 20
-2230.9920000000002
 30
0.0
 70
    32
  0
VERTEX
  5
8C4F
  8
01
 10
-683.20399999999995
 20
-2230.9589999999998
 30
0.0
 70
    32
  0
VERTEX
  5
8C50
  8
01
 10
-683.26199999999994
 20
-2230.9290000000001
 30
0.0
 70
    32
  0
VERTEX
  5
8C51
  8
01
 10
-683.32100000000003
 20
-2230.8960000000002
 30
0.0
 70
    32
  0
VERTEX
  5
8C52
  8
01
 10
-683.38099999999997
 20
-2230.8690000000001
 30
0.0
 70
    32
  0
VERTEX
  5
8C53
  8
01
 10
-683.44100000000003
 20
-2230.8389999999999
 30
0.0
 70
    32
  0
VERTEX
  5
8C54
  8
01
 10
-683.50199999999995
 20
-2230.8119999999999
 30
0.0
 70
    32
  0
VERTEX
  5
8C55
  8
01
 10
-683.56299999999999
 20
-2230.7849999999999
 30
0.0
 70
    32
  0
VERTEX
  5
8C56
  8
01
 10
-683.62499999999989
 20
-2230.761
 30
0.0
 70
    32
  0
VERTEX
  5
8C57
  8
01
 10
-683.68700000000001
 20
-2230.7370000000001
 30
0.0
 70
    32
  0
VERTEX
  5
8C58
  8
01
 10
-683.7489999999998
 20
-2230.7130000000002
 30
0.0
 70
    32
  0
VERTEX
  5
8C59
  8
01
 10
-683.8119999999999
 20
-2230.6889999999999
 30
0.0
 70
    32
  0
VERTEX
  5
8C5A
  8
01
 10
-683.875
 20
-2230.6680000000001
 30
0.0
 70
    32
  0
VERTEX
  5
8C5B
  8
01
 10
-683.93799999999999
 20
-2230.6500000000001
 30
0.0
 70
    32
  0
VERTEX
  5
8C5C
  8
01
 10
-684.00199999999995
 20
-2230.6289999999999
 30
0.0
 70
    32
  0
VERTEX
  5
8C5D
  8
01
 10
-684.06600000000003
 20
-2230.6109999999999
 30
0.0
 70
    32
  0
VERTEX
  5
8C5E
  8
01
 10
-684.13099999999997
 20
-2230.596
 30
0.0
 70
    32
  0
VERTEX
  5
8C5F
  8
01
 10
-684.19500000000005
 20
-2230.5780000000009
 30
0.0
 70
    32
  0
VERTEX
  5
8C60
  8
01
 10
-684.25999999999999
 20
-2230.5630000000001
 30
0.0
 70
    32
  0
VERTEX
  5
8C61
  8
01
 10
-684.32500000000005
 20
-2230.5509999999999
 30
0.0
 70
    32
  0
VERTEX
  5
8C62
  8
01
 10
-684.39100000000008
 20
-2230.5360000000001
 30
0.0
 70
    32
  0
VERTEX
  5
8C63
  8
01
 10
-684.45600000000002
 20
-2230.527
 30
0.0
 70
    32
  0
VERTEX
  5
8C64
  8
01
 10
-684.52199999999993
 20
-2230.5149999999999
 30
0.0
 70
    32
  0
VERTEX
  5
8C65
  8
01
 10
-684.58800000000008
 20
-2230.5059999999999
 30
0.0
 70
    32
  0
VERTEX
  5
8C66
  8
01
 10
-684.654
 20
-2230.4969999999998
 30
0.0
 70
    32
  0
VERTEX
  5
8C67
  8
01
 10
-684.72000000000003
 20
-2230.491
 30
0.0
 70
    32
  0
VERTEX
  5
8C68
  8
01
 10
-684.78699999999992
 20
-2230.4850000000001
 30
0.0
 70
    32
  0
VERTEX
  5
8C69
  8
01
 10
-684.85300000000007
 20
-2230.4789999999998
 30
0.0
 70
    32
  0
VERTEX
  5
8C6A
  8
01
 10
-684.91999999999985
 20
-2230.4760000000001
 30
0.0
 70
    32
  0
VERTEX
  5
8C6B
  8
01
 10
-684.9860000000001
 20
-2230.473
 30
0.0
 70
    32
  0
VERTEX
  5
8C6C
  8
01
 10
-685.053
 20
-2230.4699999999998
 30
0.0
 70
    32
  0
VERTEX
  5
8C6D
  8
01
 10
-685.11899999999991
 20
-2230.4699999999998
 30
0.0
 70
    32
  0
VERTEX
  5
8C6E
  8
01
 10
-685.18600000000004
 20
-2230.4699999999998
 30
0.0
 70
    32
  0
VERTEX
  5
8C6F
  8
01
 10
-685.25199999999995
 20
-2230.473
 30
0.0
 70
    32
  0
VERTEX
  5
8C70
  8
01
 10
-685.31899999999985
 20
-2230.4760000000001
 30
0.0
 70
    32
  0
VERTEX
  5
8C71
  8
01
 10
-685.38499999999999
 20
-2230.4789999999998
 30
0.0
 70
    32
  0
VERTEX
  5
8C72
  8
01
 10
-685.45199999999988
 20
-2230.4850000000001
 30
0.0
 70
    32
  0
VERTEX
  5
8C73
  8
01
 10
-685.51800000000003
 20
-2230.491
 30
0.0
 70
    32
  0
VERTEX
  5
8C74
  8
01
 10
-685.58399999999995
 20
-2230.4969999999998
 30
0.0
 70
    32
  0
VERTEX
  5
8C75
  8
01
 10
-685.64999999999986
 20
-2230.5059999999999
 30
0.0
 70
    32
  0
VERTEX
  5
8C76
  8
01
 10
-685.71600000000001
 20
-2230.5149999999999
 30
0.0
 70
    32
  0
VERTEX
  5
8C77
  8
01
 10
-685.78199999999993
 20
-2230.527
 30
0.0
 70
    32
  0
VERTEX
  5
8C78
  8
01
 10
-685.84800000000007
 20
-2230.5360000000001
 30
0.0
 70
    32
  0
VERTEX
  5
8C79
  8
01
 10
-685.91300000000001
 20
-2230.5509999999999
 30
0.0
 70
    32
  0
VERTEX
  5
8C7A
  8
01
 10
-685.97799999999995
 20
-2230.5630000000001
 30
0.0
 70
    32
  0
VERTEX
  5
8C7B
  8
01
 10
-686.04300000000001
 20
-2230.5780000000009
 30
0.0
 70
    32
  0
VERTEX
  5
8C7C
  8
01
 10
-686.10800000000006
 20
-2230.596
 30
0.0
 70
    32
  0
VERTEX
  5
8C7D
  8
01
 10
-686.17200000000003
 20
-2230.6109999999999
 30
0.0
 70
    32
  0
VERTEX
  5
8C7E
  8
01
 10
-686.2360000000001
 20
-2230.6289999999999
 30
0.0
 70
    32
  0
VERTEX
  5
8C7F
  8
01
 10
-686.29999999999995
 20
-2230.6500000000001
 30
0.0
 70
    32
  0
VERTEX
  5
8C80
  8
01
 10
-686.36300000000006
 20
-2230.6680000000001
 30
0.0
 70
    32
  0
VERTEX
  5
8C81
  8
01
 10
-686.42700000000002
 20
-2230.6889999999999
 30
0.0
 70
    32
  0
VERTEX
  5
8C82
  8
01
 10
-686.48899999999992
 20
-2230.7130000000002
 30
0.0
 70
    32
  0
VERTEX
  5
8C83
  8
01
 10
-686.55200000000002
 20
-2230.7370000000001
 30
0.0
 70
    32
  0
VERTEX
  5
8C84
  8
01
 10
-686.61399999999992
 20
-2230.761
 30
0.0
 70
    32
  0
VERTEX
  5
8C85
  8
01
 10
-686.67499999999995
 20
-2230.7849999999999
 30
0.0
 70
    32
  0
VERTEX
  5
8C86
  8
01
 10
-686.7360000000001
 20
-2230.8119999999999
 30
0.0
 70
    32
  0
VERTEX
  5
8C87
  8
01
 10
-686.79700000000003
 20
-2230.8389999999999
 30
0.0
 70
    32
  0
VERTEX
  5
8C88
  8
01
 10
-686.85699999999997
 20
-2230.8690000000001
 30
0.0
 70
    32
  0
VERTEX
  5
8C89
  8
01
 10
-686.91699999999992
 20
-2230.8960000000002
 30
0.0
 70
    32
  0
VERTEX
  5
8C8A
  8
01
 10
-686.97600000000011
 20
-2230.9290000000001
 30
0.0
 70
    32
  0
VERTEX
  5
8C8B
  8
01
 10
-687.03499999999997
 20
-2230.9589999999998
 30
0.0
 70
    32
  0
VERTEX
  5
8C8C
  8
01
 10
-687.09300000000007
 20
-2230.9920000000002
 30
0.0
 70
    32
  0
VERTEX
  5
8C8D
  8
01
 10
-687.15099999999995
 20
-2231.0250000000001
 30
0.0
 70
    32
  0
VERTEX
  5
8C8E
  8
01
 10
-687.20800000000008
 20
-2231.058
 30
0.0
 70
    32
  0
VERTEX
  5
8C8F
  8
01
 10
-687.26399999999978
 20
-2231.0940000000001
 30
0.0
 70
    32
  0
VERTEX
  5
8C90
  8
01
 10
-687.32000000000005
 20
-2231.1300000000001
 30
0.0
 70
    32
  0
VERTEX
  5
8C91
  8
01
 10
-687.375
 20
-2231.1689999999999
 30
0.0
 70
    32
  0
VERTEX
  5
8C92
  8
01
 10
-687.42999999999995
 20
-2231.2049999999999
 30
0.0
 70
    32
  0
VERTEX
  5
8C93
  8
01
 10
-687.48399999999981
 20
-2231.2440000000001
 30
0.0
 70
    32
  0
VERTEX
  5
8C94
  8
01
 10
-687.5379999999999
 20
-2231.2830000000008
 30
0.0
 70
    32
  0
VERTEX
  5
8C95
  8
01
 10
-687.59000000000003
 20
-2231.3249999999998
 30
0.0
 70
    32
  0
VERTEX
  5
8C96
  8
01
 10
-687.64199999999994
 20
-2231.3670000000002
 30
0.0
 70
    32
  0
VERTEX
  5
8C97
  8
01
 10
-687.69399999999985
 20
-2231.4090000000001
 30
0.0
 70
    32
  0
VERTEX
  5
8C98
  8
01
 10
-687.74399999999991
 20
-2231.451
 30
0.0
 70
    32
  0
VERTEX
  5
8C99
  8
01
 10
-687.79399999999987
 20
-2231.4960000000001
 30
0.0
 70
    32
  0
VERTEX
  5
8C9A
  8
01
 10
-687.84299999999996
 20
-2231.5410000000002
 30
0.0
 70
    32
  0
VERTEX
  5
8C9B
  8
01
 10
-687.89199999999994
 20
-2231.5859999999998
 30
0.0
 70
    32
  0
VERTEX
  5
8C9C
  8
01
 10
-687.93899999999985
 20
-2231.634
 30
0.0
 70
    32
  0
VERTEX
  5
8C9D
  8
01
 10
-687.98599999999999
 20
-2231.6819999999998
 30
0.0
 70
    32
  0
VERTEX
  5
8C9E
  8
01
 10
-688.03199999999993
 20
-2231.73
 30
0.0
 70
    32
  0
VERTEX
  5
8C9F
  8
01
 10
-688.077
 20
-2231.7779999999998
 30
0.0
 70
    32
  0
VERTEX
  5
8CA0
  8
01
 10
-688.12199999999984
 20
-2231.8290000000002
 30
0.0
 70
    32
  0
VERTEX
  5
8CA1
  8
01
 10
-688.16499999999985
 20
-2231.877
 30
0.0
 70
    32
  0
VERTEX
  5
8CA2
  8
01
 10
-688.20800000000008
 20
-2231.9279999999999
 30
0.0
 70
    32
  0
VERTEX
  5
8CA3
  8
01
 10
-688.25
 20
-2231.982
 30
0.0
 70
    32
  0
VERTEX
  5
8CA4
  8
01
 10
-688.29100000000005
 20
-2232.0330000000008
 30
0.0
 70
    32
  0
VERTEX
  5
8CA5
  8
01
 10
-688.33100000000002
 20
-2232.087
 30
0.0
 70
    32
  0
VERTEX
  5
8CA6
  8
01
 10
-688.37
 20
-2232.1410000000001
 30
0.0
 70
    32
  0
VERTEX
  5
8CA7
  8
01
 10
-688.40899999999999
 20
-2232.1950000000002
 30
0.0
 70
    32
  0
VERTEX
  5
8CA8
  8
01
 10
-688.44600000000003
 20
-2232.2489999999998
 30
0.0
 70
    32
  0
VERTEX
  5
8CA9
  8
01
 10
-688.48299999999995
 20
-2232.306
 30
0.0
 70
    32
  0
VERTEX
  5
8CAA
  8
01
 10
-688.51800000000003
 20
-2232.3630000000012
 30
0.0
 70
    32
  0
VERTEX
  5
8CAB
  8
01
 10
-688.553
 20
-2232.416999999999
 30
0.0
 70
    32
  0
VERTEX
  5
8CAC
  8
01
 10
-688.58600000000001
 20
-2232.4769999999999
 30
0.0
 70
    32
  0
VERTEX
  5
8CAD
  8
01
 10
-688.61899999999991
 20
-2232.5340000000001
 30
0.0
 70
    32
  0
SEQEND
  5
8CAE
  8
01
  0
LINE
  5
8CAF
  8
01
 10
-710.11919999999998
 20
-2164.5338999999999
 30
0.0
 11
-710.11919999999998
 21
-2156.5338000000002
 31
0.0
  0
LINE
  5
8CB0
  8
01
 10
-531.61919999999998
 20
-2232.5337
 30
0.0
 11
-510.11919999999998
 21
-2232.5337
 31
0.0
  0
POLYLINE
  5
8CB1
  8
01
 66
     1
 10
0.0
 20
0.0
 30
0.0
 70
     8
  0
VERTEX
  5
8CB2
  8
01
 10
-531.61900000000003
 20
-2232.5340000000001
 30
0.0
 70
    32
  0
VERTEX
  5
8CB3
  8
01
 10
-531.65199999999993
 20
-2232.4769999999999
 30
0.0
 70
    32
  0
VERTEX
  5
8CB4
  8
01
 10
-531.68600000000004
 20
-2232.416999999999
 30
0.0
 70
    32
  0
VERTEX
  5
8CB5
  8
01
 10
-531.72000000000003
 20
-2232.3630000000012
 30
0.0
 70
    32
  0
VERTEX
  5
8CB6
  8
01
 10
-531.75599999999986
 20
-2232.306
 30
0.0
 70
    32
  0
VERTEX
  5
8CB7
  8
01
 10
-531.79199999999992
 20
-2232.2489999999998
 30
0.0
 70
    32
  0
VERTEX
  5
8CB8
  8
01
 10
-531.83000000000004
 20
-2232.1950000000002
 30
0.0
 70
    32
  0
VERTEX
  5
8CB9
  8
01
 10
-531.86800000000005
 20
-2232.1410000000001
 30
0.0
 70
    32
  0
VERTEX
  5
8CBA
  8
01
 10
-531.90699999999993
 20
-2232.087
 30
0.0
 70
    32
  0
VERTEX
  5
8CBB
  8
01
 10
-531.94699999999989
 20
-2232.0330000000008
 30
0.0
 70
    32
  0
VERTEX
  5
8CBC
  8
01
 10
-531.98800000000006
 20
-2231.982
 30
0.0
 70
    32
  0
VERTEX
  5
8CBD
  8
01
 10
-532.02999999999986
 20
-2231.9279999999999
 30
0.0
 70
    32
  0
VERTEX
  5
8CBE
  8
01
 10
-532.07299999999998
 20
-2231.877
 30
0.0
 70
    32
  0
VERTEX
  5
8CBF
  8
01
 10
-532.11699999999985
 20
-2231.8290000000002
 30
0.0
 70
    32
  0
VERTEX
  5
8CC0
  8
01
 10
-532.16099999999994
 20
-2231.7779999999998
 30
0.0
 70
    32
  0
VERTEX
  5
8CC1
  8
01
 10
-532.20600000000002
 20
-2231.73
 30
0.0
 70
    32
  0
VERTEX
  5
8CC2
  8
01
 10
-532.25199999999995
 20
-2231.6819999999998
 30
0.0
 70
    32
  0
VERTEX
  5
8CC3
  8
01
 10
-532.29899999999986
 20
-2231.634
 30
0.0
 70
    32
  0
VERTEX
  5
8CC4
  8
01
 10
-532.34699999999987
 20
-2231.5859999999998
 30
0.0
 70
    32
  0
VERTEX
  5
8CC5
  8
01
 10
-532.39499999999987
 20
-2231.5410000000002
 30
0.0
 70
    32
  0
VERTEX
  5
8CC6
  8
01
 10
-532.44399999999996
 20
-2231.4960000000001
 30
0.0
 70
    32
  0
VERTEX
  5
8CC7
  8
01
 10
-532.49400000000003
 20
-2231.451
 30
0.0
 70
    32
  0
VERTEX
  5
8CC8
  8
01
 10
-532.54499999999996
 20
-2231.4090000000001
 30
0.0
 70
    32
  0
VERTEX
  5
8CC9
  8
01
 10
-532.596
 20
-2231.3670000000002
 30
0.0
 70
    32
  0
VERTEX
  5
8CCA
  8
01
 10
-532.64800000000002
 20
-2231.3249999999998
 30
0.0
 70
    32
  0
VERTEX
  5
8CCB
  8
01
 10
-532.70100000000002
 20
-2231.2830000000008
 30
0.0
 70
    32
  0
VERTEX
  5
8CCC
  8
01
 10
-532.75399999999991
 20
-2231.2440000000001
 30
0.0
 70
    32
  0
VERTEX
  5
8CCD
  8
01
 10
-532.80799999999988
 20
-2231.2049999999999
 30
0.0
 70
    32
  0
VERTEX
  5
8CCE
  8
01
 10
-532.86300000000006
 20
-2231.1689999999999
 30
0.0
 70
    32
  0
VERTEX
  5
8CCF
  8
01
 10
-532.91800000000001
 20
-2231.1300000000001
 30
0.0
 70
    32
  0
VERTEX
  5
8CD0
  8
01
 10
-532.97400000000005
 20
-2231.0940000000001
 30
0.0
 70
    32
  0
VERTEX
  5
8CD1
  8
01
 10
-533.03099999999995
 20
-2231.058
 30
0.0
 70
    32
  0
VERTEX
  5
8CD2
  8
01
 10
-533.08799999999997
 20
-2231.0250000000001
 30
0.0
 70
    32
  0
VERTEX
  5
8CD3
  8
01
 10
-533.14499999999998
 20
-2230.9920000000002
 30
0.0
 70
    32
  0
VERTEX
  5
8CD4
  8
01
 10
-533.20400000000006
 20
-2230.9589999999998
 30
0.0
 70
    32
  0
VERTEX
  5
8CD5
  8
01
 10
-533.26199999999994
 20
-2230.9290000000001
 30
0.0
 70
    32
  0
VERTEX
  5
8CD6
  8
01
 10
-533.32100000000003
 20
-2230.8960000000002
 30
0.0
 70
    32
  0
VERTEX
  5
8CD7
  8
01
 10
-533.38099999999986
 20
-2230.8690000000001
 30
0.0
 70
    32
  0
VERTEX
  5
8CD8
  8
01
 10
-533.44100000000003
 20
-2230.8389999999999
 30
0.0
 70
    32
  0
VERTEX
  5
8CD9
  8
01
 10
-533.50199999999995
 20
-2230.8119999999999
 30
0.0
 70
    32
  0
VERTEX
  5
8CDA
  8
01
 10
-533.56299999999999
 20
-2230.7849999999999
 30
0.0
 70
    32
  0
VERTEX
  5
8CDB
  8
01
 10
-533.62499999999989
 20
-2230.761
 30
0.0
 70
    32
  0
VERTEX
  5
8CDC
  8
01
 10
-533.68700000000001
 20
-2230.7370000000001
 30
0.0
 70
    32
  0
VERTEX
  5
8CDD
  8
01
 10
-533.74900000000002
 20
-2230.7130000000002
 30
0.0
 70
    32
  0
VERTEX
  5
8CDE
  8
01
 10
-533.8119999999999
 20
-2230.6889999999999
 30
0.0
 70
    32
  0
VERTEX
  5
8CDF
  8
01
 10
-533.875
 20
-2230.6680000000001
 30
0.0
 70
    32
  0
VERTEX
  5
8CE0
  8
01
 10
-533.93799999999999
 20
-2230.6500000000001
 30
0.0
 70
    32
  0
VERTEX
  5
8CE1
  8
01
 10
-534.00199999999995
 20
-2230.6289999999999
 30
0.0
 70
    32
  0
VERTEX
  5
8CE2
  8
01
 10
-534.06600000000003
 20
-2230.6109999999999
 30
0.0
 70
    32
  0
VERTEX
  5
8CE3
  8
01
 10
-534.13099999999997
 20
-2230.596
 30
0.0
 70
    32
  0
VERTEX
  5
8CE4
  8
01
 10
-534.19500000000005
 20
-2230.5780000000009
 30
0.0
 70
    32
  0
VERTEX
  5
8CE5
  8
01
 10
-534.25999999999999
 20
-2230.5630000000001
 30
0.0
 70
    32
  0
VERTEX
  5
8CE6
  8
01
 10
-534.32500000000005
 20
-2230.5509999999999
 30
0.0
 70
    32
  0
VERTEX
  5
8CE7
  8
01
 10
-534.39099999999996
 20
-2230.5360000000001
 30
0.0
 70
    32
  0
VERTEX
  5
8CE8
  8
01
 10
-534.45600000000002
 20
-2230.527
 30
0.0
 70
    32
  0
VERTEX
  5
8CE9
  8
01
 10
-534.52199999999993
 20
-2230.5149999999999
 30
0.0
 70
    32
  0
VERTEX
  5
8CEA
  8
01
 10
-534.58800000000008
 20
-2230.5059999999999
 30
0.0
 70
    32
  0
VERTEX
  5
8CEB
  8
01
 10
-534.654
 20
-2230.4969999999998
 30
0.0
 70
    32
  0
VERTEX
  5
8CEC
  8
01
 10
-534.71999999999991
 20
-2230.491
 30
0.0
 70
    32
  0
VERTEX
  5
8CED
  8
01
 10
-534.78699999999992
 20
-2230.4850000000001
 30
0.0
 70
    32
  0
VERTEX
  5
8CEE
  8
01
 10
-534.85300000000007
 20
-2230.4789999999998
 30
0.0
 70
    32
  0
VERTEX
  5
8CEF
  8
01
 10
-534.91999999999985
 20
-2230.4760000000001
 30
0.0
 70
    32
  0
VERTEX
  5
8CF0
  8
01
 10
-534.98599999999988
 20
-2230.473
 30
0.0
 70
    32
  0
VERTEX
  5
8CF1
  8
01
 10
-535.053
 20
-2230.4699999999998
 30
0.0
 70
    32
  0
VERTEX
  5
8CF2
  8
01
 10
-535.11900000000003
 20
-2230.4699999999998
 30
0.0
 70
    32
  0
VERTEX
  5
8CF3
  8
01
 10
-535.18600000000004
 20
-2230.4699999999998
 30
0.0
 70
    32
  0
VERTEX
  5
8CF4
  8
01
 10
-535.25199999999995
 20
-2230.473
 30
0.0
 70
    32
  0
VERTEX
  5
8CF5
  8
01
 10
-535.31899999999985
 20
-2230.4760000000001
 30
0.0
 70
    32
  0
VERTEX
  5
8CF6
  8
01
 10
-535.38499999999999
 20
-2230.4789999999998
 30
0.0
 70
    32
  0
VERTEX
  5
8CF7
  8
01
 10
-535.45199999999988
 20
-2230.4850000000001
 30
0.0
 70
    32
  0
VERTEX
  5
8CF8
  8
01
 10
-535.51800000000003
 20
-2230.491
 30
0.0
 70
    32
  0
VERTEX
  5
8CF9
  8
01
 10
-535.58399999999995
 20
-2230.4969999999998
 30
0.0
 70
    32
  0
VERTEX
  5
8CFA
  8
01
 10
-535.64999999999986
 20
-2230.5059999999999
 30
0.0
 70
    32
  0
VERTEX
  5
8CFB
  8
01
 10
-535.71600000000001
 20
-2230.5149999999999
 30
0.0
 70
    32
  0
VERTEX
  5
8CFC
  8
01
 10
-535.78199999999993
 20
-2230.527
 30
0.0
 70
    32
  0
VERTEX
  5
8CFD
  8
01
 10
-535.84800000000007
 20
-2230.5360000000001
 30
0.0
 70
    32
  0
VERTEX
  5
8CFE
  8
01
 10
-535.91300000000001
 20
-2230.5509999999999
 30
0.0
 70
    32
  0
VERTEX
  5
8CFF
  8
01
 10
-535.97799999999995
 20
-2230.5630000000001
 30
0.0
 70
    32
  0
VERTEX
  5
8D00
  8
01
 10
-536.04300000000001
 20
-2230.5780000000009
 30
0.0
 70
    32
  0
VERTEX
  5
8D01
  8
01
 10
-536.10799999999995
 20
-2230.596
 30
0.0
 70
    32
  0
VERTEX
  5
8D02
  8
01
 10
-536.17200000000003
 20
-2230.6109999999999
 30
0.0
 70
    32
  0
VERTEX
  5
8D03
  8
01
 10
-536.23599999999988
 20
-2230.6289999999999
 30
0.0
 70
    32
  0
VERTEX
  5
8D04
  8
01
 10
-536.29999999999995
 20
-2230.6500000000001
 30
0.0
 70
    32
  0
VERTEX
  5
8D05
  8
01
 10
-536.36300000000006
 20
-2230.6680000000001
 30
0.0
 70
    32
  0
VERTEX
  5
8D06
  8
01
 10
-536.42700000000002
 20
-2230.6889999999999
 30
0.0
 70
    32
  0
VERTEX
  5
8D07
  8
01
 10
-536.48900000000003
 20
-2230.7130000000002
 30
0.0
 70
    32
  0
VERTEX
  5
8D08
  8
01
 10
-536.55200000000002
 20
-2230.7370000000001
 30
0.0
 70
    32
  0
VERTEX
  5
8D09
  8
01
 10
-536.61400000000003
 20
-2230.761
 30
0.0
 70
    32
  0
VERTEX
  5
8D0A
  8
01
 10
-536.67499999999995
 20
-2230.7849999999999
 30
0.0
 70
    32
  0
VERTEX
  5
8D0B
  8
01
 10
-536.73599999999988
 20
-2230.8119999999999
 30
0.0
 70
    32
  0
VERTEX
  5
8D0C
  8
01
 10
-536.79700000000003
 20
-2230.8389999999999
 30
0.0
 70
    32
  0
VERTEX
  5
8D0D
  8
01
 10
-536.85699999999997
 20
-2230.8690000000001
 30
0.0
 70
    32
  0
VERTEX
  5
8D0E
  8
01
 10
-536.91699999999992
 20
-2230.8960000000002
 30
0.0
 70
    32
  0
VERTEX
  5
8D0F
  8
01
 10
-536.976
 20
-2230.9290000000001
 30
0.0
 70
    32
  0
VERTEX
  5
8D10
  8
01
 10
-537.03499999999997
 20
-2230.9589999999998
 30
0.0
 70
    32
  0
VERTEX
  5
8D11
  8
01
 10
-537.09299999999996
 20
-2230.9920000000002
 30
0.0
 70
    32
  0
VERTEX
  5
8D12
  8
01
 10
-537.15099999999995
 20
-2231.0250000000001
 30
0.0
 70
    32
  0
VERTEX
  5
8D13
  8
01
 10
-537.20800000000008
 20
-2231.058
 30
0.0
 70
    32
  0
VERTEX
  5
8D14
  8
01
 10
-537.26400000000001
 20
-2231.0940000000001
 30
0.0
 70
    32
  0
VERTEX
  5
8D15
  8
01
 10
-537.32000000000005
 20
-2231.1300000000001
 30
0.0
 70
    32
  0
VERTEX
  5
8D16
  8
01
 10
-537.375
 20
-2231.1689999999999
 30
0.0
 70
    32
  0
VERTEX
  5
8D17
  8
01
 10
-537.42999999999995
 20
-2231.2049999999999
 30
0.0
 70
    32
  0
VERTEX
  5
8D18
  8
01
 10
-537.48400000000004
 20
-2231.2440000000001
 30
0.0
 70
    32
  0
VERTEX
  5
8D19
  8
01
 10
-537.5379999999999
 20
-2231.2830000000008
 30
0.0
 70
    32
  0
VERTEX
  5
8D1A
  8
01
 10
-537.59000000000003
 20
-2231.3249999999998
 30
0.0
 70
    32
  0
VERTEX
  5
8D1B
  8
01
 10
-537.64199999999994
 20
-2231.3670000000002
 30
0.0
 70
    32
  0
VERTEX
  5
8D1C
  8
01
 10
-537.69399999999985
 20
-2231.4090000000001
 30
0.0
 70
    32
  0
VERTEX
  5
8D1D
  8
01
 10
-537.74399999999991
 20
-2231.451
 30
0.0
 70
    32
  0
VERTEX
  5
8D1E
  8
01
 10
-537.79399999999987
 20
-2231.4960000000001
 30
0.0
 70
    32
  0
VERTEX
  5
8D1F
  8
01
 10
-537.84299999999996
 20
-2231.5410000000002
 30
0.0
 70
    32
  0
VERTEX
  5
8D20
  8
01
 10
-537.89199999999994
 20
-2231.5859999999998
 30
0.0
 70
    32
  0
VERTEX
  5
8D21
  8
01
 10
-537.93899999999985
 20
-2231.634
 30
0.0
 70
    32
  0
VERTEX
  5
8D22
  8
01
 10
-537.98599999999988
 20
-2231.6819999999998
 30
0.0
 70
    32
  0
VERTEX
  5
8D23
  8
01
 10
-538.03199999999993
 20
-2231.73
 30
0.0
 70
    32
  0
VERTEX
  5
8D24
  8
01
 10
-538.077
 20
-2231.7779999999998
 30
0.0
 70
    32
  0
VERTEX
  5
8D25
  8
01
 10
-538.12199999999984
 20
-2231.8290000000002
 30
0.0
 70
    32
  0
VERTEX
  5
8D26
  8
01
 10
-538.16499999999985
 20
-2231.877
 30
0.0
 70
    32
  0
VERTEX
  5
8D27
  8
01
 10
-538.20800000000008
 20
-2231.9279999999999
 30
0.0
 70
    32
  0
VERTEX
  5
8D28
  8
01
 10
-538.25
 20
-2231.982
 30
0.0
 70
    32
  0
VERTEX
  5
8D29
  8
01
 10
-538.29099999999994
 20
-2232.0330000000008
 30
0.0
 70
    32
  0
VERTEX
  5
8D2A
  8
01
 10
-538.33100000000002
 20
-2232.087
 30
0.0
 70
    32
  0
VERTEX
  5
8D2B
  8
01
 10
-538.37
 20
-2232.1410000000001
 30
0.0
 70
    32
  0
VERTEX
  5
8D2C
  8
01
 10
-538.40899999999988
 20
-2232.1950000000002
 30
0.0
 70
    32
  0
VERTEX
  5
8D2D
  8
01
 10
-538.44600000000003
 20
-2232.2489999999998
 30
0.0
 70
    32
  0
VERTEX
  5
8D2E
  8
01
 10
-538.48299999999995
 20
-2232.306
 30
0.0
 70
    32
  0
VERTEX
  5
8D2F
  8
01
 10
-538.51800000000003
 20
-2232.3630000000012
 30
0.0
 70
    32
  0
VERTEX
  5
8D30
  8
01
 10
-538.553
 20
-2232.416999999999
 30
0.0
 70
    32
  0
VERTEX
  5
8D31
  8
01
 10
-538.58600000000001
 20
-2232.4769999999999
 30
0.0
 70
    32
  0
VERTEX
  5
8D32
  8
01
 10
-538.61900000000003
 20
-2232.5340000000001
 30
0.0
 70
    32
  0
SEQEND
  5
8D33
  8
01
  0
POLYLINE
  5
8D34
  8
01
 66
     1
 10
0.0
 20
0.0
 30
0.0
 70
     8
  0
VERTEX
  5
8D35
  8
01
 10
-462.11900000000003
 20
-2228.5349999999999
 30
0.0
 70
    32
  0
VERTEX
  5
8D36
  8
01
 10
-462.12400000000002
 20
-2228.337
 30
0.0
 70
    32
  0
VERTEX
  5
8D37
  8
01
 10
-462.13799999999998
 20
-2228.1419999999998
 30
0.0
 70
    32
  0
VERTEX
  5
8D38
  8
01
 10
-462.16199999999998
 20
-2227.9470000000001
 30
0.0
 70
    32
  0
VERTEX
  5
8D39
  8
01
 10
-462.19599999999991
 20
-2227.7550000000001
 30
0.0
 70
    32
  0
VERTEX
  5
8D3A
  8
01
 10
-462.23899999999998
 20
-2227.5630000000001
 30
0.0
 70
    32
  0
VERTEX
  5
8D3B
  8
01
 10
-462.291
 20
-2227.3740000000012
 30
0.0
 70
    32
  0
VERTEX
  5
8D3C
  8
01
 10
-462.35300000000001
 20
-2227.1849999999999
 30
0.0
 70
    32
  0
VERTEX
  5
8D3D
  8
01
 10
-462.42399999999998
 20
-2227.002
 30
0.0
 70
    32
  0
VERTEX
  5
8D3E
  8
01
 10
-462.50299999999999
 20
-2226.8249999999998
 30
0.0
 70
    32
  0
VERTEX
  5
8D3F
  8
01
 10
-462.59199999999993
 20
-2226.6480000000001
 30
0.0
 70
    32
  0
VERTEX
  5
8D40
  8
01
 10
-462.68799999999999
 20
-2226.4769999999999
 30
0.0
 70
    32
  0
VERTEX
  5
8D41
  8
01
 10
-462.79300000000001
 20
-2226.3119999999999
 30
0.0
 70
    32
  0
VERTEX
  5
8D42
  8
01
 10
-462.90599999999989
 20
-2226.1500000000001
 30
0.0
 70
    32
  0
VERTEX
  5
8D43
  8
01
 10
-463.02699999999999
 20
-2225.9969999999998
 30
0.0
 70
    32
  0
VERTEX
  5
8D44
  8
01
 10
-463.15499999999992
 20
-2225.8470000000002
 30
0.0
 70
    32
  0
VERTEX
  5
8D45
  8
01
 10
-463.29099999999988
 20
-2225.7060000000001
 30
0.0
 70
    32
  0
VERTEX
  5
8D46
  8
01
 10
-463.43299999999999
 20
-2225.5709999999999
 30
0.0
 70
    32
  0
VERTEX
  5
8D47
  8
01
 10
-463.58199999999988
 20
-2225.442
 30
0.0
 70
    32
  0
VERTEX
  5
8D48
  8
01
 10
-463.73599999999999
 20
-2225.3220000000001
 30
0.0
 70
    32
  0
VERTEX
  5
8D49
  8
01
 10
-463.89699999999988
 20
-2225.208000000001
 30
0.0
 70
    32
  0
VERTEX
  5
8D4A
  8
01
 10
-464.06299999999999
 20
-2225.1030000000001
 30
0.0
 70
    32
  0
VERTEX
  5
8D4B
  8
01
 10
-464.23399999999998
 20
-2225.0070000000001
 30
0.0
 70
    32
  0
VERTEX
  5
8D4C
  8
01
 10
-464.40899999999999
 20
-2224.9169999999999
 30
0.0
 70
    32
  0
VERTEX
  5
8D4D
  8
01
 10
-464.58800000000002
 20
-2224.8389999999999
 30
0.0
 70
    32
  0
VERTEX
  5
8D4E
  8
01
 10
-464.77199999999988
 20
-2224.7669999999998
 30
0.0
 70
    32
  0
VERTEX
  5
8D4F
  8
01
 10
-464.95800000000003
 20
-2224.7069999999999
 30
0.0
 70
    32
  0
VERTEX
  5
8D50
  8
01
 10
-465.14699999999988
 20
-2224.6529999999998
 30
0.0
 70
    32
  0
VERTEX
  5
8D51
  8
01
 10
-465.33899999999988
 20
-2224.6109999999999
 30
0.0
 70
    32
  0
VERTEX
  5
8D52
  8
01
 10
-465.53199999999993
 20
-2224.5780000000009
 30
0.0
 70
    32
  0
VERTEX
  5
8D53
  8
01
 10
-465.72699999999992
 20
-2224.5540000000001
 30
0.0
 70
    32
  0
VERTEX
  5
8D54
  8
01
 10
-465.92299999999989
 20
-2224.5390000000002
 30
0.0
 70
    32
  0
VERTEX
  5
8D55
  8
01
 10
-466.11900000000003
 20
-2224.5329999999999
 30
0.0
 70
    32
  0
VERTEX
  5
8D56
  8
01
 10
-466.31499999999988
 20
-2224.5390000000002
 30
0.0
 70
    32
  0
VERTEX
  5
8D57
  8
01
 10
-466.51099999999991
 20
-2224.5540000000001
 30
0.0
 70
    32
  0
VERTEX
  5
8D58
  8
01
 10
-466.7059999999999
 20
-2224.5780000000009
 30
0.0
 70
    32
  0
VERTEX
  5
8D59
  8
01
 10
-466.89999999999992
 20
-2224.6109999999999
 30
0.0
 70
    32
  0
VERTEX
  5
8D5A
  8
01
 10
-467.09100000000001
 20
-2224.6529999999998
 30
0.0
 70
    32
  0
VERTEX
  5
8D5B
  8
01
 10
-467.27999999999992
 20
-2224.7069999999999
 30
0.0
 70
    32
  0
VERTEX
  5
8D5C
  8
01
 10
-467.46699999999993
 20
-2224.7669999999998
 30
0.0
 70
    32
  0
VERTEX
  5
8D5D
  8
01
 10
-467.64999999999992
 20
-2224.8389999999999
 30
0.0
 70
    32
  0
VERTEX
  5
8D5E
  8
01
 10
-467.82900000000001
 20
-2224.9169999999999
 30
0.0
 70
    32
  0
VERTEX
  5
8D5F
  8
01
 10
-468.005
 20
-2225.0070000000001
 30
0.0
 70
    32
  0
VERTEX
  5
8D60
  8
01
 10
-468.17599999999987
 20
-2225.1030000000001
 30
0.0
 70
    32
  0
VERTEX
  5
8D61
  8
01
 10
-468.34100000000001
 20
-2225.208000000001
 30
0.0
 70
    32
  0
VERTEX
  5
8D62
  8
01
 10
-468.5019999999999
 20
-2225.3220000000001
 30
0.0
 70
    32
  0
VERTEX
  5
8D63
  8
01
 10
-468.65699999999993
 20
-2225.442
 30
0.0
 70
    32
  0
VERTEX
  5
8D64
  8
01
 10
-468.80500000000001
 20
-2225.5709999999999
 30
0.0
 70
    32
  0
VERTEX
  5
8D65
  8
01
 10
-468.94799999999998
 20
-2225.7060000000001
 30
0.0
 70
    32
  0
VERTEX
  5
8D66
  8
01
 10
-469.08300000000003
 20
-2225.8470000000002
 30
0.0
 70
    32
  0
VERTEX
  5
8D67
  8
01
 10
-469.21100000000001
 20
-2225.9969999999998
 30
0.0
 70
    32
  0
VERTEX
  5
8D68
  8
01
 10
-469.33199999999988
 20
-2226.1500000000001
 30
0.0
 70
    32
  0
VERTEX
  5
8D69
  8
01
 10
-469.44499999999988
 20
-2226.3119999999999
 30
0.0
 70
    32
  0
VERTEX
  5
8D6A
  8
01
 10
-469.55000000000001
 20
-2226.4769999999999
 30
0.0
 70
    32
  0
VERTEX
  5
8D6B
  8
01
 10
-469.64699999999988
 20
-2226.6480000000001
 30
0.0
 70
    32
  0
VERTEX
  5
8D6C
  8
01
 10
-469.73500000000001
 20
-2226.8249999999998
 30
0.0
 70
    32
  0
VERTEX
  5
8D6D
  8
01
 10
-469.815
 20
-2227.002
 30
0.0
 70
    32
  0
VERTEX
  5
8D6E
  8
01
 10
-469.88499999999999
 20
-2227.1849999999999
 30
0.0
 70
    32
  0
VERTEX
  5
8D6F
  8
01
 10
-469.94699999999989
 20
-2227.3740000000012
 30
0.0
 70
    32
  0
VERTEX
  5
8D70
  8
01
 10
-469.99900000000002
 20
-2227.5630000000001
 30
0.0
 70
    32
  0
VERTEX
  5
8D71
  8
01
 10
-470.04199999999997
 20
-2227.7550000000001
 30
0.0
 70
    32
  0
VERTEX
  5
8D72
  8
01
 10
-470.07599999999991
 20
-2227.9470000000001
 30
0.0
 70
    32
  0
VERTEX
  5
8D73
  8
01
 10
-470.10000000000002
 20
-2228.1419999999998
 30
0.0
 70
    32
  0
VERTEX
  5
8D74
  8
01
 10
-470.11399999999998
 20
-2228.337
 30
0.0
 70
    32
  0
VERTEX
  5
8D75
  8
01
 10
-470.11900000000003
 20
-2228.5349999999999
 30
0.0
 70
    32
  0
VERTEX
  5
8D76
  8
01
 10
-470.11399999999998
 20
-2228.73
 30
0.0
 70
    32
  0
VERTEX
  5
8D77
  8
01
 10
-470.10000000000002
 20
-2228.9250000000002
 30
0.0
 70
    32
  0
VERTEX
  5
8D78
  8
01
 10
-470.07599999999991
 20
-2229.1199999999999
 30
0.0
 70
    32
  0
VERTEX
  5
8D79
  8
01
 10
-470.04199999999997
 20
-2229.3150000000001
 30
0.0
 70
    32
  0
VERTEX
  5
8D7A
  8
01
 10
-469.99900000000002
 20
-2229.5070000000001
 30
0.0
 70
    32
  0
VERTEX
  5
8D7B
  8
01
 10
-469.94699999999989
 20
-2229.6959999999999
 30
0.0
 70
    32
  0
VERTEX
  5
8D7C
  8
01
 10
-469.88499999999999
 20
-2229.8820000000001
 30
0.0
 70
    32
  0
VERTEX
  5
8D7D
  8
01
 10
-469.815
 20
-2230.0650000000001
 30
0.0
 70
    32
  0
VERTEX
  5
8D7E
  8
01
 10
-469.73500000000001
 20
-2230.2449999999999
 30
0.0
 70
    32
  0
VERTEX
  5
8D7F
  8
01
 10
-469.64699999999988
 20
-2230.4189999999999
 30
0.0
 70
    32
  0
VERTEX
  5
8D80
  8
01
 10
-469.55000000000001
 20
-2230.5900000000001
 30
0.0
 70
    32
  0
VERTEX
  5
8D81
  8
01
 10
-469.44499999999988
 20
-2230.7550000000001
 30
0.0
 70
    32
  0
VERTEX
  5
8D82
  8
01
 10
-469.33199999999988
 20
-2230.916999999999
 30
0.0
 70
    32
  0
VERTEX
  5
8D83
  8
01
 10
-469.21100000000001
 20
-2231.0700000000002
 30
0.0
 70
    32
  0
VERTEX
  5
8D84
  8
01
 10
-469.08300000000003
 20
-2231.2199999999998
 30
0.0
 70
    32
  0
VERTEX
  5
8D85
  8
01
 10
-468.94799999999998
 20
-2231.3609999999999
 30
0.0
 70
    32
  0
VERTEX
  5
8D86
  8
01
 10
-468.80500000000001
 20
-2231.4960000000001
 30
0.0
 70
    32
  0
VERTEX
  5
8D87
  8
01
 10
-468.65699999999993
 20
-2231.625
 30
0.0
 70
    32
  0
VERTEX
  5
8D88
  8
01
 10
-468.5019999999999
 20
-2231.7449999999999
 30
0.0
 70
    32
  0
VERTEX
  5
8D89
  8
01
 10
-468.34100000000001
 20
-2231.8589999999999
 30
0.0
 70
    32
  0
VERTEX
  5
8D8A
  8
01
 10
-468.17599999999987
 20
-2231.9639999999999
 30
0.0
 70
    32
  0
VERTEX
  5
8D8B
  8
01
 10
-468.005
 20
-2232.0599999999999
 30
0.0
 70
    32
  0
VERTEX
  5
8D8C
  8
01
 10
-467.82900000000001
 20
-2232.1500000000001
 30
0.0
 70
    32
  0
VERTEX
  5
8D8D
  8
01
 10
-467.64999999999992
 20
-2232.2280000000001
 30
0.0
 70
    32
  0
VERTEX
  5
8D8E
  8
01
 10
-467.46699999999993
 20
-2232.3000000000002
 30
0.0
 70
    32
  0
VERTEX
  5
8D8F
  8
01
 10
-467.27999999999992
 20
-2232.3600000000001
 30
0.0
 70
    32
  0
VERTEX
  5
8D90
  8
01
 10
-467.09100000000001
 20
-2232.4140000000002
 30
0.0
 70
    32
  0
VERTEX
  5
8D91
  8
01
 10
-466.89999999999992
 20
-2232.4560000000001
 30
0.0
 70
    32
  0
VERTEX
  5
8D92
  8
01
 10
-466.7059999999999
 20
-2232.489
 30
0.0
 70
    32
  0
VERTEX
  5
8D93
  8
01
 10
-466.51099999999991
 20
-2232.5129999999999
 30
0.0
 70
    32
  0
VERTEX
  5
8D94
  8
01
 10
-466.31499999999988
 20
-2232.5279999999998
 30
0.0
 70
    32
  0
VERTEX
  5
8D95
  8
01
 10
-466.11900000000003
 20
-2232.5340000000001
 30
0.0
 70
    32
  0
VERTEX
  5
8D96
  8
01
 10
-465.92299999999989
 20
-2232.5279999999998
 30
0.0
 70
    32
  0
VERTEX
  5
8D97
  8
01
 10
-465.72699999999992
 20
-2232.5129999999999
 30
0.0
 70
    32
  0
VERTEX
  5
8D98
  8
01
 10
-465.53199999999993
 20
-2232.489
 30
0.0
 70
    32
  0
VERTEX
  5
8D99
  8
01
 10
-465.33899999999988
 20
-2232.4560000000001
 30
0.0
 70
    32
  0
VERTEX
  5
8D9A
  8
01
 10
-465.14699999999988
 20
-2232.4140000000002
 30
0.0
 70
    32
  0
VERTEX
  5
8D9B
  8
01
 10
-464.95800000000003
 20
-2232.3600000000001
 30
0.0
 70
    32
  0
VERTEX
  5
8D9C
  8
01
 10
-464.77199999999988
 20
-2232.3000000000002
 30
0.0
 70
    32
  0
VERTEX
  5
8D9D
  8
01
 10
-464.58800000000002
 20
-2232.2280000000001
 30
0.0
 70
    32
  0
VERTEX
  5
8D9E
  8
01
 10
-464.40899999999999
 20
-2232.1500000000001
 30
0.0
 70
    32
  0
VERTEX
  5
8D9F
  8
01
 10
-464.23399999999998
 20
-2232.0599999999999
 30
0.0
 70
    32
  0
VERTEX
  5
8DA0
  8
01
 10
-464.06299999999999
 20
-2231.9639999999999
 30
0.0
 70
    32
  0
VERTEX
  5
8DA1
  8
01
 10
-463.89699999999988
 20
-2231.8589999999999
 30
0.0
 70
    32
  0
VERTEX
  5
8DA2
  8
01
 10
-463.73599999999999
 20
-2231.7449999999999
 30
0.0
 70
    32
  0
VERTEX
  5
8DA3
  8
01
 10
-463.58199999999988
 20
-2231.625
 30
0.0
 70
    32
  0
VERTEX
  5
8DA4
  8
01
 10
-463.43299999999999
 20
-2231.4960000000001
 30
0.0
 70
    32
  0
VERTEX
  5
8DA5
  8
01
 10
-463.29099999999988
 20
-2231.3609999999999
 30
0.0
 70
    32
  0
VERTEX
  5
8DA6
  8
01
 10
-463.15499999999992
 20
-2231.2199999999998
 30
0.0
 70
    32
  0
VERTEX
  5
8DA7
  8
01
 10
-463.02699999999999
 20
-2231.0700000000002
 30
0.0
 70
    32
  0
VERTEX
  5
8DA8
  8
01
 10
-462.90599999999989
 20
-2230.916999999999
 30
0.0
 70
    32
  0
VERTEX
  5
8DA9
  8
01
 10
-462.79300000000001
 20
-2230.7550000000001
 30
0.0
 70
    32
  0
VERTEX
  5
8DAA
  8
01
 10
-462.68799999999999
 20
-2230.5900000000001
 30
0.0
 70
    32
  0
VERTEX
  5
8DAB
  8
01
 10
-462.59199999999993
 20
-2230.4189999999999
 30
0.0
 70
    32
  0
VERTEX
  5
8DAC
  8
01
 10
-462.50299999999999
 20
-2230.2449999999999
 30
0.0
 70
    32
  0
VERTEX
  5
8DAD
  8
01
 10
-462.42399999999998
 20
-2230.0650000000001
 30
0.0
 70
    32
  0
VERTEX
  5
8DAE
  8
01
 10
-462.35300000000001
 20
-2229.8820000000001
 30
0.0
 70
    32
  0
VERTEX
  5
8DAF
  8
01
 10
-462.291
 20
-2229.6959999999999
 30
0.0
 70
    32
  0
VERTEX
  5
8DB0
  8
01
 10
-462.23899999999998
 20
-2229.5070000000001
 30
0.0
 70
    32
  0
VERTEX
  5
8DB1
  8
01
 10
-462.19599999999991
 20
-2229.3150000000001
 30
0.0
 70
    32
  0
VERTEX
  5
8DB2
  8
01
 10
-462.16199999999998
 20
-2229.1199999999999
 30
0.0
 70
    32
  0
VERTEX
  5
8DB3
  8
01
 10
-462.13799999999998
 20
-2228.9250000000002
 30
0.0
 70
    32
  0
VERTEX
  5
8DB4
  8
01
 10
-462.12400000000002
 20
-2228.73
 30
0.0
 70
    32
  0
VERTEX
  5
8DB5
  8
01
 10
-462.11900000000003
 20
-2228.5349999999999
 30
0.0
 70
    32
  0
SEQEND
  5
8DB6
  8
01
  0
LINE
  5
8DB7
  8
01
 10
-510.11919999999998
 20
-2164.5338999999999
 30
0.0
 11
-510.11919999999998
 21
-2156.5338000000002
 31
0.0
  0
LINE
  5
8DB8
  8
1DIM
 10
-510.11919999999998
 20
-2156.5338000000002
 30
0.0
 11
-489.11919999999998
 21
-2156.5338000000002
 31
0.0
  0
LINE
  5
8DB9
  8
1DIM
 10
-510.11919999999998
 20
-2164.5338999999999
 30
0.0
 11
-489.11919999999998
 21
-2164.5338999999999
 31
0.0
  0
LINE
  5
8DBA
  8
1DIM
 10
-490.11919999999992
 20
-2158.5338999999999
 30
0.0
 11
-490.11919999999992
 21
-2162.5338000000002
 31
0.0
  0
LINE
  5
8DBB
  8
0
  6
BYBLOCK
 10
-490.6551
 20
-2158.5338999999999
 30
0.0
 11
-490.11919999999992
 21
-2156.5338000000002
 31
0.0
  0
LINE
  5
8DBC
  8
0
  6
BYBLOCK
 10
-490.11919999999992
 20
-2156.5338000000002
 30
0.0
 11
-489.58330000000001
 21
-2158.5338999999999
 31
0.0
  0
LINE
  5
8DBD
  8
0
  6
BYBLOCK
 10
-490.11919999999992
 20
-2156.5338000000002
 30
0.0
 11
-490.11919999999992
 21
-2158.5338999999999
 31
0.0
  0
LINE
  5
8DBE
  8
0
  6
BYBLOCK
 10
-489.58330000000001
 20
-2162.5338000000002
 30
0.0
 11
-490.11919999999992
 21
-2164.5338999999999
 31
0.0
  0
LINE
  5
8DBF
  8
0
  6
BYBLOCK
 10
-490.11919999999992
 20
-2164.5338999999999
 30
0.0
 11
-490.6551
 21
-2162.5338000000002
 31
0.0
  0
LINE
  5
8DC0
  8
0
  6
BYBLOCK
 10
-490.11919999999992
 20
-2164.5338999999999
 30
0.0
 11
-490.11919999999992
 21
-2162.5338000000002
 31
0.0
  0
TEXT
  5
8DC1
  8
1DIM
 10
-490.81920000000002
 20
-2164.1505000000002
 30
0.0
 40
3.5
  1
φ8
 50
90.0
 41
0.9999000000002524
  0
LINE
  5
8DC2
  8
1CENTER
 10
-685.11919999999998
 20
-2240.0337
 30
0.0
 11
-685.11919999999998
 21
-2252.0337
 31
0.0
  0
LINE
  5
8DC3
  8
1CENTER
 10
-535.11919999999998
 20
-2240.0337
 30
0.0
 11
-535.11919999999998
 21
-2252.0337
 31
0.0
  0
LINE
  5
8DC4
  8
1DIM
 10
-710.11919999999998
 20
-2232.5337
 30
0.0
 11
-710.11919999999998
 21
-2281.0338000000002
 31
0.0
  0
LINE
  5
8DC5
  8
1DIM
 10
-685.11919999999998
 20
-2252.0337
 30
0.0
 11
-685.11919999999998
 21
-2281.0338000000002
 31
0.0
  0
LINE
  5
8DC6
  8
1DIM
 10
-708.11919999999986
 20
-2280.0336000000002
 30
0.0
 11
-687.11919999999986
 21
-2280.0336000000002
 31
0.0
  0
LINE
  5
8DC7
  8
0
  6
BYBLOCK
 10
-708.11919999999986
 20
-2280.5697
 30
0.0
 11
-710.11919999999998
 21
-2280.0336000000002
 31
0.0
  0
LINE
  5
8DC8
  8
0
  6
BYBLOCK
 10
-710.11919999999998
 20
-2280.0336000000002
 30
0.0
 11
-708.11919999999986
 21
-2279.4978000000001
 31
0.0
  0
LINE
  5
8DC9
  8
0
  6
BYBLOCK
 10
-710.11919999999998
 20
-2280.0336000000002
 30
0.0
 11
-708.11919999999986
 21
-2280.0336000000002
 31
0.0
  0
LINE
  5
8DCA
  8
0
  6
BYBLOCK
 10
-687.11919999999986
 20
-2279.4978000000001
 30
0.0
 11
-685.11919999999998
 21
-2280.0336000000002
 31
0.0
  0
LINE
  5
8DCB
  8
0
  6
BYBLOCK
 10
-685.11919999999998
 20
-2280.0336000000002
 30
0.0
 11
-687.11919999999986
 21
-2280.5697
 31
0.0
  0
LINE
  5
8DCC
  8
0
  6
BYBLOCK
 10
-685.11919999999998
 20
-2280.0336000000002
 30
0.0
 11
-687.11919999999986
 21
-2280.0336000000002
 31
0.0
  0
TEXT
  5
8DCD
  8
1DIM
 10
-700.53579999999999
 20
-2279.3337000000001
 30
0.0
 40
3.5001000000002018
  1
25 
  0
LINE
  5
8DCE
  8
1DIM
 10
-535.11919999999998
 20
-2252.0337
 30
0.0
 11
-535.11919999999998
 21
-2281.0338000000002
 31
0.0
  0
LINE
  5
8DCF
  8
1DIM
 10
-510.11919999999998
 20
-2232.5337
 30
0.0
 11
-510.11919999999998
 21
-2281.0338000000002
 31
0.0
  0
LINE
  5
8DD0
  8
1DIM
 10
-533.11919999999986
 20
-2280.0336000000002
 30
0.0
 11
-512.11919999999986
 21
-2280.0336000000002
 31
0.0
  0
LINE
  5
8DD1
  8
0
  6
BYBLOCK
 10
-533.11919999999986
 20
-2280.5697
 30
0.0
 11
-535.11919999999998
 21
-2280.0336000000002
 31
0.0
  0
LINE
  5
8DD2
  8
0
  6
BYBLOCK
 10
-535.11919999999998
 20
-2280.0336000000002
 30
0.0
 11
-533.11919999999986
 21
-2279.4978000000001
 31
0.0
  0
LINE
  5
8DD3
  8
0
  6
BYBLOCK
 10
-535.11919999999998
 20
-2280.0336000000002
 30
0.0
 11
-533.11919999999986
 21
-2280.0336000000002
 31
0.0
  0
LINE
  5
8DD4
  8
0
  6
BYBLOCK
 10
-512.11919999999986
 20
-2279.4978000000001
 30
0.0
 11
-510.11919999999998
 21
-2280.0336000000002
 31
0.0
  0
LINE
  5
8DD5
  8
0
  6
BYBLOCK
 10
-510.11919999999998
 20
-2280.0336000000002
 30
0.0
 11
-512.11919999999986
 21
-2280.5697
 31
0.0
  0
LINE
  5
8DD6
  8
0
  6
BYBLOCK
 10
-510.11919999999998
 20
-2280.0336000000002
 30
0.0
 11
-512.11919999999986
 21
-2280.0336000000002
 31
0.0
  0
TEXT
  5
8DD7
  8
1DIM
 10
-525.53579999999999
 20
-2279.3337000000001
 30
0.0
 40
3.5001000000002018
  1
25 
  0
LINE
  5
8DD8
  8
1DIM
 10
-469.61919999999992
 20
-2250.0338999999999
 30
0.0
 11
-469.61919999999992
 21
-2281.0338000000002
 31
0.0
  0
LINE
  5
8DD9
  8
1DIM
 10
-462.61919999999992
 20
-2250.0338999999999
 30
0.0
 11
-462.61919999999992
 21
-2281.0338000000002
 31
0.0
  0
LINE
  5
8DDA
  8
1DIM
 10
-467.61919999999992
 20
-2280.0336000000002
 30
0.0
 11
-464.61919999999998
 21
-2280.0336000000002
 31
0.0
  0
LINE
  5
8DDB
  8
1DIM
 10
-462.61919999999992
 20
-2280.0336000000002
 30
0.0
 11
-452.88580000000002
 21
-2280.0336000000002
 31
0.0
  0
LINE
  5
8DDC
  8
0
  6
BYBLOCK
 10
-467.61919999999992
 20
-2280.5697
 30
0.0
 11
-469.61919999999992
 21
-2280.0336000000002
 31
0.0
  0
LINE
  5
8DDD
  8
0
  6
BYBLOCK
 10
-469.61919999999992
 20
-2280.0336000000002
 30
0.0
 11
-467.61919999999992
 21
-2279.4978000000001
 31
0.0
  0
LINE
  5
8DDE
  8
0
  6
BYBLOCK
 10
-469.61919999999992
 20
-2280.0336000000002
 30
0.0
 11
-467.61919999999992
 21
-2280.0336000000002
 31
0.0
  0
LINE
  5
8DDF
  8
0
  6
BYBLOCK
 10
-464.61919999999998
 20
-2279.4978000000001
 30
0.0
 11
-462.61919999999992
 21
-2280.0336000000002
 31
0.0
  0
LINE
  5
8DE0
  8
0
  6
BYBLOCK
 10
-462.61919999999992
 20
-2280.0336000000002
 30
0.0
 11
-464.61919999999998
 21
-2280.5697
 31
0.0
  0
LINE
  5
8DE1
  8
0
  6
BYBLOCK
 10
-462.61919999999992
 20
-2280.0336000000002
 30
0.0
 11
-464.61919999999998
 21
-2280.0336000000002
 31
0.0
  0
TEXT
  5
8DE2
  8
1DIM
 10
-460.36919999999992
 20
-2279.3337000000001
 30
0.0
 40
3.5001000000002018
  1
φ7
  0
LINE
  5
8DE3
  8
1CENTER
 10
-466.11919999999992
 20
-2240.0337
 30
0.0
 11
-466.11919999999992
 21
-2252.0337
 31
0.0
  0
LINE
  5
8DE4
  8
1DIM
 10
-510.11919999999998
 20
-2232.5337
 30
0.0
 11
-489.11919999999998
 21
-2232.5337
 31
0.0
  0
LINE
  5
8DE5
  8
1DIM
 10
-531.61919999999998
 20
-2250.0338999999999
 30
0.0
 11
-489.11919999999998
 21
-2250.0338999999999
 31
0.0
  0
LINE
  5
8DE6
  8
1DIM
 10
-490.11919999999992
 20
-2234.5338000000002
 30
0.0
 11
-490.11919999999992
 21
-2248.0338000000002
 31
0.0
  0
LINE
  5
8DE7
  8
0
  6
BYBLOCK
 10
-490.6551
 20
-2234.5338000000002
 30
0.0
 11
-490.11919999999992
 21
-2232.5337
 31
0.0
  0
LINE
  5
8DE8
  8
0
  6
BYBLOCK
 10
-490.11919999999992
 20
-2232.5337
 30
0.0
 11
-489.58330000000001
 21
-2234.5338000000002
 31
0.0
  0
LINE
  5
8DE9
  8
0
  6
BYBLOCK
 10
-490.11919999999992
 20
-2232.5337
 30
0.0
 11
-490.11919999999992
 21
-2234.5338000000002
 31
0.0
  0
LINE
  5
8DEA
  8
0
  6
BYBLOCK
 10
-489.58330000000001
 20
-2248.0338000000002
 30
0.0
 11
-490.11919999999992
 21
-2250.0338999999999
 31
0.0
  0
LINE
  5
8DEB
  8
0
  6
BYBLOCK
 10
-490.11919999999992
 20
-2250.0338999999999
 30
0.0
 11
-490.6551
 21
-2248.0338000000002
 31
0.0
  0
LINE
  5
8DEC
  8
0
  6
BYBLOCK
 10
-490.11919999999992
 20
-2250.0338999999999
 30
0.0
 11
-490.11919999999992
 21
-2248.0338000000002
 31
0.0
  0
TEXT
  5
8DED
  8
1DIM
 10
-490.81920000000002
 20
-2245.9503
 30
0.0
 40
3.5
  1
17.5 
 50
90.0
 41
0.9999000000002524
  0
LINE
  5
8DEE
  8
1DIM
 10
-510.11919999999998
 20
-2224.5338999999999
 30
0.0
 11
-479.11919999999992
 21
-2224.5338999999999
 31
0.0
  0
LINE
  5
8DEF
  8
1DIM
 10
-531.61919999999998
 20
-2250.0338999999999
 30
0.0
 11
-479.11919999999992
 21
-2250.0338999999999
 31
0.0
  0
LINE
  5
8DF0
  8
1DIM
 10
-480.11919999999992
 20
-2226.5337
 30
0.0
 11
-480.11919999999992
 21
-2248.0338000000002
 31
0.0
  0
LINE
  5
8DF1
  8
0
  6
BYBLOCK
 10
-480.65509999999989
 20
-2226.5337
 30
0.0
 11
-480.11919999999992
 21
-2224.5338999999999
 31
0.0
  0
LINE
  5
8DF2
  8
0
  6
BYBLOCK
 10
-480.11919999999992
 20
-2224.5338999999999
 30
0.0
 11
-479.58330000000001
 21
-2226.5337
 31
0.0
  0
LINE
  5
8DF3
  8
0
  6
BYBLOCK
 10
-480.11919999999992
 20
-2224.5338999999999
 30
0.0
 11
-480.11919999999992
 21
-2226.5337
 31
0.0
  0
LINE
  5
8DF4
  8
0
  6
BYBLOCK
 10
-479.58330000000001
 20
-2248.0338000000002
 30
0.0
 11
-480.11919999999992
 21
-2250.0338999999999
 31
0.0
  0
LINE
  5
8DF5
  8
0
  6
BYBLOCK
 10
-480.11919999999992
 20
-2250.0338999999999
 30
0.0
 11
-480.65509999999989
 21
-2248.0338000000002
 31
0.0
  0
LINE
  5
8DF6
  8
0
  6
BYBLOCK
 10
-480.11919999999992
 20
-2250.0338999999999
 30
0.0
 11
-480.11919999999992
 21
-2248.0338000000002
 31
0.0
  0
TEXT
  5
8DF7
  8
1DIM
 10
-480.81920000000002
 20
-2242.5338999999999
 30
0.0
 40
3.5
  1
25.5 
 50
90.0
 41
0.9998999999997977
  0
LINE
  5
8DF8
  8
01
 10
-510.11919999999998
 20
-2224.5338999999999
 30
0.0
 11
-510.11919999999998
 21
-2232.5337
 31
0.0
  0
LINE
  5
8DF9
  8
1CENTER
 10
-535.11919999999998
 20
-2163.5340000000001
 30
0.0
 11
-535.11919999999998
 21
-2157.5340000000001
 31
0.0
  0
LINE
  5
8DFA
  8
1CENTER
 10
-538.11919999999986
 20
-2160.5340000000001
 30
0.0
 11
-532.11919999999986
 21
-2160.5340000000001
 31
0.0
  0
LINE
  5
8DFB
  8
1CENTER
 10
-685.11919999999998
 20
-2163.5340000000001
 30
0.0
 11
-685.11919999999998
 21
-2157.5340000000001
 31
0.0
  0
LINE
  5
8DFC
  8
1CENTER
 10
-688.11919999999986
 20
-2160.5340000000001
 30
0.0
 11
-682.11919999999986
 21
-2160.5340000000001
 31
0.0
  0
LINE
  5
8DFD
  8
1DIM
 10
-710.11919999999998
 20
-2164.5338999999999
 30
0.0
 11
-710.11919999999998
 21
-2185.5338999999999
 31
0.0
  0
LINE
  5
8DFE
  8
1DIM
 10
-510.11919999999998
 20
-2164.5338999999999
 30
0.0
 11
-510.11919999999998
 21
-2185.5338999999999
 31
0.0
  0
LINE
  5
8DFF
  8
1DIM
 10
-708.11919999999986
 20
-2184.5340000000001
 30
0.0
 11
-512.11919999999986
 21
-2184.5340000000001
 31
0.0
  0
LINE
  5
8E00
  8
0
  6
BYBLOCK
 10
-708.11919999999986
 20
-2185.0698000000002
 30
0.0
 11
-710.11919999999998
 21
-2184.5340000000001
 31
0.0
  0
LINE
  5
8E01
  8
0
  6
BYBLOCK
 10
-710.11919999999998
 20
-2184.5340000000001
 30
0.0
 11
-708.11919999999986
 21
-2183.9978999999998
 31
0.0
  0
LINE
  5
8E02
  8
0
  6
BYBLOCK
 10
-710.11919999999998
 20
-2184.5340000000001
 30
0.0
 11
-708.11919999999986
 21
-2184.5340000000001
 31
0.0
  0
LINE
  5
8E03
  8
0
  6
BYBLOCK
 10
-512.11919999999986
 20
-2183.9978999999998
 30
0.0
 11
-510.11919999999998
 21
-2184.5340000000001
 31
0.0
  0
LINE
  5
8E04
  8
0
  6
BYBLOCK
 10
-510.11919999999998
 20
-2184.5340000000001
 30
0.0
 11
-512.11919999999986
 21
-2185.0698000000002
 31
0.0
  0
LINE
  5
8E05
  8
0
  6
BYBLOCK
 10
-510.11919999999998
 20
-2184.5340000000001
 30
0.0
 11
-512.11919999999986
 21
-2184.5340000000001
 31
0.0
  0
TEXT
  5
8E06
  8
1DIM
 10
-614.20249999999999
 20
-2183.8337999999999
 30
0.0
 40
3.5001000000002018
  1
200 
  0
LINE
  5
8E07
  8
1DIM
 10
-681.61919999999998
 20
-2249.6756999999998
 30
0.0
 11
-681.61919999999998
 21
-2271.0336000000002
 31
0.0
  0
LINE
  5
8E08
  8
1DIM
 10
-538.61919999999998
 20
-2249.6756999999998
 30
0.0
 11
-538.61919999999998
 21
-2271.0336000000002
 31
0.0
  0
LINE
  5
8E09
  8
1DIM
 10
-679.61919999999986
 20
-2270.0337
 30
0.0
 11
-540.61919999999986
 21
-2270.0337
 31
0.0
  0
LINE
  5
8E0A
  8
0
  6
BYBLOCK
 10
-679.61919999999986
 20
-2270.5695000000001
 30
0.0
 11
-681.61919999999998
 21
-2270.0337
 31
0.0
  0
LINE
  5
8E0B
  8
0
  6
BYBLOCK
 10
-681.61919999999998
 20
-2270.0337
 30
0.0
 11
-679.61919999999986
 21
-2269.4978999999998
 31
0.0
  0
LINE
  5
8E0C
  8
0
  6
BYBLOCK
 10
-681.61919999999998
 20
-2270.0337
 30
0.0
 11
-679.61919999999986
 21
-2270.0337
 31
0.0
  0
LINE
  5
8E0D
  8
0
  6
BYBLOCK
 10
-540.61919999999986
 20
-2269.4978999999998
 30
0.0
 11
-538.61919999999998
 21
-2270.0337
 31
0.0
  0
LINE
  5
8E0E
  8
0
  6
BYBLOCK
 10
-538.61919999999998
 20
-2270.0337
 30
0.0
 11
-540.61919999999986
 21
-2270.5695000000001
 31
0.0
  0
LINE
  5
8E0F
  8
0
  6
BYBLOCK
 10
-538.61919999999998
 20
-2270.0337
 30
0.0
 11
-540.61919999999986
 21
-2270.0337
 31
0.0
  0
TEXT
  5
8E10
  8
1DIM
 10
-614.20249999999999
 20
-2269.3337999999999
 30
0.0
 40
3.5001000000002018
  1
143 
  0
LINE
  5
8E11
  8
1DIM
 10
-685.11919999999998
 20
-2252.0337
 30
0.0
 11
-685.11919999999998
 21
-2281.0338000000002
 31
0.0
  0
LINE
  5
8E12
  8
1DIM
 10
-535.11919999999998
 20
-2252.0337
 30
0.0
 11
-535.11919999999998
 21
-2281.0338000000002
 31
0.0
  0
LINE
  5
8E13
  8
1DIM
 10
-683.11919999999986
 20
-2280.0336000000002
 30
0.0
 11
-537.11919999999986
 21
-2280.0336000000002
 31
0.0
  0
LINE
  5
8E14
  8
0
  6
BYBLOCK
 10
-683.11919999999986
 20
-2280.5697
 30
0.0
 11
-685.11919999999998
 21
-2280.0336000000002
 31
0.0
  0
LINE
  5
8E15
  8
0
  6
BYBLOCK
 10
-685.11919999999998
 20
-2280.0336000000002
 30
0.0
 11
-683.11919999999986
 21
-2279.4978000000001
 31
0.0
  0
LINE
  5
8E16
  8
0
  6
BYBLOCK
 10
-685.11919999999998
 20
-2280.0336000000002
 30
0.0
 11
-683.11919999999986
 21
-2280.0336000000002
 31
0.0
  0
LINE
  5
8E17
  8
0
  6
BYBLOCK
 10
-537.11919999999986
 20
-2279.4978000000001
 30
0.0
 11
-535.11919999999998
 21
-2280.0336000000002
 31
0.0
  0
LINE
  5
8E18
  8
0
  6
BYBLOCK
 10
-535.11919999999998
 20
-2280.0336000000002
 30
0.0
 11
-537.11919999999986
 21
-2280.5697
 31
0.0
  0
LINE
  5
8E19
  8
0
  6
BYBLOCK
 10
-535.11919999999998
 20
-2280.0336000000002
 30
0.0
 11
-537.11919999999986
 21
-2280.0336000000002
 31
0.0
  0
TEXT
  5
8E1A
  8
1DIM
 10
-615.66079999999999
 20
-2279.3337000000001
 30
0.0
 40
3.5001000000002018
  1
P150 
  0
SOLID
  5
8E1B
  8
1DIM
 10
-465.25839999999999
 20
-2251.8696
 30
0.0
 11
-466.11919999999992
 21
-2250.0338999999999
 31
0.0
 12
-464.70960000000002
 22
-2251.4913000000001
 32
0.0
 13
-464.70960000000002
 23
-2251.4913000000001
 33
0.0
  0
LINE
  5
8E1C
  8
1DIM
 10
-464.98399999999998
 20
-2251.6803
 30
0.0
 11
-451.84899999999988
 21
-2270.7336
 31
0.0
  0
LINE
  5
8E1D
  8
1DIM
 10
-451.84899999999988
 20
-2270.7336
 30
0.0
 11
-431.98239999999993
 21
-2270.7336
 31
0.0
  0
TEXT
  5
8E1E
  8
1DIM
 10
-449.14899999999989
 20
-2270.0337
 30
0.0
 40
3.5000999999997471
  1
M4-10
  0
VIEWPORT
  5
57
 67
     1
  8
0
 10
5.6154163991372421
 20
3.9020832317081959
 30
0.0
 40
12.7102895252974
 41
8.7461330960491512
 68
     1
 69
     1
1001
ACAD
1000
MVIEW
1002
{
1070
    16
1010
0.0
1020
0.0
1030
0.0
1010
0.0
1020
0.0
1030
1.0
1040
0.0
1040
8.7461330960491512
1040
5.6154163991372421
1040
3.9020832317081959
1040
50.0
1040
0.0
1040
0.0
1070
     0
1070
   100
1070
     1
1070
     1
1070
     0
1070
     0
1070
     0
1070
     0
1040
0.0
1040
0.0
1040
0.0
1040
10.0
1040
10.0
1040
10.0
1040
10.0
1070
     0
1002
{
1002
}
1002
}
  0
ENDSEC
  0
EOF
