  0
SECTION
  2
HEADER
  9
$ACADVER
  1
AC1009
  9
$INSBASE
 10
0.0
 20
0.0
 30
0.0
  9
$EXTMIN
 10
-2307.4663
 20
-2352.4926
 30
0.0
  9
$EXTMAX
 10
-2109.3294999999998
 20
-2139.9926999999998
 30
0.0
  9
$LIMMIN
 10
0.0
 20
0.0
  9
$LIMMAX
 10
420.0
 20
297.0
  9
$ORTHOMODE
 70
     0
  9
$REGENMODE
 70
     1
  9
$FILLMODE
 70
     1
  9
$QTEXTMODE
 70
     0
  9
$MIRRTEXT
 70
     1
  9
$DRAGMODE
 70
     2
  9
$LTSCALE
 40
0.5
  9
$OSMODE
 70
  2173
  9
$ATTMODE
 70
     1
  9
$TEXTSIZE
 40
4.0
  9
$TRACEWID
 40
1.0
  9
$TEXTSTYLE
  7
STANDARD
  9
$CLAYER
  8
1TEXT
  9
$CELTYPE
  6
BYLAYER
  9
$CECOLOR
 62
   256
  9
$DIMSCALE
 40
1.0
  9
$DIMASZ
 40
2.0
  9
$DIMEXO
 40
0.0
  9
$DIMDLI
 40
7.0
  9
$DIMRND
 40
0.0
  9
$DIMDLE
 40
0.0
  9
$DIMEXE
 40
1.0
  9
$DIMTP
 40
0.0
  9
$DIMTM
 40
0.0
  9
$DIMTXT
 40
3.5
  9
$DIMCEN
 40
0.0
  9
$DIMTSZ
 40
0.0
  9
$DIMTOL
 70
     0
  9
$DIMLIM
 70
     0
  9
$DIMTIH
 70
     0
  9
$DIMTOH
 70
     0
  9
$DIMSE1
 70
     0
  9
$DIMSE2
 70
     0
  9
$DIMTAD
 70
     1
  9
$DIMZIN
 70
     8
  9
$DIMBLK
  1

  9
$DIMASO
 70
     1
  9
$DIMSHO
 70
     1
  9
$DIMPOST
  1
 
  9
$DIMAPOST
  1

  9
$DIMALT
 70
     0
  9
$DIMALTD
 70
     2
  9
$DIMALTF
 40
25.399999999999999
  9
$DIMLFAC
 40
1.0
  9
$DIMTOFL
 70
     1
  9
$DIMTVP
 40
0.0
  9
$DIMTIX
 70
     0
  9
$DIMSOXD
 70
     0
  9
$DIMSAH
 70
     1
  9
$DIMBLK1
  1
OPEN30
  9
$DIMBLK2
  1
OPEN30
  9
$DIMSTYLE
  2
NEWX10
  9
$DIMCLRD
 70
   256
  9
$DIMCLRE
 70
   256
  9
$DIMCLRT
 70
   201
  9
$DIMTFAC
 40
0.7
  9
$DIMGAP
 40
0.7
  9
$LUNITS
 70
     2
  9
$LUPREC
 70
     4
  9
$SKETCHINC
 40
1.0
  9
$FILLETRAD
 40
0.0
  9
$AUNITS
 70
     0
  9
$AUPREC
 70
     2
  9
$MENU
  1
acad
  9
$ELEVATION
 40
0.0
  9
$PELEVATION
 40
0.0
  9
$THICKNESS
 40
0.0
  9
$LIMCHECK
 70
     0
  9
$BLIPMODE
 70
     0
  9
$CHAMFERA
 40
10.0
  9
$CHAMFERB
 40
10.0
  9
$SKPOLY
 70
     0
  9
$TDCREATE
 40
2453033.7327000001
  9
$TDUPDATE
 40
2453335.4886749419
  9
$TDINDWG
 40
0.2697240509
  9
$TDUSRTIMER
 40
0.2697240509
  9
$USRTIMER
 70
     1
  9
$ANGBASE
 50
0.0
  9
$ANGDIR
 70
     0
  9
$PDMODE
 70
     0
  9
$PDSIZE
 40
0.0
  9
$PLINEWID
 40
0.0
  9
$COORDS
 70
     2
  9
$SPLFRAME
 70
     0
  9
$SPLINETYPE
 70
     6
  9
$SPLINESEGS
 70
     8
  9
$ATTDIA
 70
     0
  9
$ATTREQ
 70
     1
  9
$HANDLING
 70
     1
  9
$HANDSEED
  5
A7C1
  9
$SURFTAB1
 70
     6
  9
$SURFTAB2
 70
     6
  9
$SURFTYPE
 70
     6
  9
$SURFU
 70
     6
  9
$SURFV
 70
     6
  9
$UCSNAME
  2

  9
$UCSORG
 10
0.0
 20
0.0
 30
0.0
  9
$UCSXDIR
 10
1.0
 20
0.0
 30
0.0
  9
$UCSYDIR
 10
0.0
 20
1.0
 30
0.0
  9
$PUCSNAME
  2

  9
$PUCSORG
 10
0.0
 20
0.0
 30
0.0
  9
$PUCSXDIR
 10
1.0
 20
0.0
 30
0.0
  9
$PUCSYDIR
 10
0.0
 20
1.0
 30
0.0
  9
$USERI1
 70
     0
  9
$USERI2
 70
     0
  9
$USERI3
 70
     0
  9
$USERI4
 70
     0
  9
$USERI5
 70
     0
  9
$USERR1
 40
0.0
  9
$USERR2
 40
0.0
  9
$USERR3
 40
0.0
  9
$USERR4
 40
0.0
  9
$USERR5
 40
0.0
  9
$WORLDVIEW
 70
     1
  9
$SHADEDGE
 70
     3
  9
$SHADEDIF
 70
    70
  9
$TILEMODE
 70
     1
  9
$MAXACTVP
 70
    48
  9
$PLIMCHECK
 70
     0
  9
$PEXTMIN
 10
1.0000000000000000E+020
 20
1.0000000000000000E+020
 30
1.0000000000000000E+020
  9
$PEXTMAX
 10
-1.0000000000000000E+020
 20
-1.0000000000000000E+020
 30
-1.0000000000000000E+020
  9
$PLIMMIN
 10
0.0
 20
0.0
  9
$PLIMMAX
 10
420.0
 20
297.0
  9
$UNITMODE
 70
     0
  9
$VISRETAIN
 70
     1
  9
$PLINEGEN
 70
     0
  9
$PSLTSCALE
 70
     1
  0
ENDSEC
  0
SECTION
  2
TABLES
  0
TABLE
  2
VPORT
 70
     4
  0
VPORT
  2
*ACTIVE
 70
     0
 10
0.0
 20
0.0
 11
1.0
 21
1.0
 12
-2208.3978999999999
 22
-2246.2426499999988
 13
0.0
 23
0.0
 14
10.0
 24
10.0
 15
10.0
 25
10.0
 16
0.0
 26
0.0
 36
1.0
 17
0.0
 27
0.0
 37
0.0
 40
225.42483759983719
 41
1.453246753246753
 42
50.0
 43
0.0
 44
0.0
 50
0.0
 51
0.0
 71
     0
 72
   100
 73
     1
 74
     1
 75
     0
 76
     0
 77
     0
 78
     0
  0
ENDTAB
  0
TABLE
  2
LTYPE
 70
     4
  0
LTYPE
  2
CONTINUOUS
 70
     0
  3
Solid line
 72
    65
 73
     0
 40
0.0
  0
LTYPE
  2
CENTER2
 70
     0
  3
Center (.5x) ___ _ ___ _ ___ _ ___ _ ___ _ ___
 72
    65
 73
     4
 40
28.574999999999999
 49
19.050000000000001
 49
-3.1749999999999989
 49
3.1749999999999989
 49
-3.1749999999999989
  0
ENDTAB
  0
TABLE
  2
LAYER
 70
    11
  0
LAYER
  2
0
 70
     0
 62
     7
  6
CONTINUOUS
  0
LAYER
  2
1TEXT
 70
     0
 62
     7
  6
CONTINUOUS
  0
LAYER
  2
1CENTER
 70
     0
 62
     7
  6
CENTER2
  0
LAYER
  2
1DIM
 70
     0
 62
     7
  6
CONTINUOUS
  0
LAYER
  2
01
 70
     0
 62
     1
  6
CONTINUOUS
  0
ENDTAB
  0
TABLE
  2
STYLE
 70
     1
  0
STYLE
  2
STANDARD
 70
     0
 40
0.0
 41
1.0
 50
0.0
 71
     0
 42
4.0
  3
txt.shx
  4
extfont.shx
  0
ENDTAB
  0
TABLE
  2
VIEW
 70
     0
  0
ENDTAB
  0
TABLE
  2
UCS
 70
     0
  0
ENDTAB
  0
TABLE
  2
APPID
 70
     9
  0
APPID
  2
ACAD
 70
     0
  0
APPID
  2
DRAWINGVARIABLESXDATA
 70
     0
  0
APPID
  2
CONTENTTABDATA
 70
     0
  0
APPID
  2
CONTENTCURRENTTAB
 70
     0
  0
APPID
  2
CONTENTBLOCKDESCRIPTION
 70
     0
  0
APPID
  2
CONTENTBLOCKICON
 70
     0
  0
APPID
  2
CONTENTLONGBLOCKNAME
 70
     0
  0
APPID
  2
ACAD_PSEXT
 70
     0
  0
APPID
  2
ACAD_DSTYLE_DIMTEXT_FILL
 70
     0
  0
ENDTAB
  0
TABLE
  2
DIMSTYLE
 70
     1
  0
DIMSTYLE
  2
NEWX10
 70
     0
  3
 
  4

  5

  6

  7

 40
1.0
 41
2.0
 42
0.0
 43
7.0
 44
1.0
 45
0.0
 46
0.0
 47
0.0
 48
0.0
140
3.5
141
0.0
142
0.0
143
25.399999999999999
144
1.0
145
0.0
146
0.7
147
0.7
 71
     0
 72
     0
 73
     0
 74
     0
 75
     0
 76
     0
 77
     1
 78
     8
170
     0
171
     2
172
     1
173
     1
174
     0
175
     0
176
   256
177
   256
178
   201
  0
ENDTAB
  0
ENDSEC
  0
SECTION
  2
BLOCKS
  0
BLOCK
  8
0
  2
$MODEL_SPACE
 70
     0
 10
0.0
 20
0.0
 30
0.0
  3
$MODEL_SPACE
  1

  0
ENDBLK
  5
A348
  8
0
  0
BLOCK
 67
     1
  8
0
  2
$PAPER_SPACE
 70
     0
 10
0.0
 20
0.0
 30
0.0
  3
$PAPER_SPACE
  1

  0
ENDBLK
  5
A344
 67
     1
  8
0
  0
BLOCK
  8
0
  2
_OPEN30
 70
     0
 10
0.0
 20
0.0
 30
0.0
  3
_OPEN30
  1

  0
LINE
  5
44
  8
0
  6
BYBLOCK
 62
     0
 10
-1.0
 20
0.2679
 30
0.0
 11
0.0
 21
0.0
 31
0.0
  0
LINE
  5
45
  8
0
  6
BYBLOCK
 62
     0
 10
0.0
 20
0.0
 30
0.0
 11
-1.0
 21
-0.2679
 31
0.0
  0
LINE
  5
46
  8
0
  6
BYBLOCK
 62
     0
 10
0.0
 20
0.0
 30
0.0
 11
-1.0
 21
0.0
 31
0.0
  0
ENDBLK
  5
47
  8
0
  0
ENDSEC
  0
SECTION
  2
ENTITIES
  0
LINE
  5
A59C
  8
01
 10
-2146.9663
 20
-2251.9292999999998
 30
0.0
 11
-2146.9663
 21
-2271.4929000000002
 31
0.0
  0
LINE
  5
A59D
  8
01
 10
-2139.9663
 20
-2251.9292999999998
 30
0.0
 11
-2139.9663
 21
-2271.4929000000002
 31
0.0
  0
LINE
  5
A59E
  8
01
 10
-2198.9663
 20
-2253.9926999999998
 30
0.0
 11
-2198.9663
 21
-2271.4929000000002
 31
0.0
  0
LINE
  5
A59F
  8
01
 10
-2205.9663
 20
-2253.9926999999998
 30
0.0
 11
-2205.9663
 21
-2271.4929000000002
 31
0.0
  0
LINE
  5
A5A0
  8
01
 10
-2288.9663
 20
-2253.9926999999998
 30
0.0
 11
-2288.9663
 21
-2271.4929000000002
 31
0.0
  0
LINE
  5
A5A1
  8
01
 10
-2295.9663
 20
-2253.9926999999998
 30
0.0
 11
-2295.9663
 21
-2271.4929000000002
 31
0.0
  0
LINE
  5
A5A2
  8
01
 10
-2295.9663
 20
-2271.4929000000002
 30
0.0
 11
-2288.9663
 21
-2271.4929000000002
 31
0.0
  0
LINE
  5
A5A3
  8
01
 10
-2205.9663
 20
-2271.4929000000002
 30
0.0
 11
-2198.9663
 21
-2271.4929000000002
 31
0.0
  0
LINE
  5
A5A4
  8
01
 10
-2139.9663
 20
-2271.4929000000002
 30
0.0
 11
-2146.9663
 21
-2271.4929000000002
 31
0.0
  0
LINE
  5
A5A5
  8
01
 10
-2307.4663
 20
-2253.9926999999998
 30
0.0
 11
-2295.9663
 21
-2253.9926999999998
 31
0.0
  0
LINE
  5
A5A6
  8
01
 10
-2288.9663
 20
-2253.9926999999998
 30
0.0
 11
-2205.9663
 21
-2253.9926999999998
 31
0.0
  0
LINE
  5
A5A7
  8
01
 10
-2307.4663
 20
-2245.9929000000002
 30
0.0
 11
-2187.4663
 21
-2245.9929000000002
 31
0.0
  0
LINE
  5
A5A8
  8
01
 10
-2307.4663
 20
-2177.9928
 30
0.0
 11
-2187.4663
 21
-2177.9928
 31
0.0
  0
LINE
  5
A5A9
  8
01
 10
-2307.4663
 20
-2185.9929000000002
 30
0.0
 11
-2187.4663
 21
-2185.9929000000002
 31
0.0
  0
LINE
  5
A5AA
  8
01
 10
-2307.4663
 20
-2253.9926999999998
 30
0.0
 11
-2295.9663
 21
-2253.9926999999998
 31
0.0
  0
LINE
  5
A5AB
  8
01
 10
-2307.4663
 20
-2245.9929000000002
 30
0.0
 11
-2307.4663
 21
-2253.9926999999998
 31
0.0
  0
POLYLINE
  5
A5AC
  8
01
 66
     1
 10
0.0
 20
0.0
 30
0.0
 70
     8
  0
VERTEX
  5
A5AD
  8
01
 10
-2288.9699999999998
 20
-2253.9929999999999
 30
0.0
 70
    32
  0
VERTEX
  5
A5AE
  8
01
 10
-2289.0
 20
-2253.9360000000001
 30
0.0
 70
    32
  0
VERTEX
  5
A5AF
  8
01
 10
-2289.0300000000002
 20
-2253.8759999999988
 30
0.0
 70
    32
  0
VERTEX
  5
A5B0
  8
01
 10
-2289.0700000000002
 20
-2253.8219999999992
 30
0.0
 70
    32
  0
VERTEX
  5
A5B1
  8
01
 10
-2289.0999999999999
 20
-2253.7649999999999
 30
0.0
 70
    32
  0
VERTEX
  5
A5B2
  8
01
 10
-2289.1399999999999
 20
-2253.708000000001
 30
0.0
 70
    32
  0
VERTEX
  5
A5B3
  8
01
 10
-2289.1799999999998
 20
-2253.654
 30
0.0
 70
    32
  0
VERTEX
  5
A5B4
  8
01
 10
-2289.2199999999998
 20
-2253.5999999999999
 30
0.0
 70
    32
  0
VERTEX
  5
A5B5
  8
01
 10
-2289.25
 20
-2253.5459999999998
 30
0.0
 70
    32
  0
VERTEX
  5
A5B6
  8
01
 10
-2289.29
 20
-2253.4920000000002
 30
0.0
 70
    32
  0
VERTEX
  5
A5B7
  8
01
 10
-2289.3400000000011
 20
-2253.4409999999998
 30
0.0
 70
    32
  0
VERTEX
  5
A5B8
  8
01
 10
-2289.3800000000001
 20
-2253.3870000000002
 30
0.0
 70
    32
  0
VERTEX
  5
A5B9
  8
01
 10
-2289.4200000000001
 20
-2253.3359999999998
 30
0.0
 70
    32
  0
VERTEX
  5
A5BA
  8
01
 10
-2289.46
 20
-2253.288
 30
0.0
 70
    32
  0
VERTEX
  5
A5BB
  8
01
 10
-2289.5100000000002
 20
-2253.2370000000001
 30
0.0
 70
    32
  0
VERTEX
  5
A5BC
  8
01
 10
-2289.5500000000002
 20
-2253.1889999999999
 30
0.0
 70
    32
  0
VERTEX
  5
A5BD
  8
01
 10
-2289.5999999999999
 20
-2253.1410000000001
 30
0.0
 70
    32
  0
VERTEX
  5
A5BE
  8
01
 10
-2289.6500000000001
 20
-2253.0930000000012
 30
0.0
 70
    32
  0
VERTEX
  5
A5BF
  8
01
 10
-2289.6900000000001
 20
-2253.0450000000001
 30
0.0
 70
    32
  0
VERTEX
  5
A5C0
  8
01
 10
-2289.7399999999998
 20
-2253.0
 30
0.0
 70
    32
  0
VERTEX
  5
A5C1
  8
01
 10
-2289.79
 20
-2252.9549999999999
 30
0.0
 70
    32
  0
VERTEX
  5
A5C2
  8
01
 10
-2289.8400000000001
 20
-2252.9099999999999
 30
0.0
 70
    32
  0
VERTEX
  5
A5C3
  8
01
 10
-2289.8899999999999
 20
-2252.8679999999999
 30
0.0
 70
    32
  0
VERTEX
  5
A5C4
  8
01
 10
-2289.9400000000001
 20
-2252.826
 30
0.0
 70
    32
  0
VERTEX
  5
A5C5
  8
01
 10
-2290.0
 20
-2252.7840000000001
 30
0.0
 70
    32
  0
VERTEX
  5
A5C6
  8
01
 10
-2290.0500000000002
 20
-2252.7420000000002
 30
0.0
 70
    32
  0
VERTEX
  5
A5C7
  8
01
 10
-2290.0999999999999
 20
-2252.703
 30
0.0
 70
    32
  0
VERTEX
  5
A5C8
  8
01
 10
-2290.1599999999999
 20
-2252.6640000000011
 30
0.0
 70
    32
  0
VERTEX
  5
A5C9
  8
01
 10
-2290.21
 20
-2252.6280000000002
 30
0.0
 70
    32
  0
VERTEX
  5
A5CA
  8
01
 10
-2290.27
 20
-2252.5889999999999
 30
0.0
 70
    32
  0
VERTEX
  5
A5CB
  8
01
 10
-2290.3200000000002
 20
-2252.5529999999999
 30
0.0
 70
    32
  0
VERTEX
  5
A5CC
  8
01
 10
-2290.3800000000001
 20
-2252.5169999999998
 30
0.0
 70
    32
  0
VERTEX
  5
A5CD
  8
01
 10
-2290.4299999999998
 20
-2252.4839999999999
 30
0.0
 70
    32
  0
VERTEX
  5
A5CE
  8
01
 10
-2290.4899999999998
 20
-2252.451
 30
0.0
 70
    32
  0
VERTEX
  5
A5CF
  8
01
 10
-2290.5500000000002
 20
-2252.4180000000001
 30
0.0
 70
    32
  0
VERTEX
  5
A5D0
  8
01
 10
-2290.6100000000001
 20
-2252.3879999999999
 30
0.0
 70
    32
  0
VERTEX
  5
A5D1
  8
01
 10
-2290.6700000000001
 20
-2252.355
 30
0.0
 70
    32
  0
VERTEX
  5
A5D2
  8
01
 10
-2290.73
 20
-2252.328
 30
0.0
 70
    32
  0
VERTEX
  5
A5D3
  8
01
 10
-2290.79
 20
-2252.2980000000011
 30
0.0
 70
    32
  0
VERTEX
  5
A5D4
  8
01
 10
-2290.8499999999999
 20
-2252.2710000000002
 30
0.0
 70
    32
  0
VERTEX
  5
A5D5
  8
01
 10
-2290.9099999999999
 20
-2252.2440000000011
 30
0.0
 70
    32
  0
VERTEX
  5
A5D6
  8
01
 10
-2290.9699999999998
 20
-2252.2199999999998
 30
0.0
 70
    32
  0
VERTEX
  5
A5D7
  8
01
 10
-2291.0300000000011
 20
-2252.1959999999999
 30
0.0
 70
    32
  0
VERTEX
  5
A5D8
  8
01
 10
-2291.0999999999999
 20
-2252.1719999999991
 30
0.0
 70
    32
  0
VERTEX
  5
A5D9
  8
01
 10
-2291.1599999999999
 20
-2252.1480000000001
 30
0.0
 70
    32
  0
VERTEX
  5
A5DA
  8
01
 10
-2291.2199999999998
 20
-2252.127
 30
0.0
 70
    32
  0
VERTEX
  5
A5DB
  8
01
 10
-2291.29
 20
-2252.1089999999999
 30
0.0
 70
    32
  0
VERTEX
  5
A5DC
  8
01
 10
-2291.3499999999999
 20
-2252.0880000000002
 30
0.0
 70
    32
  0
VERTEX
  5
A5DD
  8
01
 10
-2291.4099999999999
 20
-2252.0700000000002
 30
0.0
 70
    32
  0
VERTEX
  5
A5DE
  8
01
 10
-2291.48
 20
-2252.0549999999998
 30
0.0
 70
    32
  0
VERTEX
  5
A5DF
  8
01
 10
-2291.54
 20
-2252.0369999999998
 30
0.0
 70
    32
  0
VERTEX
  5
A5E0
  8
01
 10
-2291.6100000000001
 20
-2252.0219999999999
 30
0.0
 70
    32
  0
VERTEX
  5
A5E1
  8
01
 10
-2291.6700000000001
 20
-2252.0100000000002
 30
0.0
 70
    32
  0
VERTEX
  5
A5E2
  8
01
 10
-2291.7399999999998
 20
-2251.9949999999999
 30
0.0
 70
    32
  0
VERTEX
  5
A5E3
  8
01
 10
-2291.8000000000002
 20
-2251.9859999999999
 30
0.0
 70
    32
  0
VERTEX
  5
A5E4
  8
01
 10
-2291.8699999999999
 20
-2251.9740000000002
 30
0.0
 70
    32
  0
VERTEX
  5
A5E5
  8
01
 10
-2291.9400000000001
 20
-2251.9650000000001
 30
0.0
 70
    32
  0
VERTEX
  5
A5E6
  8
01
 10
-2292.0
 20
-2251.9560000000001
 30
0.0
 70
    32
  0
VERTEX
  5
A5E7
  8
01
 10
-2292.0700000000002
 20
-2251.9499999999998
 30
0.0
 70
    32
  0
VERTEX
  5
A5E8
  8
01
 10
-2292.1300000000001
 20
-2251.944
 30
0.0
 70
    32
  0
VERTEX
  5
A5E9
  8
01
 10
-2292.1999999999998
 20
-2251.9380000000001
 30
0.0
 70
    32
  0
VERTEX
  5
A5EA
  8
01
 10
-2292.27
 20
-2251.9349999999999
 30
0.0
 70
    32
  0
VERTEX
  5
A5EB
  8
01
 10
-2292.3299999999999
 20
-2251.9319999999998
 30
0.0
 70
    32
  0
VERTEX
  5
A5EC
  8
01
 10
-2292.4000000000001
 20
-2251.9290000000001
 30
0.0
 70
    32
  0
VERTEX
  5
A5ED
  8
01
 10
-2292.4699999999998
 20
-2251.9290000000001
 30
0.0
 70
    32
  0
VERTEX
  5
A5EE
  8
01
 10
-2292.5300000000011
 20
-2251.9290000000001
 30
0.0
 70
    32
  0
VERTEX
  5
A5EF
  8
01
 10
-2292.5999999999999
 20
-2251.9319999999998
 30
0.0
 70
    32
  0
VERTEX
  5
A5F0
  8
01
 10
-2292.6700000000001
 20
-2251.9349999999999
 30
0.0
 70
    32
  0
VERTEX
  5
A5F1
  8
01
 10
-2292.73
 20
-2251.9380000000001
 30
0.0
 70
    32
  0
VERTEX
  5
A5F2
  8
01
 10
-2292.8000000000002
 20
-2251.944
 30
0.0
 70
    32
  0
VERTEX
  5
A5F3
  8
01
 10
-2292.8699999999999
 20
-2251.9499999999998
 30
0.0
 70
    32
  0
VERTEX
  5
A5F4
  8
01
 10
-2292.9299999999998
 20
-2251.9560000000001
 30
0.0
 70
    32
  0
VERTEX
  5
A5F5
  8
01
 10
-2293.0
 20
-2251.9650000000001
 30
0.0
 70
    32
  0
VERTEX
  5
A5F6
  8
01
 10
-2293.0599999999999
 20
-2251.9740000000002
 30
0.0
 70
    32
  0
VERTEX
  5
A5F7
  8
01
 10
-2293.1300000000001
 20
-2251.9859999999999
 30
0.0
 70
    32
  0
VERTEX
  5
A5F8
  8
01
 10
-2293.1900000000001
 20
-2251.9949999999999
 30
0.0
 70
    32
  0
VERTEX
  5
A5F9
  8
01
 10
-2293.2600000000002
 20
-2252.0100000000002
 30
0.0
 70
    32
  0
VERTEX
  5
A5FA
  8
01
 10
-2293.3299999999999
 20
-2252.0219999999999
 30
0.0
 70
    32
  0
VERTEX
  5
A5FB
  8
01
 10
-2293.3899999999999
 20
-2252.0369999999998
 30
0.0
 70
    32
  0
VERTEX
  5
A5FC
  8
01
 10
-2293.4499999999998
 20
-2252.0549999999998
 30
0.0
 70
    32
  0
VERTEX
  5
A5FD
  8
01
 10
-2293.52
 20
-2252.0700000000002
 30
0.0
 70
    32
  0
VERTEX
  5
A5FE
  8
01
 10
-2293.5799999999999
 20
-2252.0880000000002
 30
0.0
 70
    32
  0
VERTEX
  5
A5FF
  8
01
 10
-2293.6500000000001
 20
-2252.1089999999999
 30
0.0
 70
    32
  0
VERTEX
  5
A600
  8
01
 10
-2293.71
 20
-2252.127
 30
0.0
 70
    32
  0
VERTEX
  5
A601
  8
01
 10
-2293.77
 20
-2252.1480000000001
 30
0.0
 70
    32
  0
VERTEX
  5
A602
  8
01
 10
-2293.8400000000001
 20
-2252.1719999999991
 30
0.0
 70
    32
  0
VERTEX
  5
A603
  8
01
 10
-2293.9000000000001
 20
-2252.1959999999999
 30
0.0
 70
    32
  0
VERTEX
  5
A604
  8
01
 10
-2293.96
 20
-2252.2199999999998
 30
0.0
 70
    32
  0
VERTEX
  5
A605
  8
01
 10
-2294.02
 20
-2252.2440000000011
 30
0.0
 70
    32
  0
VERTEX
  5
A606
  8
01
 10
-2294.0799999999999
 20
-2252.2710000000002
 30
0.0
 70
    32
  0
VERTEX
  5
A607
  8
01
 10
-2294.1399999999999
 20
-2252.2980000000011
 30
0.0
 70
    32
  0
VERTEX
  5
A608
  8
01
 10
-2294.1999999999998
 20
-2252.328
 30
0.0
 70
    32
  0
VERTEX
  5
A609
  8
01
 10
-2294.2600000000002
 20
-2252.355
 30
0.0
 70
    32
  0
VERTEX
  5
A60A
  8
01
 10
-2294.3200000000002
 20
-2252.3879999999999
 30
0.0
 70
    32
  0
VERTEX
  5
A60B
  8
01
 10
-2294.3800000000001
 20
-2252.4180000000001
 30
0.0
 70
    32
  0
VERTEX
  5
A60C
  8
01
 10
-2294.4400000000001
 20
-2252.451
 30
0.0
 70
    32
  0
VERTEX
  5
A60D
  8
01
 10
-2294.5
 20
-2252.4839999999999
 30
0.0
 70
    32
  0
VERTEX
  5
A60E
  8
01
 10
-2294.5500000000002
 20
-2252.5169999999998
 30
0.0
 70
    32
  0
VERTEX
  5
A60F
  8
01
 10
-2294.6100000000001
 20
-2252.5529999999999
 30
0.0
 70
    32
  0
VERTEX
  5
A610
  8
01
 10
-2294.6700000000001
 20
-2252.5889999999999
 30
0.0
 70
    32
  0
VERTEX
  5
A611
  8
01
 10
-2294.7199999999998
 20
-2252.6280000000002
 30
0.0
 70
    32
  0
VERTEX
  5
A612
  8
01
 10
-2294.7800000000002
 20
-2252.6640000000011
 30
0.0
 70
    32
  0
VERTEX
  5
A613
  8
01
 10
-2294.8299999999999
 20
-2252.703
 30
0.0
 70
    32
  0
VERTEX
  5
A614
  8
01
 10
-2294.8800000000001
 20
-2252.7420000000002
 30
0.0
 70
    32
  0
VERTEX
  5
A615
  8
01
 10
-2294.9400000000001
 20
-2252.7840000000001
 30
0.0
 70
    32
  0
VERTEX
  5
A616
  8
01
 10
-2294.9899999999998
 20
-2252.826
 30
0.0
 70
    32
  0
VERTEX
  5
A617
  8
01
 10
-2295.04
 20
-2252.8679999999999
 30
0.0
 70
    32
  0
VERTEX
  5
A618
  8
01
 10
-2295.0900000000001
 20
-2252.9099999999999
 30
0.0
 70
    32
  0
VERTEX
  5
A619
  8
01
 10
-2295.1399999999999
 20
-2252.9549999999999
 30
0.0
 70
    32
  0
VERTEX
  5
A61A
  8
01
 10
-2295.1900000000001
 20
-2253.0
 30
0.0
 70
    32
  0
VERTEX
  5
A61B
  8
01
 10
-2295.2399999999998
 20
-2253.0450000000001
 30
0.0
 70
    32
  0
VERTEX
  5
A61C
  8
01
 10
-2295.29
 20
-2253.0930000000012
 30
0.0
 70
    32
  0
VERTEX
  5
A61D
  8
01
 10
-2295.3299999999999
 20
-2253.1410000000001
 30
0.0
 70
    32
  0
VERTEX
  5
A61E
  8
01
 10
-2295.3800000000001
 20
-2253.1889999999999
 30
0.0
 70
    32
  0
VERTEX
  5
A61F
  8
01
 10
-2295.4200000000001
 20
-2253.2370000000001
 30
0.0
 70
    32
  0
VERTEX
  5
A620
  8
01
 10
-2295.4699999999998
 20
-2253.288
 30
0.0
 70
    32
  0
VERTEX
  5
A621
  8
01
 10
-2295.5100000000002
 20
-2253.3359999999998
 30
0.0
 70
    32
  0
VERTEX
  5
A622
  8
01
 10
-2295.5599999999999
 20
-2253.3870000000002
 30
0.0
 70
    32
  0
VERTEX
  5
A623
  8
01
 10
-2295.5999999999999
 20
-2253.4409999999998
 30
0.0
 70
    32
  0
VERTEX
  5
A624
  8
01
 10
-2295.6399999999999
 20
-2253.4920000000002
 30
0.0
 70
    32
  0
VERTEX
  5
A625
  8
01
 10
-2295.6799999999998
 20
-2253.5459999999998
 30
0.0
 70
    32
  0
VERTEX
  5
A626
  8
01
 10
-2295.7199999999998
 20
-2253.5999999999999
 30
0.0
 70
    32
  0
VERTEX
  5
A627
  8
01
 10
-2295.7600000000002
 20
-2253.654
 30
0.0
 70
    32
  0
VERTEX
  5
A628
  8
01
 10
-2295.79
 20
-2253.708000000001
 30
0.0
 70
    32
  0
VERTEX
  5
A629
  8
01
 10
-2295.8299999999999
 20
-2253.7649999999999
 30
0.0
 70
    32
  0
VERTEX
  5
A62A
  8
01
 10
-2295.8699999999999
 20
-2253.8219999999992
 30
0.0
 70
    32
  0
VERTEX
  5
A62B
  8
01
 10
-2295.9000000000001
 20
-2253.8759999999988
 30
0.0
 70
    32
  0
VERTEX
  5
A62C
  8
01
 10
-2295.9299999999998
 20
-2253.9360000000001
 30
0.0
 70
    32
  0
VERTEX
  5
A62D
  8
01
 10
-2295.9699999999998
 20
-2253.9929999999999
 30
0.0
 70
    32
  0
SEQEND
  5
A62E
  8
01
  0
LINE
  5
A62F
  8
01
 10
-2307.4663
 20
-2185.9929000000002
 30
0.0
 11
-2307.4663
 21
-2177.9928
 31
0.0
  0
LINE
  5
A630
  8
01
 10
-2198.9663
 20
-2253.9926999999998
 30
0.0
 11
-2187.4663
 21
-2253.9926999999998
 31
0.0
  0
POLYLINE
  5
A631
  8
01
 66
     1
 10
0.0
 20
0.0
 30
0.0
 70
     8
  0
VERTEX
  5
A632
  8
01
 10
-2198.9699999999998
 20
-2253.9929999999999
 30
0.0
 70
    32
  0
VERTEX
  5
A633
  8
01
 10
-2199.0
 20
-2253.9360000000001
 30
0.0
 70
    32
  0
VERTEX
  5
A634
  8
01
 10
-2199.0300000000002
 20
-2253.8759999999988
 30
0.0
 70
    32
  0
VERTEX
  5
A635
  8
01
 10
-2199.0700000000002
 20
-2253.8219999999992
 30
0.0
 70
    32
  0
VERTEX
  5
A636
  8
01
 10
-2199.0999999999999
 20
-2253.7649999999999
 30
0.0
 70
    32
  0
VERTEX
  5
A637
  8
01
 10
-2199.1399999999999
 20
-2253.708000000001
 30
0.0
 70
    32
  0
VERTEX
  5
A638
  8
01
 10
-2199.1799999999998
 20
-2253.654
 30
0.0
 70
    32
  0
VERTEX
  5
A639
  8
01
 10
-2199.2199999999998
 20
-2253.5999999999999
 30
0.0
 70
    32
  0
VERTEX
  5
A63A
  8
01
 10
-2199.25
 20
-2253.5459999999998
 30
0.0
 70
    32
  0
VERTEX
  5
A63B
  8
01
 10
-2199.29
 20
-2253.4920000000002
 30
0.0
 70
    32
  0
VERTEX
  5
A63C
  8
01
 10
-2199.3400000000001
 20
-2253.4409999999998
 30
0.0
 70
    32
  0
VERTEX
  5
A63D
  8
01
 10
-2199.3800000000001
 20
-2253.3870000000002
 30
0.0
 70
    32
  0
VERTEX
  5
A63E
  8
01
 10
-2199.4200000000001
 20
-2253.3359999999998
 30
0.0
 70
    32
  0
VERTEX
  5
A63F
  8
01
 10
-2199.46
 20
-2253.288
 30
0.0
 70
    32
  0
VERTEX
  5
A640
  8
01
 10
-2199.5100000000002
 20
-2253.2370000000001
 30
0.0
 70
    32
  0
VERTEX
  5
A641
  8
01
 10
-2199.5500000000002
 20
-2253.1889999999999
 30
0.0
 70
    32
  0
VERTEX
  5
A642
  8
01
 10
-2199.5999999999999
 20
-2253.1410000000001
 30
0.0
 70
    32
  0
VERTEX
  5
A643
  8
01
 10
-2199.6500000000001
 20
-2253.0930000000012
 30
0.0
 70
    32
  0
VERTEX
  5
A644
  8
01
 10
-2199.6900000000001
 20
-2253.0450000000001
 30
0.0
 70
    32
  0
VERTEX
  5
A645
  8
01
 10
-2199.7399999999998
 20
-2253.0
 30
0.0
 70
    32
  0
VERTEX
  5
A646
  8
01
 10
-2199.79
 20
-2252.9549999999999
 30
0.0
 70
    32
  0
VERTEX
  5
A647
  8
01
 10
-2199.8400000000001
 20
-2252.9099999999999
 30
0.0
 70
    32
  0
VERTEX
  5
A648
  8
01
 10
-2199.8899999999999
 20
-2252.8679999999999
 30
0.0
 70
    32
  0
VERTEX
  5
A649
  8
01
 10
-2199.9400000000001
 20
-2252.826
 30
0.0
 70
    32
  0
VERTEX
  5
A64A
  8
01
 10
-2200.0
 20
-2252.7840000000001
 30
0.0
 70
    32
  0
VERTEX
  5
A64B
  8
01
 10
-2200.0500000000002
 20
-2252.7420000000002
 30
0.0
 70
    32
  0
VERTEX
  5
A64C
  8
01
 10
-2200.0999999999999
 20
-2252.703
 30
0.0
 70
    32
  0
VERTEX
  5
A64D
  8
01
 10
-2200.1599999999999
 20
-2252.6640000000011
 30
0.0
 70
    32
  0
VERTEX
  5
A64E
  8
01
 10
-2200.21
 20
-2252.6280000000002
 30
0.0
 70
    32
  0
VERTEX
  5
A64F
  8
01
 10
-2200.27
 20
-2252.5889999999999
 30
0.0
 70
    32
  0
VERTEX
  5
A650
  8
01
 10
-2200.3200000000002
 20
-2252.5529999999999
 30
0.0
 70
    32
  0
VERTEX
  5
A651
  8
01
 10
-2200.3800000000001
 20
-2252.5169999999998
 30
0.0
 70
    32
  0
VERTEX
  5
A652
  8
01
 10
-2200.4299999999998
 20
-2252.4839999999999
 30
0.0
 70
    32
  0
VERTEX
  5
A653
  8
01
 10
-2200.4899999999998
 20
-2252.451
 30
0.0
 70
    32
  0
VERTEX
  5
A654
  8
01
 10
-2200.5500000000002
 20
-2252.4180000000001
 30
0.0
 70
    32
  0
VERTEX
  5
A655
  8
01
 10
-2200.6100000000001
 20
-2252.3879999999999
 30
0.0
 70
    32
  0
VERTEX
  5
A656
  8
01
 10
-2200.6700000000001
 20
-2252.355
 30
0.0
 70
    32
  0
VERTEX
  5
A657
  8
01
 10
-2200.73
 20
-2252.328
 30
0.0
 70
    32
  0
VERTEX
  5
A658
  8
01
 10
-2200.79
 20
-2252.2980000000011
 30
0.0
 70
    32
  0
VERTEX
  5
A659
  8
01
 10
-2200.8499999999999
 20
-2252.2710000000002
 30
0.0
 70
    32
  0
VERTEX
  5
A65A
  8
01
 10
-2200.9099999999999
 20
-2252.2440000000011
 30
0.0
 70
    32
  0
VERTEX
  5
A65B
  8
01
 10
-2200.9699999999998
 20
-2252.2199999999998
 30
0.0
 70
    32
  0
VERTEX
  5
A65C
  8
01
 10
-2201.0300000000002
 20
-2252.1959999999999
 30
0.0
 70
    32
  0
VERTEX
  5
A65D
  8
01
 10
-2201.0999999999999
 20
-2252.1719999999991
 30
0.0
 70
    32
  0
VERTEX
  5
A65E
  8
01
 10
-2201.1599999999999
 20
-2252.1480000000001
 30
0.0
 70
    32
  0
VERTEX
  5
A65F
  8
01
 10
-2201.2199999999998
 20
-2252.127
 30
0.0
 70
    32
  0
VERTEX
  5
A660
  8
01
 10
-2201.29
 20
-2252.1089999999999
 30
0.0
 70
    32
  0
VERTEX
  5
A661
  8
01
 10
-2201.3499999999999
 20
-2252.0880000000002
 30
0.0
 70
    32
  0
VERTEX
  5
A662
  8
01
 10
-2201.4099999999999
 20
-2252.0700000000002
 30
0.0
 70
    32
  0
VERTEX
  5
A663
  8
01
 10
-2201.48
 20
-2252.0549999999998
 30
0.0
 70
    32
  0
VERTEX
  5
A664
  8
01
 10
-2201.54
 20
-2252.0369999999998
 30
0.0
 70
    32
  0
VERTEX
  5
A665
  8
01
 10
-2201.6100000000001
 20
-2252.0219999999999
 30
0.0
 70
    32
  0
VERTEX
  5
A666
  8
01
 10
-2201.6700000000001
 20
-2252.0100000000002
 30
0.0
 70
    32
  0
VERTEX
  5
A667
  8
01
 10
-2201.7399999999998
 20
-2251.9949999999999
 30
0.0
 70
    32
  0
VERTEX
  5
A668
  8
01
 10
-2201.8000000000002
 20
-2251.9859999999999
 30
0.0
 70
    32
  0
VERTEX
  5
A669
  8
01
 10
-2201.8699999999999
 20
-2251.9740000000002
 30
0.0
 70
    32
  0
VERTEX
  5
A66A
  8
01
 10
-2201.9400000000001
 20
-2251.9650000000001
 30
0.0
 70
    32
  0
VERTEX
  5
A66B
  8
01
 10
-2202.0
 20
-2251.9560000000001
 30
0.0
 70
    32
  0
VERTEX
  5
A66C
  8
01
 10
-2202.0700000000002
 20
-2251.9499999999998
 30
0.0
 70
    32
  0
VERTEX
  5
A66D
  8
01
 10
-2202.1300000000001
 20
-2251.944
 30
0.0
 70
    32
  0
VERTEX
  5
A66E
  8
01
 10
-2202.1999999999998
 20
-2251.9380000000001
 30
0.0
 70
    32
  0
VERTEX
  5
A66F
  8
01
 10
-2202.27
 20
-2251.9349999999999
 30
0.0
 70
    32
  0
VERTEX
  5
A670
  8
01
 10
-2202.3299999999999
 20
-2251.9319999999998
 30
0.0
 70
    32
  0
VERTEX
  5
A671
  8
01
 10
-2202.4000000000001
 20
-2251.9290000000001
 30
0.0
 70
    32
  0
VERTEX
  5
A672
  8
01
 10
-2202.4699999999998
 20
-2251.9290000000001
 30
0.0
 70
    32
  0
VERTEX
  5
A673
  8
01
 10
-2202.5300000000002
 20
-2251.9290000000001
 30
0.0
 70
    32
  0
VERTEX
  5
A674
  8
01
 10
-2202.5999999999999
 20
-2251.9319999999998
 30
0.0
 70
    32
  0
VERTEX
  5
A675
  8
01
 10
-2202.6700000000001
 20
-2251.9349999999999
 30
0.0
 70
    32
  0
VERTEX
  5
A676
  8
01
 10
-2202.73
 20
-2251.9380000000001
 30
0.0
 70
    32
  0
VERTEX
  5
A677
  8
01
 10
-2202.8000000000002
 20
-2251.944
 30
0.0
 70
    32
  0
VERTEX
  5
A678
  8
01
 10
-2202.8699999999999
 20
-2251.9499999999998
 30
0.0
 70
    32
  0
VERTEX
  5
A679
  8
01
 10
-2202.9299999999998
 20
-2251.9560000000001
 30
0.0
 70
    32
  0
VERTEX
  5
A67A
  8
01
 10
-2203.0
 20
-2251.9650000000001
 30
0.0
 70
    32
  0
VERTEX
  5
A67B
  8
01
 10
-2203.0599999999999
 20
-2251.9740000000002
 30
0.0
 70
    32
  0
VERTEX
  5
A67C
  8
01
 10
-2203.1300000000001
 20
-2251.9859999999999
 30
0.0
 70
    32
  0
VERTEX
  5
A67D
  8
01
 10
-2203.1900000000001
 20
-2251.9949999999999
 30
0.0
 70
    32
  0
VERTEX
  5
A67E
  8
01
 10
-2203.2600000000002
 20
-2252.0100000000002
 30
0.0
 70
    32
  0
VERTEX
  5
A67F
  8
01
 10
-2203.3299999999999
 20
-2252.0219999999999
 30
0.0
 70
    32
  0
VERTEX
  5
A680
  8
01
 10
-2203.3899999999999
 20
-2252.0369999999998
 30
0.0
 70
    32
  0
VERTEX
  5
A681
  8
01
 10
-2203.4499999999998
 20
-2252.0549999999998
 30
0.0
 70
    32
  0
VERTEX
  5
A682
  8
01
 10
-2203.52
 20
-2252.0700000000002
 30
0.0
 70
    32
  0
VERTEX
  5
A683
  8
01
 10
-2203.5799999999999
 20
-2252.0880000000002
 30
0.0
 70
    32
  0
VERTEX
  5
A684
  8
01
 10
-2203.6500000000001
 20
-2252.1089999999999
 30
0.0
 70
    32
  0
VERTEX
  5
A685
  8
01
 10
-2203.71
 20
-2252.127
 30
0.0
 70
    32
  0
VERTEX
  5
A686
  8
01
 10
-2203.77
 20
-2252.1480000000001
 30
0.0
 70
    32
  0
VERTEX
  5
A687
  8
01
 10
-2203.8400000000001
 20
-2252.1719999999991
 30
0.0
 70
    32
  0
VERTEX
  5
A688
  8
01
 10
-2203.9000000000001
 20
-2252.1959999999999
 30
0.0
 70
    32
  0
VERTEX
  5
A689
  8
01
 10
-2203.96
 20
-2252.2199999999998
 30
0.0
 70
    32
  0
VERTEX
  5
A68A
  8
01
 10
-2204.02
 20
-2252.2440000000011
 30
0.0
 70
    32
  0
VERTEX
  5
A68B
  8
01
 10
-2204.0799999999999
 20
-2252.2710000000002
 30
0.0
 70
    32
  0
VERTEX
  5
A68C
  8
01
 10
-2204.1399999999999
 20
-2252.2980000000011
 30
0.0
 70
    32
  0
VERTEX
  5
A68D
  8
01
 10
-2204.1999999999998
 20
-2252.328
 30
0.0
 70
    32
  0
VERTEX
  5
A68E
  8
01
 10
-2204.2600000000002
 20
-2252.355
 30
0.0
 70
    32
  0
VERTEX
  5
A68F
  8
01
 10
-2204.3200000000002
 20
-2252.3879999999999
 30
0.0
 70
    32
  0
VERTEX
  5
A690
  8
01
 10
-2204.3800000000001
 20
-2252.4180000000001
 30
0.0
 70
    32
  0
VERTEX
  5
A691
  8
01
 10
-2204.4400000000001
 20
-2252.451
 30
0.0
 70
    32
  0
VERTEX
  5
A692
  8
01
 10
-2204.5
 20
-2252.4839999999999
 30
0.0
 70
    32
  0
VERTEX
  5
A693
  8
01
 10
-2204.5500000000002
 20
-2252.5169999999998
 30
0.0
 70
    32
  0
VERTEX
  5
A694
  8
01
 10
-2204.6100000000001
 20
-2252.5529999999999
 30
0.0
 70
    32
  0
VERTEX
  5
A695
  8
01
 10
-2204.6700000000001
 20
-2252.5889999999999
 30
0.0
 70
    32
  0
VERTEX
  5
A696
  8
01
 10
-2204.7199999999998
 20
-2252.6280000000002
 30
0.0
 70
    32
  0
VERTEX
  5
A697
  8
01
 10
-2204.7800000000002
 20
-2252.6640000000011
 30
0.0
 70
    32
  0
VERTEX
  5
A698
  8
01
 10
-2204.8299999999999
 20
-2252.703
 30
0.0
 70
    32
  0
VERTEX
  5
A699
  8
01
 10
-2204.8800000000001
 20
-2252.7420000000002
 30
0.0
 70
    32
  0
VERTEX
  5
A69A
  8
01
 10
-2204.9400000000001
 20
-2252.7840000000001
 30
0.0
 70
    32
  0
VERTEX
  5
A69B
  8
01
 10
-2204.9899999999998
 20
-2252.826
 30
0.0
 70
    32
  0
VERTEX
  5
A69C
  8
01
 10
-2205.04
 20
-2252.8679999999999
 30
0.0
 70
    32
  0
VERTEX
  5
A69D
  8
01
 10
-2205.0900000000001
 20
-2252.9099999999999
 30
0.0
 70
    32
  0
VERTEX
  5
A69E
  8
01
 10
-2205.1399999999999
 20
-2252.9549999999999
 30
0.0
 70
    32
  0
VERTEX
  5
A69F
  8
01
 10
-2205.1900000000001
 20
-2253.0
 30
0.0
 70
    32
  0
VERTEX
  5
A6A0
  8
01
 10
-2205.2399999999998
 20
-2253.0450000000001
 30
0.0
 70
    32
  0
VERTEX
  5
A6A1
  8
01
 10
-2205.29
 20
-2253.0930000000012
 30
0.0
 70
    32
  0
VERTEX
  5
A6A2
  8
01
 10
-2205.3299999999999
 20
-2253.1410000000001
 30
0.0
 70
    32
  0
VERTEX
  5
A6A3
  8
01
 10
-2205.3800000000001
 20
-2253.1889999999999
 30
0.0
 70
    32
  0
VERTEX
  5
A6A4
  8
01
 10
-2205.4200000000001
 20
-2253.2370000000001
 30
0.0
 70
    32
  0
VERTEX
  5
A6A5
  8
01
 10
-2205.4699999999998
 20
-2253.288
 30
0.0
 70
    32
  0
VERTEX
  5
A6A6
  8
01
 10
-2205.5100000000002
 20
-2253.3359999999998
 30
0.0
 70
    32
  0
VERTEX
  5
A6A7
  8
01
 10
-2205.5599999999999
 20
-2253.3870000000002
 30
0.0
 70
    32
  0
VERTEX
  5
A6A8
  8
01
 10
-2205.5999999999999
 20
-2253.4409999999998
 30
0.0
 70
    32
  0
VERTEX
  5
A6A9
  8
01
 10
-2205.6399999999999
 20
-2253.4920000000002
 30
0.0
 70
    32
  0
VERTEX
  5
A6AA
  8
01
 10
-2205.6799999999998
 20
-2253.5459999999998
 30
0.0
 70
    32
  0
VERTEX
  5
A6AB
  8
01
 10
-2205.7199999999998
 20
-2253.5999999999999
 30
0.0
 70
    32
  0
VERTEX
  5
A6AC
  8
01
 10
-2205.7600000000011
 20
-2253.654
 30
0.0
 70
    32
  0
VERTEX
  5
A6AD
  8
01
 10
-2205.79
 20
-2253.708000000001
 30
0.0
 70
    32
  0
VERTEX
  5
A6AE
  8
01
 10
-2205.8299999999999
 20
-2253.7649999999999
 30
0.0
 70
    32
  0
VERTEX
  5
A6AF
  8
01
 10
-2205.8699999999999
 20
-2253.8219999999992
 30
0.0
 70
    32
  0
VERTEX
  5
A6B0
  8
01
 10
-2205.9000000000001
 20
-2253.8759999999988
 30
0.0
 70
    32
  0
VERTEX
  5
A6B1
  8
01
 10
-2205.9299999999998
 20
-2253.9360000000001
 30
0.0
 70
    32
  0
VERTEX
  5
A6B2
  8
01
 10
-2205.9699999999998
 20
-2253.9929999999999
 30
0.0
 70
    32
  0
SEQEND
  5
A6B3
  8
01
  0
POLYLINE
  5
A6B4
  8
01
 66
     1
 10
0.0
 20
0.0
 30
0.0
 70
     8
  0
VERTEX
  5
A6B5
  8
01
 10
-2139.4699999999998
 20
-2249.9940000000001
 30
0.0
 70
    32
  0
VERTEX
  5
A6B6
  8
01
 10
-2139.4699999999998
 20
-2249.7959999999998
 30
0.0
 70
    32
  0
VERTEX
  5
A6B7
  8
01
 10
-2139.4899999999998
 20
-2249.6010000000001
 30
0.0
 70
    32
  0
VERTEX
  5
A6B8
  8
01
 10
-2139.5100000000002
 20
-2249.4059999999999
 30
0.0
 70
    32
  0
VERTEX
  5
A6B9
  8
01
 10
-2139.54
 20
-2249.2139999999999
 30
0.0
 70
    32
  0
VERTEX
  5
A6BA
  8
01
 10
-2139.5900000000001
 20
-2249.0219999999999
 30
0.0
 70
    32
  0
VERTEX
  5
A6BB
  8
01
 10
-2139.6399999999999
 20
-2248.833000000001
 30
0.0
 70
    32
  0
VERTEX
  5
A6BC
  8
01
 10
-2139.6999999999998
 20
-2248.6439999999998
 30
0.0
 70
    32
  0
VERTEX
  5
A6BD
  8
01
 10
-2139.77
 20
-2248.4609999999998
 30
0.0
 70
    32
  0
VERTEX
  5
A6BE
  8
01
 10
-2139.8499999999999
 20
-2248.2840000000001
 30
0.0
 70
    32
  0
VERTEX
  5
A6BF
  8
01
 10
-2139.9400000000001
 20
-2248.107
 30
0.0
 70
    32
  0
VERTEX
  5
A6C0
  8
01
 10
-2140.04
 20
-2247.9360000000011
 30
0.0
 70
    32
  0
VERTEX
  5
A6C1
  8
01
 10
-2140.1399999999999
 20
-2247.7710000000002
 30
0.0
 70
    32
  0
VERTEX
  5
A6C2
  8
01
 10
-2140.25
 20
-2247.6089999999999
 30
0.0
 70
    32
  0
VERTEX
  5
A6C3
  8
01
 10
-2140.3699999999999
 20
-2247.4560000000001
 30
0.0
 70
    32
  0
VERTEX
  5
A6C4
  8
01
 10
-2140.5
 20
-2247.306
 30
0.0
 70
    32
  0
VERTEX
  5
A6C5
  8
01
 10
-2140.6399999999999
 20
-2247.165
 30
0.0
 70
    32
  0
VERTEX
  5
A6C6
  8
01
 10
-2140.7800000000002
 20
-2247.0300000000002
 30
0.0
 70
    32
  0
VERTEX
  5
A6C7
  8
01
 10
-2140.9299999999998
 20
-2246.9009999999998
 30
0.0
 70
    32
  0
VERTEX
  5
A6C8
  8
01
 10
-2141.0799999999999
 20
-2246.7809999999999
 30
0.0
 70
    32
  0
VERTEX
  5
A6C9
  8
01
 10
-2141.2399999999998
 20
-2246.666999999999
 30
0.0
 70
    32
  0
VERTEX
  5
A6CA
  8
01
 10
-2141.4099999999999
 20
-2246.5619999999999
 30
0.0
 70
    32
  0
VERTEX
  5
A6CB
  8
01
 10
-2141.5799999999999
 20
-2246.4659999999999
 30
0.0
 70
    32
  0
VERTEX
  5
A6CC
  8
01
 10
-2141.7600000000002
 20
-2246.3760000000002
 30
0.0
 70
    32
  0
VERTEX
  5
A6CD
  8
01
 10
-2141.9400000000001
 20
-2246.2979999999998
 30
0.0
 70
    32
  0
VERTEX
  5
A6CE
  8
01
 10
-2142.1199999999999
 20
-2246.2260000000001
 30
0.0
 70
    32
  0
VERTEX
  5
A6CF
  8
01
 10
-2142.3099999999999
 20
-2246.1660000000002
 30
0.0
 70
    32
  0
VERTEX
  5
A6D0
  8
01
 10
-2142.4899999999998
 20
-2246.1120000000001
 30
0.0
 70
    32
  0
VERTEX
  5
A6D1
  8
01
 10
-2142.6900000000001
 20
-2246.0700000000002
 30
0.0
 70
    32
  0
VERTEX
  5
A6D2
  8
01
 10
-2142.8800000000001
 20
-2246.0369999999998
 30
0.0
 70
    32
  0
VERTEX
  5
A6D3
  8
01
 10
-2143.0700000000002
 20
-2246.0129999999999
 30
0.0
 70
    32
  0
VERTEX
  5
A6D4
  8
01
 10
-2143.27
 20
-2245.998
 30
0.0
 70
    32
  0
VERTEX
  5
A6D5
  8
01
 10
-2143.4699999999998
 20
-2245.9920000000011
 30
0.0
 70
    32
  0
VERTEX
  5
A6D6
  8
01
 10
-2143.6599999999999
 20
-2245.998
 30
0.0
 70
    32
  0
VERTEX
  5
A6D7
  8
01
 10
-2143.8600000000001
 20
-2246.0129999999999
 30
0.0
 70
    32
  0
VERTEX
  5
A6D8
  8
01
 10
-2144.0500000000002
 20
-2246.0369999999998
 30
0.0
 70
    32
  0
VERTEX
  5
A6D9
  8
01
 10
-2144.25
 20
-2246.0700000000002
 30
0.0
 70
    32
  0
VERTEX
  5
A6DA
  8
01
 10
-2144.4400000000001
 20
-2246.1120000000001
 30
0.0
 70
    32
  0
VERTEX
  5
A6DB
  8
01
 10
-2144.6300000000001
 20
-2246.1660000000002
 30
0.0
 70
    32
  0
VERTEX
  5
A6DC
  8
01
 10
-2144.8099999999999
 20
-2246.2260000000001
 30
0.0
 70
    32
  0
VERTEX
  5
A6DD
  8
01
 10
-2145.0
 20
-2246.2979999999998
 30
0.0
 70
    32
  0
VERTEX
  5
A6DE
  8
01
 10
-2145.1799999999998
 20
-2246.3760000000002
 30
0.0
 70
    32
  0
VERTEX
  5
A6DF
  8
01
 10
-2145.3499999999999
 20
-2246.4659999999999
 30
0.0
 70
    32
  0
VERTEX
  5
A6E0
  8
01
 10
-2145.52
 20
-2246.5619999999999
 30
0.0
 70
    32
  0
VERTEX
  5
A6E1
  8
01
 10
-2145.6900000000001
 20
-2246.666999999999
 30
0.0
 70
    32
  0
VERTEX
  5
A6E2
  8
01
 10
-2145.8499999999999
 20
-2246.7809999999999
 30
0.0
 70
    32
  0
VERTEX
  5
A6E3
  8
01
 10
-2146.0
 20
-2246.9009999999998
 30
0.0
 70
    32
  0
VERTEX
  5
A6E4
  8
01
 10
-2146.1500000000001
 20
-2247.0300000000002
 30
0.0
 70
    32
  0
VERTEX
  5
A6E5
  8
01
 10
-2146.29
 20
-2247.165
 30
0.0
 70
    32
  0
VERTEX
  5
A6E6
  8
01
 10
-2146.4299999999998
 20
-2247.306
 30
0.0
 70
    32
  0
VERTEX
  5
A6E7
  8
01
 10
-2146.5599999999999
 20
-2247.4560000000001
 30
0.0
 70
    32
  0
VERTEX
  5
A6E8
  8
01
 10
-2146.6799999999998
 20
-2247.6089999999999
 30
0.0
 70
    32
  0
VERTEX
  5
A6E9
  8
01
 10
-2146.79
 20
-2247.7710000000002
 30
0.0
 70
    32
  0
VERTEX
  5
A6EA
  8
01
 10
-2146.9000000000001
 20
-2247.9360000000011
 30
0.0
 70
    32
  0
VERTEX
  5
A6EB
  8
01
 10
-2146.9899999999998
 20
-2248.107
 30
0.0
 70
    32
  0
VERTEX
  5
A6EC
  8
01
 10
-2147.0799999999999
 20
-2248.2840000000001
 30
0.0
 70
    32
  0
VERTEX
  5
A6ED
  8
01
 10
-2147.1599999999999
 20
-2248.4609999999998
 30
0.0
 70
    32
  0
VERTEX
  5
A6EE
  8
01
 10
-2147.23
 20
-2248.6439999999998
 30
0.0
 70
    32
  0
VERTEX
  5
A6EF
  8
01
 10
-2147.29
 20
-2248.833000000001
 30
0.0
 70
    32
  0
VERTEX
  5
A6F0
  8
01
 10
-2147.3499999999999
 20
-2249.0219999999999
 30
0.0
 70
    32
  0
VERTEX
  5
A6F1
  8
01
 10
-2147.3899999999999
 20
-2249.2139999999999
 30
0.0
 70
    32
  0
VERTEX
  5
A6F2
  8
01
 10
-2147.4200000000001
 20
-2249.4059999999999
 30
0.0
 70
    32
  0
VERTEX
  5
A6F3
  8
01
 10
-2147.4499999999998
 20
-2249.6010000000001
 30
0.0
 70
    32
  0
VERTEX
  5
A6F4
  8
01
 10
-2147.46
 20
-2249.7959999999998
 30
0.0
 70
    32
  0
VERTEX
  5
A6F5
  8
01
 10
-2147.4699999999998
 20
-2249.9940000000001
 30
0.0
 70
    32
  0
VERTEX
  5
A6F6
  8
01
 10
-2147.46
 20
-2250.1889999999999
 30
0.0
 70
    32
  0
VERTEX
  5
A6F7
  8
01
 10
-2147.4499999999998
 20
-2250.384
 30
0.0
 70
    32
  0
VERTEX
  5
A6F8
  8
01
 10
-2147.4200000000001
 20
-2250.5790000000002
 30
0.0
 70
    32
  0
VERTEX
  5
A6F9
  8
01
 10
-2147.3899999999999
 20
-2250.7740000000008
 30
0.0
 70
    32
  0
VERTEX
  5
A6FA
  8
01
 10
-2147.3499999999999
 20
-2250.9659999999999
 30
0.0
 70
    32
  0
VERTEX
  5
A6FB
  8
01
 10
-2147.29
 20
-2251.1550000000002
 30
0.0
 70
    32
  0
VERTEX
  5
A6FC
  8
01
 10
-2147.23
 20
-2251.3409999999999
 30
0.0
 70
    32
  0
VERTEX
  5
A6FD
  8
01
 10
-2147.1599999999999
 20
-2251.5239999999999
 30
0.0
 70
    32
  0
VERTEX
  5
A6FE
  8
01
 10
-2147.0799999999999
 20
-2251.7040000000002
 30
0.0
 70
    32
  0
VERTEX
  5
A6FF
  8
01
 10
-2146.9899999999998
 20
-2251.8780000000002
 30
0.0
 70
    32
  0
VERTEX
  5
A700
  8
01
 10
-2146.9000000000001
 20
-2252.049
 30
0.0
 70
    32
  0
VERTEX
  5
A701
  8
01
 10
-2146.79
 20
-2252.2139999999999
 30
0.0
 70
    32
  0
VERTEX
  5
A702
  8
01
 10
-2146.6799999999998
 20
-2252.3760000000002
 30
0.0
 70
    32
  0
VERTEX
  5
A703
  8
01
 10
-2146.5599999999999
 20
-2252.529
 30
0.0
 70
    32
  0
VERTEX
  5
A704
  8
01
 10
-2146.4299999999998
 20
-2252.6790000000001
 30
0.0
 70
    32
  0
VERTEX
  5
A705
  8
01
 10
-2146.29
 20
-2252.8200000000002
 30
0.0
 70
    32
  0
VERTEX
  5
A706
  8
01
 10
-2146.1500000000001
 20
-2252.9549999999999
 30
0.0
 70
    32
  0
VERTEX
  5
A707
  8
01
 10
-2146.0
 20
-2253.0839999999998
 30
0.0
 70
    32
  0
VERTEX
  5
A708
  8
01
 10
-2145.8499999999999
 20
-2253.2040000000002
 30
0.0
 70
    32
  0
VERTEX
  5
A709
  8
01
 10
-2145.6900000000001
 20
-2253.3180000000002
 30
0.0
 70
    32
  0
VERTEX
  5
A70A
  8
01
 10
-2145.52
 20
-2253.4230000000011
 30
0.0
 70
    32
  0
VERTEX
  5
A70B
  8
01
 10
-2145.3499999999999
 20
-2253.5189999999998
 30
0.0
 70
    32
  0
VERTEX
  5
A70C
  8
01
 10
-2145.1799999999998
 20
-2253.6089999999999
 30
0.0
 70
    32
  0
VERTEX
  5
A70D
  8
01
 10
-2145.0
 20
-2253.6869999999999
 30
0.0
 70
    32
  0
VERTEX
  5
A70E
  8
01
 10
-2144.8099999999999
 20
-2253.759
 30
0.0
 70
    32
  0
VERTEX
  5
A70F
  8
01
 10
-2144.6300000000001
 20
-2253.819
 30
0.0
 70
    32
  0
VERTEX
  5
A710
  8
01
 10
-2144.4400000000001
 20
-2253.873
 30
0.0
 70
    32
  0
VERTEX
  5
A711
  8
01
 10
-2144.25
 20
-2253.915
 30
0.0
 70
    32
  0
VERTEX
  5
A712
  8
01
 10
-2144.0500000000002
 20
-2253.9480000000008
 30
0.0
 70
    32
  0
VERTEX
  5
A713
  8
01
 10
-2143.8600000000001
 20
-2253.9720000000002
 30
0.0
 70
    32
  0
VERTEX
  5
A714
  8
01
 10
-2143.6599999999999
 20
-2253.9870000000001
 30
0.0
 70
    32
  0
VERTEX
  5
A715
  8
01
 10
-2143.4699999999998
 20
-2253.9929999999999
 30
0.0
 70
    32
  0
VERTEX
  5
A716
  8
01
 10
-2143.27
 20
-2253.9870000000001
 30
0.0
 70
    32
  0
VERTEX
  5
A717
  8
01
 10
-2143.0700000000002
 20
-2253.9720000000002
 30
0.0
 70
    32
  0
VERTEX
  5
A718
  8
01
 10
-2142.8800000000001
 20
-2253.9480000000008
 30
0.0
 70
    32
  0
VERTEX
  5
A719
  8
01
 10
-2142.6900000000001
 20
-2253.915
 30
0.0
 70
    32
  0
VERTEX
  5
A71A
  8
01
 10
-2142.4899999999998
 20
-2253.873
 30
0.0
 70
    32
  0
VERTEX
  5
A71B
  8
01
 10
-2142.3099999999999
 20
-2253.819
 30
0.0
 70
    32
  0
VERTEX
  5
A71C
  8
01
 10
-2142.1199999999999
 20
-2253.759
 30
0.0
 70
    32
  0
VERTEX
  5
A71D
  8
01
 10
-2141.9400000000001
 20
-2253.6869999999999
 30
0.0
 70
    32
  0
VERTEX
  5
A71E
  8
01
 10
-2141.7600000000002
 20
-2253.6089999999999
 30
0.0
 70
    32
  0
VERTEX
  5
A71F
  8
01
 10
-2141.5799999999999
 20
-2253.5189999999998
 30
0.0
 70
    32
  0
VERTEX
  5
A720
  8
01
 10
-2141.4099999999999
 20
-2253.4230000000011
 30
0.0
 70
    32
  0
VERTEX
  5
A721
  8
01
 10
-2141.2399999999998
 20
-2253.3180000000002
 30
0.0
 70
    32
  0
VERTEX
  5
A722
  8
01
 10
-2141.0799999999999
 20
-2253.2040000000002
 30
0.0
 70
    32
  0
VERTEX
  5
A723
  8
01
 10
-2140.9299999999998
 20
-2253.0839999999998
 30
0.0
 70
    32
  0
VERTEX
  5
A724
  8
01
 10
-2140.7800000000002
 20
-2252.9549999999999
 30
0.0
 70
    32
  0
VERTEX
  5
A725
  8
01
 10
-2140.6399999999999
 20
-2252.8200000000002
 30
0.0
 70
    32
  0
VERTEX
  5
A726
  8
01
 10
-2140.5
 20
-2252.6790000000001
 30
0.0
 70
    32
  0
VERTEX
  5
A727
  8
01
 10
-2140.3699999999999
 20
-2252.529
 30
0.0
 70
    32
  0
VERTEX
  5
A728
  8
01
 10
-2140.25
 20
-2252.3760000000002
 30
0.0
 70
    32
  0
VERTEX
  5
A729
  8
01
 10
-2140.1399999999999
 20
-2252.2139999999999
 30
0.0
 70
    32
  0
VERTEX
  5
A72A
  8
01
 10
-2140.04
 20
-2252.049
 30
0.0
 70
    32
  0
VERTEX
  5
A72B
  8
01
 10
-2139.9400000000001
 20
-2251.8780000000002
 30
0.0
 70
    32
  0
VERTEX
  5
A72C
  8
01
 10
-2139.8499999999999
 20
-2251.7040000000002
 30
0.0
 70
    32
  0
VERTEX
  5
A72D
  8
01
 10
-2139.77
 20
-2251.5239999999999
 30
0.0
 70
    32
  0
VERTEX
  5
A72E
  8
01
 10
-2139.6999999999998
 20
-2251.3409999999999
 30
0.0
 70
    32
  0
VERTEX
  5
A72F
  8
01
 10
-2139.6399999999999
 20
-2251.1550000000002
 30
0.0
 70
    32
  0
VERTEX
  5
A730
  8
01
 10
-2139.5900000000001
 20
-2250.9659999999999
 30
0.0
 70
    32
  0
VERTEX
  5
A731
  8
01
 10
-2139.54
 20
-2250.7740000000008
 30
0.0
 70
    32
  0
VERTEX
  5
A732
  8
01
 10
-2139.5100000000002
 20
-2250.5790000000002
 30
0.0
 70
    32
  0
VERTEX
  5
A733
  8
01
 10
-2139.4899999999998
 20
-2250.384
 30
0.0
 70
    32
  0
VERTEX
  5
A734
  8
01
 10
-2139.4699999999998
 20
-2250.1889999999999
 30
0.0
 70
    32
  0
VERTEX
  5
A735
  8
01
 10
-2139.4699999999998
 20
-2249.9940000000001
 30
0.0
 70
    32
  0
SEQEND
  5
A736
  8
01
  0
LINE
  5
A737
  8
01
 10
-2187.4663
 20
-2185.9929000000002
 30
0.0
 11
-2187.4663
 21
-2177.9928
 31
0.0
  0
LINE
  5
A738
  8
1DIM
 10
-2187.4663
 20
-2177.9928
 30
0.0
 11
-2166.4663
 21
-2177.9928
 31
0.0
  0
LINE
  5
A739
  8
1DIM
 10
-2187.4663
 20
-2185.9929000000002
 30
0.0
 11
-2166.4663
 21
-2185.9929000000002
 31
0.0
  0
LINE
  5
A73A
  8
1DIM
 10
-2167.4663
 20
-2179.9929000000002
 30
0.0
 11
-2167.4663
 21
-2183.9928
 31
0.0
  0
LINE
  5
A73B
  8
0
  6
BYBLOCK
 10
-2168.0021999999999
 20
-2179.9929000000002
 30
0.0
 11
-2167.4663
 21
-2177.9928
 31
0.0
  0
LINE
  5
A73C
  8
0
  6
BYBLOCK
 10
-2167.4663
 20
-2177.9928
 30
0.0
 11
-2166.9304000000002
 21
-2179.9929000000002
 31
0.0
  0
LINE
  5
A73D
  8
0
  6
BYBLOCK
 10
-2167.4663
 20
-2177.9928
 30
0.0
 11
-2167.4663
 21
-2179.9929000000002
 31
0.0
  0
LINE
  5
A73E
  8
0
  6
BYBLOCK
 10
-2166.9304000000002
 20
-2183.9928
 30
0.0
 11
-2167.4663
 21
-2185.9929000000002
 31
0.0
  0
LINE
  5
A73F
  8
0
  6
BYBLOCK
 10
-2167.4663
 20
-2185.9929000000002
 30
0.0
 11
-2168.0021999999999
 21
-2183.9928
 31
0.0
  0
LINE
  5
A740
  8
0
  6
BYBLOCK
 10
-2167.4663
 20
-2185.9929000000002
 30
0.0
 11
-2167.4663
 21
-2183.9928
 31
0.0
  0
TEXT
  5
A741
  8
1DIM
 10
-2168.1662999999999
 20
-2185.6095
 30
0.0
 40
3.5
  1
φ8
 50
90.0
 41
0.9998999999997977
  0
LINE
  5
A742
  8
1CENTER
 10
-2292.4663
 20
-2261.4926999999998
 30
0.0
 11
-2292.4663
 21
-2273.4926999999998
 31
0.0
  0
LINE
  5
A743
  8
1CENTER
 10
-2202.4663
 20
-2261.4926999999998
 30
0.0
 11
-2202.4663
 21
-2273.4926999999998
 31
0.0
  0
LINE
  5
A744
  8
1DIM
 10
-2146.9663
 20
-2271.4929000000002
 30
0.0
 11
-2146.9663
 21
-2302.4928
 31
0.0
  0
LINE
  5
A745
  8
1DIM
 10
-2139.9663
 20
-2271.4929000000002
 30
0.0
 11
-2139.9663
 21
-2302.4928
 31
0.0
  0
LINE
  5
A746
  8
1DIM
 10
-2144.9663
 20
-2301.4929000000002
 30
0.0
 11
-2141.9663
 21
-2301.4929000000002
 31
0.0
  0
LINE
  5
A747
  8
1DIM
 10
-2139.9663
 20
-2301.4929000000002
 30
0.0
 11
-2130.2329
 21
-2301.4929000000002
 31
0.0
  0
LINE
  5
A748
  8
0
  6
BYBLOCK
 10
-2144.9663
 20
-2302.0286999999998
 30
0.0
 11
-2146.9663
 21
-2301.4929000000002
 31
0.0
  0
LINE
  5
A749
  8
0
  6
BYBLOCK
 10
-2146.9663
 20
-2301.4929000000002
 30
0.0
 11
-2144.9663
 21
-2300.9567999999999
 31
0.0
  0
LINE
  5
A74A
  8
0
  6
BYBLOCK
 10
-2146.9663
 20
-2301.4929000000002
 30
0.0
 11
-2144.9663
 21
-2301.4929000000002
 31
0.0
  0
LINE
  5
A74B
  8
0
  6
BYBLOCK
 10
-2141.9663
 20
-2300.9567999999999
 30
0.0
 11
-2139.9663
 21
-2301.4929000000002
 31
0.0
  0
LINE
  5
A74C
  8
0
  6
BYBLOCK
 10
-2139.9663
 20
-2301.4929000000002
 30
0.0
 11
-2141.9663
 21
-2302.0286999999998
 31
0.0
  0
LINE
  5
A74D
  8
0
  6
BYBLOCK
 10
-2139.9663
 20
-2301.4929000000002
 30
0.0
 11
-2141.9663
 21
-2301.4929000000002
 31
0.0
  0
TEXT
  5
A74E
  8
1DIM
 10
-2137.7163
 20
-2300.7927
 30
0.0
 40
3.5001000000002018
  1
φ7
  0
LINE
  5
A74F
  8
1CENTER
 10
-2143.4663
 20
-2261.4926999999998
 30
0.0
 11
-2143.4663
 21
-2273.4926999999998
 31
0.0
  0
LINE
  5
A750
  8
01
 10
-2187.4663
 20
-2245.9929000000002
 30
0.0
 11
-2187.4663
 21
-2253.9926999999998
 31
0.0
  0
LINE
  5
A751
  8
1CENTER
 10
-2202.4663
 20
-2184.9929999999999
 30
0.0
 11
-2202.4663
 21
-2178.9929999999999
 31
0.0
  0
LINE
  5
A752
  8
1CENTER
 10
-2205.4663
 20
-2181.9929999999999
 30
0.0
 11
-2199.4663
 21
-2181.9929999999999
 31
0.0
  0
LINE
  5
A753
  8
1CENTER
 10
-2292.4663
 20
-2184.9929999999999
 30
0.0
 11
-2292.4663
 21
-2178.9929999999999
 31
0.0
  0
LINE
  5
A754
  8
1CENTER
 10
-2295.4663
 20
-2181.9929999999999
 30
0.0
 11
-2289.4663
 21
-2181.9929999999999
 31
0.0
  0
TEXT
  5
A755
  8
1TEXT
 10
-2298.9987999999998
 20
-2147.9928
 30
0.0
 40
8.0000999999997475
  1
PK03-090
  0
TEXT
  5
A756
  8
1TEXT
 10
-2293.25468
 20
-2327.7267000000002
 30
0.0
 40
3.999900000000252
  1
材質：真鍮
 72
     1
 11
-2281.7883000000002
 21
-2327.7267000000002
 31
0.0
  0
LINE
  5
A757
  8
1DIM
 10
-2307.4663
 20
-2352.4926
 30
0.0
 11
-2237.4663
 21
-2352.4926
 31
0.0
  0
TEXT
  5
A758
  8
1TEXT
 10
-2300.7136528571432
 20
-2336.9928
 30
0.0
 40
3.9998999999997968
  1
表面処理：
 72
     1
 11
-2290.0663
 21
-2336.9928
 31
0.0
  0
TEXT
  5
A759
  8
1TEXT
 10
-2299.3993999999998
 20
-2343.8280000000009
 30
0.0
 40
3.999900000000252
  1
クローム
 72
     1
 11
-2290.0663
 21
-2343.8280000000009
 31
0.0
  0
LINE
  5
A75A
  8
1DIM
 10
-2307.4663
 20
-2331.4926
 30
0.0
 11
-2237.4663
 21
-2331.4926
 31
0.0
  0
LINE
  5
A75B
  8
1DIM
 10
-2307.4663
 20
-2338.4928
 30
0.0
 11
-2237.4663
 21
-2338.4928
 31
0.0
  0
LINE
  5
A75C
  8
1DIM
 10
-2307.4663
 20
-2345.4926999999998
 30
0.0
 11
-2237.4663
 21
-2345.4926999999998
 31
0.0
  0
LINE
  5
A75D
  8
1DIM
 10
-2307.4663
 20
-2345.4926999999998
 30
0.0
 11
-2237.4663
 21
-2345.4926999999998
 31
0.0
  0
LINE
  5
A75E
  8
1DIM
 10
-2272.4663
 20
-2331.4926
 30
0.0
 11
-2272.4663
 21
-2352.4926
 31
0.0
  0
TEXT
  5
A75F
  8
1TEXT
 10
-2269.3992750000002
 20
-2344.2071999999998
 30
0.0
 40
3.9998999999997968
  1
PK03C090
 72
     1
 11
-2255.0663
 21
-2344.2071999999998
 31
0.0
  0
TEXT
  5
A760
  8
1TEXT
 10
-2261.8661299999999
 20
-2336.9928
 30
0.0
 40
3.9998999999997968
  1
コード
 72
     1
 11
-2255.0663
 21
-2336.9928
 31
0.0
  0
TEXT
  5
A761
  8
1TEXT
 10
-2306.3325599999998
 20
-2350.8036000000002
 30
0.0
 40
3.9998999999997968
  1
サテンニッケル
 72
     1
 11
-2290.0663
 21
-2350.8036000000002
 31
0.0
  0
LINE
  5
A762
  8
1DIM
 10
-2307.4663
 20
-2352.4926
 30
0.0
 11
-2307.4663
 21
-2331.4926
 31
0.0
  0
LINE
  5
A763
  8
1DIM
 10
-2237.4663
 20
-2352.4926
 30
0.0
 11
-2237.4663
 21
-2331.4926
 31
0.0
  0
TEXT
  5
A764
  8
1TEXT
 10
-2269.3992750000002
 20
-2351.2070999999992
 30
0.0
 40
3.9998999999997968
  1
PK03N090
 72
     1
 11
-2255.0663
 21
-2351.2070999999992
 31
0.0
  0
LINE
  5
A765
  8
1DIM
 10
-2187.4663
 20
-2253.9926999999998
 30
0.0
 11
-2166.4663
 21
-2253.9926999999998
 31
0.0
  0
LINE
  5
A766
  8
1DIM
 10
-2198.9663
 20
-2271.4929000000002
 30
0.0
 11
-2166.4663
 21
-2271.4929000000002
 31
0.0
  0
LINE
  5
A767
  8
1DIM
 10
-2167.4663
 20
-2255.9928
 30
0.0
 11
-2167.4663
 21
-2269.4928
 31
0.0
  0
LINE
  5
A768
  8
0
  6
BYBLOCK
 10
-2168.0021999999999
 20
-2255.9928
 30
0.0
 11
-2167.4663
 21
-2253.9926999999998
 31
0.0
  0
LINE
  5
A769
  8
0
  6
BYBLOCK
 10
-2167.4663
 20
-2253.9926999999998
 30
0.0
 11
-2166.9304000000002
 21
-2255.9928
 31
0.0
  0
LINE
  5
A76A
  8
0
  6
BYBLOCK
 10
-2167.4663
 20
-2253.9926999999998
 30
0.0
 11
-2167.4663
 21
-2255.9928
 31
0.0
  0
LINE
  5
A76B
  8
0
  6
BYBLOCK
 10
-2166.9304000000002
 20
-2269.4928
 30
0.0
 11
-2167.4663
 21
-2271.4929000000002
 31
0.0
  0
LINE
  5
A76C
  8
0
  6
BYBLOCK
 10
-2167.4663
 20
-2271.4929000000002
 30
0.0
 11
-2168.0021999999999
 21
-2269.4928
 31
0.0
  0
LINE
  5
A76D
  8
0
  6
BYBLOCK
 10
-2167.4663
 20
-2271.4929000000002
 30
0.0
 11
-2167.4663
 21
-2269.4928
 31
0.0
  0
TEXT
  5
A76E
  8
1DIM
 10
-2168.1662999999999
 20
-2267.4096
 30
0.0
 40
3.5
  1
17.5 
 50
90.0
 41
0.9999000000002524
  0
LINE
  5
A76F
  8
1DIM
 10
-2187.4663
 20
-2245.9929000000002
 30
0.0
 11
-2156.4663
 21
-2245.9929000000002
 31
0.0
  0
LINE
  5
A770
  8
1DIM
 10
-2198.9663
 20
-2271.4929000000002
 30
0.0
 11
-2156.4663
 21
-2271.4929000000002
 31
0.0
  0
LINE
  5
A771
  8
1DIM
 10
-2157.4663
 20
-2247.9927000000012
 30
0.0
 11
-2157.4663
 21
-2269.4928
 31
0.0
  0
LINE
  5
A772
  8
0
  6
BYBLOCK
 10
-2158.0021999999999
 20
-2247.9927000000012
 30
0.0
 11
-2157.4663
 21
-2245.9929000000002
 31
0.0
  0
LINE
  5
A773
  8
0
  6
BYBLOCK
 10
-2157.4663
 20
-2245.9929000000002
 30
0.0
 11
-2156.9304000000002
 21
-2247.9927000000012
 31
0.0
  0
LINE
  5
A774
  8
0
  6
BYBLOCK
 10
-2157.4663
 20
-2245.9929000000002
 30
0.0
 11
-2157.4663
 21
-2247.9927000000012
 31
0.0
  0
LINE
  5
A775
  8
0
  6
BYBLOCK
 10
-2156.9304000000002
 20
-2269.4928
 30
0.0
 11
-2157.4663
 21
-2271.4929000000002
 31
0.0
  0
LINE
  5
A776
  8
0
  6
BYBLOCK
 10
-2157.4663
 20
-2271.4929000000002
 30
0.0
 11
-2158.0021999999999
 21
-2269.4928
 31
0.0
  0
LINE
  5
A777
  8
0
  6
BYBLOCK
 10
-2157.4663
 20
-2271.4929000000002
 30
0.0
 11
-2157.4663
 21
-2269.4928
 31
0.0
  0
TEXT
  5
A778
  8
1DIM
 10
-2158.1662999999999
 20
-2263.9929000000002
 30
0.0
 40
3.5
  1
25.5 
 50
90.0
 41
0.9999000000002524
  0
LINE
  5
A779
  8
1DIM
 10
-2307.4663
 20
-2185.9929000000002
 30
0.0
 11
-2307.4663
 21
-2206.9929000000002
 31
0.0
  0
LINE
  5
A77A
  8
1DIM
 10
-2187.4663
 20
-2185.9929000000002
 30
0.0
 11
-2187.4663
 21
-2206.9929000000002
 31
0.0
  0
LINE
  5
A77B
  8
1DIM
 10
-2305.4663
 20
-2205.9929999999999
 30
0.0
 11
-2189.4663
 21
-2205.9929999999999
 31
0.0
  0
LINE
  5
A77C
  8
0
  6
BYBLOCK
 10
-2305.4663
 20
-2206.5288
 30
0.0
 11
-2307.4663
 21
-2205.9929999999999
 31
0.0
  0
LINE
  5
A77D
  8
0
  6
BYBLOCK
 10
-2307.4663
 20
-2205.9929999999999
 30
0.0
 11
-2305.4663
 21
-2205.4569000000001
 31
0.0
  0
LINE
  5
A77E
  8
0
  6
BYBLOCK
 10
-2307.4663
 20
-2205.9929999999999
 30
0.0
 11
-2305.4663
 21
-2205.9929999999999
 31
0.0
  0
LINE
  5
A77F
  8
0
  6
BYBLOCK
 10
-2189.4663
 20
-2205.4569000000001
 30
0.0
 11
-2187.4663
 21
-2205.9929999999999
 31
0.0
  0
LINE
  5
A780
  8
0
  6
BYBLOCK
 10
-2187.4663
 20
-2205.9929999999999
 30
0.0
 11
-2189.4663
 21
-2206.5288
 31
0.0
  0
LINE
  5
A781
  8
0
  6
BYBLOCK
 10
-2187.4663
 20
-2205.9929999999999
 30
0.0
 11
-2189.4663
 21
-2205.9929999999999
 31
0.0
  0
TEXT
  5
A782
  8
1DIM
 10
-2251.2579000000001
 20
-2205.2928000000002
 30
0.0
 40
3.5001000000002018
  1
120 
  0
LINE
  5
A783
  8
1DIM
 10
-2288.9663
 20
-2271.4929000000002
 30
0.0
 11
-2288.9663
 21
-2292.4929000000002
 31
0.0
  0
LINE
  5
A784
  8
1DIM
 10
-2205.9663
 20
-2271.4929000000002
 30
0.0
 11
-2205.9663
 21
-2292.4929000000002
 31
0.0
  0
LINE
  5
A785
  8
1DIM
 10
-2286.9663
 20
-2291.4926999999998
 30
0.0
 11
-2207.9663
 21
-2291.4926999999998
 31
0.0
  0
LINE
  5
A786
  8
0
  6
BYBLOCK
 10
-2286.9663
 20
-2292.0288
 30
0.0
 11
-2288.9663
 21
-2291.4926999999998
 31
0.0
  0
LINE
  5
A787
  8
0
  6
BYBLOCK
 10
-2288.9663
 20
-2291.4926999999998
 30
0.0
 11
-2286.9663
 21
-2290.9569000000001
 31
0.0
  0
LINE
  5
A788
  8
0
  6
BYBLOCK
 10
-2288.9663
 20
-2291.4926999999998
 30
0.0
 11
-2286.9663
 21
-2291.4926999999998
 31
0.0
  0
LINE
  5
A789
  8
0
  6
BYBLOCK
 10
-2207.9663
 20
-2290.9569000000001
 30
0.0
 11
-2205.9663
 21
-2291.4926999999998
 31
0.0
  0
LINE
  5
A78A
  8
0
  6
BYBLOCK
 10
-2205.9663
 20
-2291.4926999999998
 30
0.0
 11
-2207.9663
 21
-2292.0288
 31
0.0
  0
LINE
  5
A78B
  8
0
  6
BYBLOCK
 10
-2205.9663
 20
-2291.4926999999998
 30
0.0
 11
-2207.9663
 21
-2291.4926999999998
 31
0.0
  0
TEXT
  5
A78C
  8
1DIM
 10
-2250.3829000000001
 20
-2290.7928000000002
 30
0.0
 40
3.5001000000002018
  1
83 
  0
LINE
  5
A78D
  8
1DIM
 10
-2292.4663
 20
-2273.4926999999998
 30
0.0
 11
-2292.4663
 21
-2302.4928
 31
0.0
  0
LINE
  5
A78E
  8
1DIM
 10
-2202.4663
 20
-2273.4926999999998
 30
0.0
 11
-2202.4663
 21
-2302.4928
 31
0.0
  0
LINE
  5
A78F
  8
1DIM
 10
-2290.4663
 20
-2301.4929000000002
 30
0.0
 11
-2204.4663
 21
-2301.4929000000002
 31
0.0
  0
LINE
  5
A790
  8
0
  6
BYBLOCK
 10
-2290.4663
 20
-2302.0286999999998
 30
0.0
 11
-2292.4663
 21
-2301.4929000000002
 31
0.0
  0
LINE
  5
A791
  8
0
  6
BYBLOCK
 10
-2292.4663
 20
-2301.4929000000002
 30
0.0
 11
-2290.4663
 21
-2300.9567999999999
 31
0.0
  0
LINE
  5
A792
  8
0
  6
BYBLOCK
 10
-2292.4663
 20
-2301.4929000000002
 30
0.0
 11
-2290.4663
 21
-2301.4929000000002
 31
0.0
  0
LINE
  5
A793
  8
0
  6
BYBLOCK
 10
-2204.4663
 20
-2300.9567999999999
 30
0.0
 11
-2202.4663
 21
-2301.4929000000002
 31
0.0
  0
LINE
  5
A794
  8
0
  6
BYBLOCK
 10
-2202.4663
 20
-2301.4929000000002
 30
0.0
 11
-2204.4663
 21
-2302.0286999999998
 31
0.0
  0
LINE
  5
A795
  8
0
  6
BYBLOCK
 10
-2202.4663
 20
-2301.4929000000002
 30
0.0
 11
-2204.4663
 21
-2301.4929000000002
 31
0.0
  0
TEXT
  5
A796
  8
1DIM
 10
-2251.8413
 20
-2300.7927
 30
0.0
 40
3.5001000000002018
  1
P90 
  0
LINE
  5
A797
  8
1DIM
 10
-2202.4663
 20
-2273.4926999999998
 30
0.0
 11
-2202.4663
 21
-2302.4928
 31
0.0
  0
LINE
  5
A798
  8
1DIM
 10
-2187.4663
 20
-2253.9926999999998
 30
0.0
 11
-2187.4663
 21
-2302.4928
 31
0.0
  0
LINE
  5
A799
  8
1DIM
 10
-2200.4663
 20
-2301.4929000000002
 30
0.0
 11
-2189.4663
 21
-2301.4929000000002
 31
0.0
  0
LINE
  5
A79A
  8
0
  6
BYBLOCK
 10
-2200.4663
 20
-2302.0286999999998
 30
0.0
 11
-2202.4663
 21
-2301.4929000000002
 31
0.0
  0
LINE
  5
A79B
  8
0
  6
BYBLOCK
 10
-2202.4663
 20
-2301.4929000000002
 30
0.0
 11
-2200.4663
 21
-2300.9567999999999
 31
0.0
  0
LINE
  5
A79C
  8
0
  6
BYBLOCK
 10
-2202.4663
 20
-2301.4929000000002
 30
0.0
 11
-2200.4663
 21
-2301.4929000000002
 31
0.0
  0
LINE
  5
A79D
  8
0
  6
BYBLOCK
 10
-2189.4663
 20
-2300.9567999999999
 30
0.0
 11
-2187.4663
 21
-2301.4929000000002
 31
0.0
  0
LINE
  5
A79E
  8
0
  6
BYBLOCK
 10
-2187.4663
 20
-2301.4929000000002
 30
0.0
 11
-2189.4663
 21
-2302.0286999999998
 31
0.0
  0
LINE
  5
A79F
  8
0
  6
BYBLOCK
 10
-2187.4663
 20
-2301.4929000000002
 30
0.0
 11
-2189.4663
 21
-2301.4929000000002
 31
0.0
  0
TEXT
  5
A7A0
  8
1DIM
 10
-2197.2995999999998
 20
-2300.7927
 30
0.0
 40
3.5001000000002018
  1
15 
  0
LINE
  5
A7A1
  8
1DIM
 10
-2307.4663
 20
-2253.9926999999998
 30
0.0
 11
-2307.4663
 21
-2302.4928
 31
0.0
  0
LINE
  5
A7A2
  8
1DIM
 10
-2292.4663
 20
-2273.4926999999998
 30
0.0
 11
-2292.4663
 21
-2302.4928
 31
0.0
  0
LINE
  5
A7A3
  8
1DIM
 10
-2305.4663
 20
-2301.4929000000002
 30
0.0
 11
-2294.4663
 21
-2301.4929000000002
 31
0.0
  0
LINE
  5
A7A4
  8
0
  6
BYBLOCK
 10
-2305.4663
 20
-2302.0286999999998
 30
0.0
 11
-2307.4663
 21
-2301.4929000000002
 31
0.0
  0
LINE
  5
A7A5
  8
0
  6
BYBLOCK
 10
-2307.4663
 20
-2301.4929000000002
 30
0.0
 11
-2305.4663
 21
-2300.9567999999999
 31
0.0
  0
LINE
  5
A7A6
  8
0
  6
BYBLOCK
 10
-2307.4663
 20
-2301.4929000000002
 30
0.0
 11
-2305.4663
 21
-2301.4929000000002
 31
0.0
  0
LINE
  5
A7A7
  8
0
  6
BYBLOCK
 10
-2294.4663
 20
-2300.9567999999999
 30
0.0
 11
-2292.4663
 21
-2301.4929000000002
 31
0.0
  0
LINE
  5
A7A8
  8
0
  6
BYBLOCK
 10
-2292.4663
 20
-2301.4929000000002
 30
0.0
 11
-2294.4663
 21
-2302.0286999999998
 31
0.0
  0
LINE
  5
A7A9
  8
0
  6
BYBLOCK
 10
-2292.4663
 20
-2301.4929000000002
 30
0.0
 11
-2294.4663
 21
-2301.4929000000002
 31
0.0
  0
TEXT
  5
A7AA
  8
1DIM
 10
-2302.2995999999998
 20
-2300.7927
 30
0.0
 40
3.5001000000002018
  1
15 
  0
SOLID
  5
A7AB
  8
1DIM
 10
-2142.6055000000001
 20
-2273.3285999999998
 30
0.0
 11
-2143.4663
 21
-2271.4929000000002
 31
0.0
 12
-2142.0567000000001
 22
-2272.9503
 32
0.0
 13
-2142.0567000000001
 23
-2272.9503
 33
0.0
  0
LINE
  5
A7AC
  8
1DIM
 10
-2142.3310999999999
 20
-2273.1392999999998
 30
0.0
 11
-2129.1961000000001
 21
-2292.1929
 31
0.0
  0
LINE
  5
A7AD
  8
1DIM
 10
-2129.1961000000001
 20
-2292.1929
 30
0.0
 11
-2109.3294999999998
 21
-2292.1929
 31
0.0
  0
TEXT
  5
A7AE
  8
1DIM
 10
-2126.4960999999998
 20
-2291.4926999999998
 30
0.0
 40
3.5001000000002018
  1
M4-10
  0
VIEWPORT
  5
57
 67
     1
  8
0
 10
5.6154163991372421
 20
3.9020832317081959
 30
0.0
 40
12.7102895252974
 41
8.7461330960491512
 68
     1
 69
     1
1001
ACAD
1000
MVIEW
1002
{
1070
    16
1010
0.0
1020
0.0
1030
0.0
1010
0.0
1020
0.0
1030
1.0
1040
0.0
1040
8.7461330960491512
1040
5.6154163991372421
1040
3.9020832317081959
1040
50.0
1040
0.0
1040
0.0
1070
     0
1070
   100
1070
     1
1070
     1
1070
     0
1070
     0
1070
     0
1070
     0
1040
0.0
1040
0.0
1040
0.0
1040
10.0
1040
10.0
1040
10.0
1040
10.0
1070
     0
1002
{
1002
}
1002
}
  0
ENDSEC
  0
EOF
