  0
SECTION
  2
HEADER
  9
$ACADVER
  1
AC1009
  9
$INSBASE
 10
0.0
 20
0.0
 30
0.0
  9
$EXTMIN
 10
-214.15979999999999
 20
-3595.466100000001
 30
0.0
  9
$EXTMAX
 10
104.8986
 20
-3388.4661000000001
 30
0.0
  9
$LIMMIN
 10
0.0
 20
0.0
  9
$LIMMAX
 10
420.0
 20
297.0
  9
$ORTHOMODE
 70
     0
  9
$REGENMODE
 70
     1
  9
$FILLMODE
 70
     1
  9
$QTEXTMODE
 70
     0
  9
$MIRRTEXT
 70
     1
  9
$DRAGMODE
 70
     2
  9
$LTSCALE
 40
0.5
  9
$OSMODE
 70
  2173
  9
$ATTMODE
 70
     1
  9
$TEXTSIZE
 40
4.0
  9
$TRACEWID
 40
1.0
  9
$TEXTSTYLE
  7
STANDARD
  9
$CLAYER
  8
1TEXT
  9
$CELTYPE
  6
BYLAYER
  9
$CECOLOR
 62
   256
  9
$DIMSCALE
 40
1.0
  9
$DIMASZ
 40
2.0
  9
$DIMEXO
 40
0.0
  9
$DIMDLI
 40
7.0
  9
$DIMRND
 40
0.0
  9
$DIMDLE
 40
0.0
  9
$DIMEXE
 40
1.0
  9
$DIMTP
 40
0.0
  9
$DIMTM
 40
0.0
  9
$DIMTXT
 40
3.5
  9
$DIMCEN
 40
0.0
  9
$DIMTSZ
 40
0.0
  9
$DIMTOL
 70
     0
  9
$DIMLIM
 70
     0
  9
$DIMTIH
 70
     0
  9
$DIMTOH
 70
     0
  9
$DIMSE1
 70
     0
  9
$DIMSE2
 70
     0
  9
$DIMTAD
 70
     1
  9
$DIMZIN
 70
     8
  9
$DIMBLK
  1

  9
$DIMASO
 70
     1
  9
$DIMSHO
 70
     1
  9
$DIMPOST
  1
 
  9
$DIMAPOST
  1

  9
$DIMALT
 70
     0
  9
$DIMALTD
 70
     2
  9
$DIMALTF
 40
25.399999999999999
  9
$DIMLFAC
 40
1.0
  9
$DIMTOFL
 70
     1
  9
$DIMTVP
 40
0.0
  9
$DIMTIX
 70
     0
  9
$DIMSOXD
 70
     0
  9
$DIMSAH
 70
     1
  9
$DIMBLK1
  1
OPEN30
  9
$DIMBLK2
  1
OPEN30
  9
$DIMSTYLE
  2
NEWX10
  9
$DIMCLRD
 70
   256
  9
$DIMCLRE
 70
   256
  9
$DIMCLRT
 70
   201
  9
$DIMTFAC
 40
0.7
  9
$DIMGAP
 40
0.7
  9
$LUNITS
 70
     2
  9
$LUPREC
 70
     4
  9
$SKETCHINC
 40
1.0
  9
$FILLETRAD
 40
0.0
  9
$AUNITS
 70
     0
  9
$AUPREC
 70
     2
  9
$MENU
  1
acad
  9
$ELEVATION
 40
0.0
  9
$PELEVATION
 40
0.0
  9
$THICKNESS
 40
0.0
  9
$LIMCHECK
 70
     0
  9
$BLIPMODE
 70
     0
  9
$CHAMFERA
 40
10.0
  9
$CHAMFERB
 40
10.0
  9
$SKPOLY
 70
     0
  9
$TDCREATE
 40
2453033.7327000001
  9
$TDUPDATE
 40
2453335.4917576271
  9
$TDINDWG
 40
0.2254177199
  9
$TDUSRTIMER
 40
0.2254177199
  9
$USRTIMER
 70
     1
  9
$ANGBASE
 50
0.0
  9
$ANGDIR
 70
     0
  9
$PDMODE
 70
     0
  9
$PDSIZE
 40
0.0
  9
$PLINEWID
 40
0.0
  9
$COORDS
 70
     2
  9
$SPLFRAME
 70
     0
  9
$SPLINETYPE
 70
     6
  9
$SPLINESEGS
 70
     8
  9
$ATTDIA
 70
     0
  9
$ATTREQ
 70
     1
  9
$HANDLING
 70
     1
  9
$HANDSEED
  5
8EC3
  9
$SURFTAB1
 70
     6
  9
$SURFTAB2
 70
     6
  9
$SURFTYPE
 70
     6
  9
$SURFU
 70
     6
  9
$SURFV
 70
     6
  9
$UCSNAME
  2

  9
$UCSORG
 10
0.0
 20
0.0
 30
0.0
  9
$UCSXDIR
 10
1.0
 20
0.0
 30
0.0
  9
$UCSYDIR
 10
0.0
 20
1.0
 30
0.0
  9
$PUCSNAME
  2

  9
$PUCSORG
 10
0.0
 20
0.0
 30
0.0
  9
$PUCSXDIR
 10
1.0
 20
0.0
 30
0.0
  9
$PUCSYDIR
 10
0.0
 20
1.0
 30
0.0
  9
$USERI1
 70
     0
  9
$USERI2
 70
     0
  9
$USERI3
 70
     0
  9
$USERI4
 70
     0
  9
$USERI5
 70
     0
  9
$USERR1
 40
0.0
  9
$USERR2
 40
0.0
  9
$USERR3
 40
0.0
  9
$USERR4
 40
0.0
  9
$USERR5
 40
0.0
  9
$WORLDVIEW
 70
     1
  9
$SHADEDGE
 70
     3
  9
$SHADEDIF
 70
    70
  9
$TILEMODE
 70
     1
  9
$MAXACTVP
 70
    48
  9
$PLIMCHECK
 70
     0
  9
$PEXTMIN
 10
1.0000000000000000E+020
 20
1.0000000000000000E+020
 30
1.0000000000000000E+020
  9
$PEXTMAX
 10
-1.0000000000000000E+020
 20
-1.0000000000000000E+020
 30
-1.0000000000000000E+020
  9
$PLIMMIN
 10
0.0
 20
0.0
  9
$PLIMMAX
 10
420.0
 20
297.0
  9
$UNITMODE
 70
     0
  9
$VISRETAIN
 70
     1
  9
$PLINEGEN
 70
     0
  9
$PSLTSCALE
 70
     1
  0
ENDSEC
  0
SECTION
  2
TABLES
  0
TABLE
  2
VPORT
 70
     4
  0
VPORT
  2
*ACTIVE
 70
     0
 10
0.0
 20
0.0
 11
1.0
 21
1.0
 12
-54.63059999999998
 22
-3491.966100000001
 13
0.0
 23
0.0
 14
10.0
 24
10.0
 15
10.0
 25
10.0
 16
0.0
 26
0.0
 36
1.0
 17
0.0
 27
0.0
 37
0.0
 40
232.34142467768649
 41
1.453246753246753
 42
50.0
 43
0.0
 44
0.0
 50
0.0
 51
0.0
 71
     0
 72
   100
 73
     1
 74
     1
 75
     0
 76
     0
 77
     0
 78
     0
  0
ENDTAB
  0
TABLE
  2
LTYPE
 70
     4
  0
LTYPE
  2
CONTINUOUS
 70
     0
  3
Solid line
 72
    65
 73
     0
 40
0.0
  0
LTYPE
  2
CENTER2
 70
     0
  3
Center (.5x) ___ _ ___ _ ___ _ ___ _ ___ _ ___
 72
    65
 73
     4
 40
28.574999999999999
 49
19.050000000000001
 49
-3.1749999999999989
 49
3.1749999999999989
 49
-3.1749999999999989
  0
ENDTAB
  0
TABLE
  2
LAYER
 70
    11
  0
LAYER
  2
0
 70
     0
 62
     7
  6
CONTINUOUS
  0
LAYER
  2
1TEXT
 70
     0
 62
     7
  6
CONTINUOUS
  0
LAYER
  2
1CENTER
 70
     0
 62
     7
  6
CENTER2
  0
LAYER
  2
1DIM
 70
     0
 62
     7
  6
CONTINUOUS
  0
LAYER
  2
01
 70
     0
 62
     1
  6
CONTINUOUS
  0
ENDTAB
  0
TABLE
  2
STYLE
 70
     1
  0
STYLE
  2
STANDARD
 70
     0
 40
0.0
 41
1.0
 50
0.0
 71
     0
 42
4.0
  3
txt.shx
  4
extfont.shx
  0
ENDTAB
  0
TABLE
  2
VIEW
 70
     0
  0
ENDTAB
  0
TABLE
  2
UCS
 70
     0
  0
ENDTAB
  0
TABLE
  2
APPID
 70
     9
  0
APPID
  2
ACAD
 70
     0
  0
APPID
  2
DRAWINGVARIABLESXDATA
 70
     0
  0
APPID
  2
CONTENTTABDATA
 70
     0
  0
APPID
  2
CONTENTCURRENTTAB
 70
     0
  0
APPID
  2
CONTENTBLOCKDESCRIPTION
 70
     0
  0
APPID
  2
CONTENTBLOCKICON
 70
     0
  0
APPID
  2
CONTENTLONGBLOCKNAME
 70
     0
  0
APPID
  2
ACAD_PSEXT
 70
     0
  0
APPID
  2
ACAD_DSTYLE_DIMTEXT_FILL
 70
     0
  0
ENDTAB
  0
TABLE
  2
DIMSTYLE
 70
     1
  0
DIMSTYLE
  2
NEWX10
 70
     0
  3
 
  4

  5

  6

  7

 40
1.0
 41
2.0
 42
0.0
 43
7.0
 44
1.0
 45
0.0
 46
0.0
 47
0.0
 48
0.0
140
3.5
141
0.0
142
0.0
143
25.399999999999999
144
1.0
145
0.0
146
0.7
147
0.7
 71
     0
 72
     0
 73
     0
 74
     0
 75
     0
 76
     0
 77
     1
 78
     8
170
     0
171
     2
172
     1
173
     1
174
     0
175
     0
176
   256
177
   256
178
   201
  0
ENDTAB
  0
ENDSEC
  0
SECTION
  2
BLOCKS
  0
BLOCK
  8
0
  2
$MODEL_SPACE
 70
     0
 10
0.0
 20
0.0
 30
0.0
  3
$MODEL_SPACE
  1

  0
ENDBLK
  5
8A2A
  8
0
  0
BLOCK
 67
     1
  8
0
  2
$PAPER_SPACE
 70
     0
 10
0.0
 20
0.0
 30
0.0
  3
$PAPER_SPACE
  1

  0
ENDBLK
  5
8A26
 67
     1
  8
0
  0
BLOCK
  8
0
  2
_OPEN30
 70
     0
 10
0.0
 20
0.0
 30
0.0
  3
_OPEN30
  1

  0
LINE
  5
44
  8
0
  6
BYBLOCK
 62
     0
 10
-1.0
 20
0.2679
 30
0.0
 11
0.0
 21
0.0
 31
0.0
  0
LINE
  5
45
  8
0
  6
BYBLOCK
 62
     0
 10
0.0
 20
0.0
 30
0.0
 11
-1.0
 21
-0.2679
 31
0.0
  0
LINE
  5
46
  8
0
  6
BYBLOCK
 62
     0
 10
0.0
 20
0.0
 30
0.0
 11
-1.0
 21
0.0
 31
0.0
  0
ENDBLK
  5
47
  8
0
  0
ENDSEC
  0
SECTION
  2
ENTITIES
  0
LINE
  5
8C8F
  8
01
 10
-213.65979999999999
 20
-3488.4659999999999
 30
0.0
 11
25.340199999999999
 21
-3488.4659999999999
 31
0.0
  0
LINE
  5
8C90
  8
01
 10
-213.65979999999999
 20
-3500.465999999999
 30
0.0
 11
-199.15979999999999
 21
-3500.465999999999
 31
0.0
  0
LINE
  5
8C91
  8
01
 10
-214.15979999999999
 20
-3488.966100000001
 30
0.0
 11
-214.15979999999999
 21
-3499.9659000000001
 31
0.0
  0
LINE
  5
8C92
  8
01
 10
25.840199999999999
 20
-3488.966100000001
 30
0.0
 11
25.840199999999999
 21
-3499.9659000000001
 31
0.0
  0
LINE
  5
8C93
  8
01
 10
-213.65979999999999
 20
-3488.4659999999999
 30
0.0
 11
-214.15979999999999
 21
-3488.966100000001
 31
0.0
  0
LINE
  5
8C94
  8
01
 10
-214.15979999999999
 20
-3499.9659000000001
 30
0.0
 11
-213.65979999999999
 21
-3500.465999999999
 31
0.0
  0
LINE
  5
8C95
  8
01
 10
-213.65979999999999
 20
-3488.4659999999999
 30
0.0
 11
-213.65979999999999
 21
-3500.465999999999
 31
0.0
  0
LINE
  5
8C96
  8
01
 10
25.840199999999999
 20
-3488.966100000001
 30
0.0
 11
25.340199999999999
 21
-3488.4659999999999
 31
0.0
  0
LINE
  5
8C97
  8
01
 10
25.840199999999999
 20
-3499.9659000000001
 30
0.0
 11
25.340199999999999
 21
-3500.465999999999
 31
0.0
  0
LINE
  5
8C98
  8
01
 10
25.340199999999999
 20
-3488.4659999999999
 30
0.0
 11
25.340199999999999
 21
-3500.465999999999
 31
0.0
  0
LINE
  5
8C99
  8
01
 10
10.840199999999999
 20
-3521.4659999999999
 30
0.0
 11
10.840199999999999
 21
-3500.465999999999
 31
0.0
  0
LINE
  5
8C9A
  8
01
 10
0.8402
 20
-3521.4659999999999
 30
0.0
 11
0.8402
 21
-3500.465999999999
 31
0.0
  0
LINE
  5
8C9B
  8
01
 10
-189.15979999999999
 20
-3521.4659999999999
 30
0.0
 11
-189.15979999999999
 21
-3500.465999999999
 31
0.0
  0
LINE
  5
8C9C
  8
01
 10
-199.15979999999999
 20
-3521.4659999999999
 30
0.0
 11
-199.15979999999999
 21
-3500.465999999999
 31
0.0
  0
LINE
  5
8C9D
  8
01
 10
-199.15979999999999
 20
-3521.4659999999999
 30
0.0
 11
-189.15979999999999
 21
-3521.4659999999999
 31
0.0
  0
LINE
  5
8C9E
  8
01
 10
0.8402
 20
-3521.4659999999999
 30
0.0
 11
10.840199999999999
 21
-3521.4659999999999
 31
0.0
  0
LINE
  5
8C9F
  8
01
 10
76.840199999999996
 20
-3521.4659999999999
 30
0.0
 11
66.840199999999996
 21
-3521.4659999999999
 31
0.0
  0
LINE
  5
8CA0
  8
01
 10
76.840199999999996
 20
-3497.7828
 30
0.0
 11
76.840199999999996
 21
-3521.4659999999999
 31
0.0
  0
LINE
  5
8CA1
  8
01
 10
66.840199999999996
 20
-3497.7828
 30
0.0
 11
66.840199999999996
 21
-3521.4659999999999
 31
0.0
  0
POLYLINE
  5
8CA2
  8
01
 66
     1
 10
0.0
 20
0.0
 30
0.0
 70
     8
  0
VERTEX
  5
8CA3
  8
01
 10
10.840199999999999
 20
-3500.46
 30
0.0
 70
    32
  0
VERTEX
  5
8CA4
  8
01
 10
10.791399999999999
 20
-3500.4000000000001
 30
0.0
 70
    32
  0
VERTEX
  5
8CA5
  8
01
 10
10.741300000000001
 20
-3500.3100000000009
 30
0.0
 70
    32
  0
VERTEX
  5
8CA6
  8
01
 10
10.69
 20
-3500.2199999999998
 30
0.0
 70
    32
  0
VERTEX
  5
8CA7
  8
01
 10
10.6374
 20
-3500.1599999999999
 30
0.0
 70
    32
  0
VERTEX
  5
8CA8
  8
01
 10
10.583500000000001
 20
-3500.0700000000002
 30
0.0
 70
    32
  0
VERTEX
  5
8CA9
  8
01
 10
10.5284
 20
-3500.0100000000002
 30
0.0
 70
    32
  0
VERTEX
  5
8CAA
  8
01
 10
10.472099999999999
 20
-3499.9200000000001
 30
0.0
 70
    32
  0
VERTEX
  5
8CAB
  8
01
 10
10.4145
 20
-3499.8600000000001
 30
0.0
 70
    32
  0
VERTEX
  5
8CAC
  8
01
 10
10.3558
 20
-3499.77
 30
0.0
 70
    32
  0
VERTEX
  5
8CAD
  8
01
 10
10.2959
 20
-3499.71
 30
0.0
 70
    32
  0
VERTEX
  5
8CAE
  8
01
 10
10.2348
 20
-3499.6199999999999
 30
0.0
 70
    32
  0
VERTEX
  5
8CAF
  8
01
 10
10.172599999999999
 20
-3499.5600000000009
 30
0.0
 70
    32
  0
VERTEX
  5
8CB0
  8
01
 10
10.109299999999999
 20
-3499.5
 30
0.0
 70
    32
  0
VERTEX
  5
8CB1
  8
01
 10
10.0449
 20
-3499.4099999999999
 30
0.0
 70
    32
  0
VERTEX
  5
8CB2
  8
01
 10
9.9793299999999991
 20
-3499.3500000000008
 30
0.0
 70
    32
  0
VERTEX
  5
8CB3
  8
01
 10
9.9127100000000006
 20
-3499.29
 30
0.0
 70
    32
  0
VERTEX
  5
8CB4
  8
01
 10
9.8450299999999995
 20
-3499.2300000000009
 30
0.0
 70
    32
  0
VERTEX
  5
8CB5
  8
01
 10
9.7763100000000005
 20
-3499.1700000000001
 30
0.0
 70
    32
  0
VERTEX
  5
8CB6
  8
01
 10
9.7065600000000014
 20
-3499.1100000000001
 30
0.0
 70
    32
  0
VERTEX
  5
8CB7
  8
01
 10
9.6358100000000011
 20
-3499.02
 30
0.0
 70
    32
  0
VERTEX
  5
8CB8
  8
01
 10
9.5640600000000013
 20
-3498.96
 30
0.0
 70
    32
  0
VERTEX
  5
8CB9
  8
01
 10
9.4913500000000006
 20
-3498.9000000000001
 30
0.0
 70
    32
  0
VERTEX
  5
8CBA
  8
01
 10
9.4176899999999986
 20
-3498.8699999999999
 30
0.0
 70
    32
  0
VERTEX
  5
8CBB
  8
01
 10
9.3430900000000001
 20
-3498.8100000000009
 30
0.0
 70
    32
  0
VERTEX
  5
8CBC
  8
01
 10
9.2675800000000006
 20
-3498.7500000000009
 30
0.0
 70
    32
  0
VERTEX
  5
8CBD
  8
01
 10
9.191180000000001
 20
-3498.6900000000001
 30
0.0
 70
    32
  0
VERTEX
  5
8CBE
  8
01
 10
9.1139100000000006
 20
-3498.6300000000001
 30
0.0
 70
    32
  0
VERTEX
  5
8CBF
  8
01
 10
9.0357800000000008
 20
-3498.5700000000002
 30
0.0
 70
    32
  0
VERTEX
  5
8CC0
  8
01
 10
8.9568300000000001
 20
-3498.54
 30
0.0
 70
    32
  0
VERTEX
  5
8CC1
  8
01
 10
8.8770600000000002
 20
-3498.4800000000009
 30
0.0
 70
    32
  0
VERTEX
  5
8CC2
  8
01
 10
8.7964899999999986
 20
-3498.4200000000001
 30
0.0
 70
    32
  0
VERTEX
  5
8CC3
  8
01
 10
8.7151599999999991
 20
-3498.3899999999999
 30
0.0
 70
    32
  0
VERTEX
  5
8CC4
  8
01
 10
8.6330799999999996
 20
-3498.3299999999999
 30
0.0
 70
    32
  0
VERTEX
  5
8CC5
  8
01
 10
8.5502800000000008
 20
-3498.3000000000002
 30
0.0
 70
    32
  0
VERTEX
  5
8CC6
  8
01
 10
8.4667600000000007
 20
-3498.2399999999998
 30
0.0
 70
    32
  0
VERTEX
  5
8CC7
  8
01
 10
8.3825599999999998
 20
-3498.21
 30
0.0
 70
    32
  0
VERTEX
  5
8CC8
  8
01
 10
8.2977000000000007
 20
-3498.1799999999998
 30
0.0
 70
    32
  0
VERTEX
  5
8CC9
  8
01
 10
8.2122100000000007
 20
-3498.1199999999999
 30
0.0
 70
    32
  0
VERTEX
  5
8CCA
  8
01
 10
8.1260899999999996
 20
-3498.0900000000011
 30
0.0
 70
    32
  0
VERTEX
  5
8CCB
  8
01
 10
8.0393699999999981
 20
-3498.0600000000009
 30
0.0
 70
    32
  0
VERTEX
  5
8CCC
  8
01
 10
7.9520899999999992
 20
-3498.0300000000002
 30
0.0
 70
    32
  0
VERTEX
  5
8CCD
  8
01
 10
7.8642500000000002
 20
-3498.0
 30
0.0
 70
    32
  0
VERTEX
  5
8CCE
  8
01
 10
7.7758899999999986
 20
-3497.9699999999998
 30
0.0
 70
    32
  0
VERTEX
  5
8CCF
  8
01
 10
7.6870199999999986
 20
-3497.9400000000001
 30
0.0
 70
    32
  0
VERTEX
  5
8CD0
  8
01
 10
7.597669999999999
 20
-3497.9099999999999
 30
0.0
 70
    32
  0
VERTEX
  5
8CD1
  8
01
 10
7.5078699999999987
 20
-3497.8800000000001
 30
0.0
 70
    32
  0
VERTEX
  5
8CD2
  8
01
 10
7.4176299999999991
 20
-3497.8500000000008
 30
0.0
 70
    32
  0
VERTEX
  5
8CD3
  8
01
 10
7.3269799999999998
 20
-3497.8200000000002
 30
0.0
 70
    32
  0
VERTEX
  5
8CD4
  8
01
 10
7.2359399999999994
 20
-3497.79
 30
0.0
 70
    32
  0
VERTEX
  5
8CD5
  8
01
 10
7.1445399999999992
 20
-3497.79
 30
0.0
 70
    32
  0
VERTEX
  5
8CD6
  8
01
 10
7.052789999999999
 20
-3497.7600000000002
 30
0.0
 70
    32
  0
VERTEX
  5
8CD7
  8
01
 10
6.9607399999999986
 20
-3497.7300000000009
 30
0.0
 70
    32
  0
VERTEX
  5
8CD8
  8
01
 10
6.8683899999999989
 20
-3497.7300000000009
 30
0.0
 70
    32
  0
VERTEX
  5
8CD9
  8
01
 10
6.7757699999999987
 20
-3497.6999999999998
 30
0.0
 70
    32
  0
VERTEX
  5
8CDA
  8
01
 10
6.6829099999999997
 20
-3497.6999999999998
 30
0.0
 70
    32
  0
VERTEX
  5
8CDB
  8
01
 10
6.5898300000000001
 20
-3497.6700000000001
 30
0.0
 70
    32
  0
VERTEX
  5
8CDC
  8
01
 10
6.49655
 20
-3497.6700000000001
 30
0.0
 70
    32
  0
VERTEX
  5
8CDD
  8
01
 10
6.403109999999999
 20
-3497.6399999999999
 30
0.0
 70
    32
  0
VERTEX
  5
8CDE
  8
01
 10
6.3095099999999986
 20
-3497.6399999999999
 30
0.0
 70
    32
  0
VERTEX
  5
8CDF
  8
01
 10
6.2157999999999989
 20
-3497.6399999999999
 30
0.0
 70
    32
  0
VERTEX
  5
8CE0
  8
01
 10
6.1219799999999998
 20
-3497.6399999999999
 30
0.0
 70
    32
  0
VERTEX
  5
8CE1
  8
01
 10
6.0281000000000002
 20
-3497.6399999999999
 30
0.0
 70
    32
  0
VERTEX
  5
8CE2
  8
01
 10
5.9341599999999994
 20
-3497.6399999999999
 30
0.0
 70
    32
  0
VERTEX
  5
8CE3
  8
01
 10
5.8402000000000003
 20
-3497.6399999999999
 30
0.0
 70
    32
  0
VERTEX
  5
8CE4
  8
01
 10
5.7462400000000002
 20
-3497.6399999999999
 30
0.0
 70
    32
  0
VERTEX
  5
8CE5
  8
01
 10
5.6523000000000003
 20
-3497.6399999999999
 30
0.0
 70
    32
  0
VERTEX
  5
8CE6
  8
01
 10
5.558419999999999
 20
-3497.6399999999999
 30
0.0
 70
    32
  0
VERTEX
  5
8CE7
  8
01
 10
5.464599999999999
 20
-3497.6399999999999
 30
0.0
 70
    32
  0
VERTEX
  5
8CE8
  8
01
 10
5.3708900000000002
 20
-3497.6399999999999
 30
0.0
 70
    32
  0
VERTEX
  5
8CE9
  8
01
 10
5.2772899999999989
 20
-3497.6399999999999
 30
0.0
 70
    32
  0
VERTEX
  5
8CEA
  8
01
 10
5.1838499999999987
 20
-3497.6700000000001
 30
0.0
 70
    32
  0
VERTEX
  5
8CEB
  8
01
 10
5.0905699999999987
 20
-3497.6700000000001
 30
0.0
 70
    32
  0
VERTEX
  5
8CEC
  8
01
 10
4.9974899999999991
 20
-3497.6999999999998
 30
0.0
 70
    32
  0
VERTEX
  5
8CED
  8
01
 10
4.90463
 20
-3497.6999999999998
 30
0.0
 70
    32
  0
VERTEX
  5
8CEE
  8
01
 10
4.812009999999999
 20
-3497.7300000000009
 30
0.0
 70
    32
  0
VERTEX
  5
8CEF
  8
01
 10
4.7196600000000002
 20
-3497.7300000000009
 30
0.0
 70
    32
  0
VERTEX
  5
8CF0
  8
01
 10
4.6276099999999989
 20
-3497.7600000000002
 30
0.0
 70
    32
  0
VERTEX
  5
8CF1
  8
01
 10
4.5358599999999987
 20
-3497.79
 30
0.0
 70
    32
  0
VERTEX
  5
8CF2
  8
01
 10
4.4444599999999994
 20
-3497.79
 30
0.0
 70
    32
  0
VERTEX
  5
8CF3
  8
01
 10
4.353419999999999
 20
-3497.8200000000002
 30
0.0
 70
    32
  0
VERTEX
  5
8CF4
  8
01
 10
4.2627699999999988
 20
-3497.8500000000008
 30
0.0
 70
    32
  0
VERTEX
  5
8CF5
  8
01
 10
4.1725300000000001
 20
-3497.8800000000001
 30
0.0
 70
    32
  0
VERTEX
  5
8CF6
  8
01
 10
4.0827299999999997
 20
-3497.9099999999999
 30
0.0
 70
    32
  0
VERTEX
  5
8CF7
  8
01
 10
3.9933800000000002
 20
-3497.9400000000001
 30
0.0
 70
    32
  0
VERTEX
  5
8CF8
  8
01
 10
3.9045099999999988
 20
-3497.9699999999998
 30
0.0
 70
    32
  0
VERTEX
  5
8CF9
  8
01
 10
3.8161499999999999
 20
-3498.0
 30
0.0
 70
    32
  0
VERTEX
  5
8CFA
  8
01
 10
3.72831
 20
-3498.0300000000002
 30
0.0
 70
    32
  0
VERTEX
  5
8CFB
  8
01
 10
3.6410300000000002
 20
-3498.0600000000009
 30
0.0
 70
    32
  0
VERTEX
  5
8CFC
  8
01
 10
3.5543099999999992
 20
-3498.0900000000011
 30
0.0
 70
    32
  0
VERTEX
  5
8CFD
  8
01
 10
3.4681899999999999
 20
-3498.1199999999999
 30
0.0
 70
    32
  0
VERTEX
  5
8CFE
  8
01
 10
3.3826999999999989
 20
-3498.1799999999998
 30
0.0
 70
    32
  0
VERTEX
  5
8CFF
  8
01
 10
3.2978399999999999
 20
-3498.21
 30
0.0
 70
    32
  0
VERTEX
  5
8D00
  8
01
 10
3.2136399999999998
 20
-3498.2399999999998
 30
0.0
 70
    32
  0
VERTEX
  5
8D01
  8
01
 10
3.1301199999999998
 20
-3498.3000000000002
 30
0.0
 70
    32
  0
VERTEX
  5
8D02
  8
01
 10
3.04732
 20
-3498.3299999999999
 30
0.0
 70
    32
  0
VERTEX
  5
8D03
  8
01
 10
2.9652400000000001
 20
-3498.3899999999999
 30
0.0
 70
    32
  0
VERTEX
  5
8D04
  8
01
 10
2.8839099999999989
 20
-3498.4200000000001
 30
0.0
 70
    32
  0
VERTEX
  5
8D05
  8
01
 10
2.8033399999999999
 20
-3498.4800000000009
 30
0.0
 70
    32
  0
VERTEX
  5
8D06
  8
01
 10
2.72357
 20
-3498.54
 30
0.0
 70
    32
  0
VERTEX
  5
8D07
  8
01
 10
2.6446200000000002
 20
-3498.5700000000002
 30
0.0
 70
    32
  0
VERTEX
  5
8D08
  8
01
 10
2.566489999999999
 20
-3498.6300000000001
 30
0.0
 70
    32
  0
VERTEX
  5
8D09
  8
01
 10
2.4892199999999991
 20
-3498.6900000000001
 30
0.0
 70
    32
  0
VERTEX
  5
8D0A
  8
01
 10
2.4128199999999991
 20
-3498.7500000000009
 30
0.0
 70
    32
  0
VERTEX
  5
8D0B
  8
01
 10
2.3373099999999991
 20
-3498.8100000000009
 30
0.0
 70
    32
  0
VERTEX
  5
8D0C
  8
01
 10
2.2627099999999989
 20
-3498.8699999999999
 30
0.0
 70
    32
  0
VERTEX
  5
8D0D
  8
01
 10
2.1890499999999991
 20
-3498.9000000000001
 30
0.0
 70
    32
  0
VERTEX
  5
8D0E
  8
01
 10
2.1163400000000001
 20
-3498.96
 30
0.0
 70
    32
  0
VERTEX
  5
8D0F
  8
01
 10
2.0445899999999999
 20
-3499.02
 30
0.0
 70
    32
  0
VERTEX
  5
8D10
  8
01
 10
1.97384
 20
-3499.1100000000001
 30
0.0
 70
    32
  0
VERTEX
  5
8D11
  8
01
 10
1.9040900000000001
 20
-3499.1700000000001
 30
0.0
 70
    32
  0
VERTEX
  5
8D12
  8
01
 10
1.8353699999999999
 20
-3499.2300000000009
 30
0.0
 70
    32
  0
VERTEX
  5
8D13
  8
01
 10
1.76769
 20
-3499.29
 30
0.0
 70
    32
  0
VERTEX
  5
8D14
  8
01
 10
1.7010700000000001
 20
-3499.3500000000008
 30
0.0
 70
    32
  0
VERTEX
  5
8D15
  8
01
 10
1.635529999999999
 20
-3499.4099999999999
 30
0.0
 70
    32
  0
VERTEX
  5
8D16
  8
01
 10
1.571089999999999
 20
-3499.5
 30
0.0
 70
    32
  0
VERTEX
  5
8D17
  8
01
 10
1.50776
 20
-3499.5600000000009
 30
0.0
 70
    32
  0
VERTEX
  5
8D18
  8
01
 10
1.445549999999999
 20
-3499.6199999999999
 30
0.0
 70
    32
  0
VERTEX
  5
8D19
  8
01
 10
1.3844899999999991
 20
-3499.71
 30
0.0
 70
    32
  0
VERTEX
  5
8D1A
  8
01
 10
1.324589999999999
 20
-3499.77
 30
0.0
 70
    32
  0
VERTEX
  5
8D1B
  8
01
 10
1.2658700000000001
 20
-3499.8600000000001
 30
0.0
 70
    32
  0
VERTEX
  5
8D1C
  8
01
 10
1.2083399999999991
 20
-3499.9200000000001
 30
0.0
 70
    32
  0
VERTEX
  5
8D1D
  8
01
 10
1.15202
 20
-3500.0100000000002
 30
0.0
 70
    32
  0
VERTEX
  5
8D1E
  8
01
 10
1.0969100000000001
 20
-3500.0700000000002
 30
0.0
 70
    32
  0
VERTEX
  5
8D1F
  8
01
 10
1.0430399999999991
 20
-3500.1599999999999
 30
0.0
 70
    32
  0
VERTEX
  5
8D20
  8
01
 10
0.9904239999999999
 20
-3500.2199999999998
 30
0.0
 70
    32
  0
VERTEX
  5
8D21
  8
01
 10
0.9390690000000002
 20
-3500.3100000000009
 30
0.0
 70
    32
  0
VERTEX
  5
8D22
  8
01
 10
0.8889889999999999
 20
-3500.4000000000001
 30
0.0
 70
    32
  0
VERTEX
  5
8D23
  8
01
 10
0.8402
 20
-3500.46
 30
0.0
 70
    32
  0
SEQEND
  5
8D24
  8
01
  0
POLYLINE
  5
8D25
  8
01
 66
     1
 10
0.0
 20
0.0
 30
0.0
 70
     8
  0
VERTEX
  5
8D26
  8
01
 10
-189.16
 20
-3500.46
 30
0.0
 70
    32
  0
VERTEX
  5
8D27
  8
01
 10
-189.209
 20
-3500.4000000000001
 30
0.0
 70
    32
  0
VERTEX
  5
8D28
  8
01
 10
-189.25899999999999
 20
-3500.3100000000009
 30
0.0
 70
    32
  0
VERTEX
  5
8D29
  8
01
 10
-189.31
 20
-3500.2199999999998
 30
0.0
 70
    32
  0
VERTEX
  5
8D2A
  8
01
 10
-189.363
 20
-3500.1599999999999
 30
0.0
 70
    32
  0
VERTEX
  5
8D2B
  8
01
 10
-189.417
 20
-3500.0700000000002
 30
0.0
 70
    32
  0
VERTEX
  5
8D2C
  8
01
 10
-189.47200000000001
 20
-3500.0100000000002
 30
0.0
 70
    32
  0
VERTEX
  5
8D2D
  8
01
 10
-189.52799999999991
 20
-3499.9200000000001
 30
0.0
 70
    32
  0
VERTEX
  5
8D2E
  8
01
 10
-189.58500000000001
 20
-3499.8600000000001
 30
0.0
 70
    32
  0
VERTEX
  5
8D2F
  8
01
 10
-189.64400000000001
 20
-3499.77
 30
0.0
 70
    32
  0
VERTEX
  5
8D30
  8
01
 10
-189.70400000000001
 20
-3499.71
 30
0.0
 70
    32
  0
VERTEX
  5
8D31
  8
01
 10
-189.76499999999999
 20
-3499.6199999999999
 30
0.0
 70
    32
  0
VERTEX
  5
8D32
  8
01
 10
-189.827
 20
-3499.5600000000009
 30
0.0
 70
    32
  0
VERTEX
  5
8D33
  8
01
 10
-189.89099999999999
 20
-3499.5
 30
0.0
 70
    32
  0
VERTEX
  5
8D34
  8
01
 10
-189.95500000000001
 20
-3499.4099999999999
 30
0.0
 70
    32
  0
VERTEX
  5
8D35
  8
01
 10
-190.02099999999999
 20
-3499.3500000000008
 30
0.0
 70
    32
  0
VERTEX
  5
8D36
  8
01
 10
-190.08699999999999
 20
-3499.29
 30
0.0
 70
    32
  0
VERTEX
  5
8D37
  8
01
 10
-190.155
 20
-3499.2300000000009
 30
0.0
 70
    32
  0
VERTEX
  5
8D38
  8
01
 10
-190.22399999999999
 20
-3499.1700000000001
 30
0.0
 70
    32
  0
VERTEX
  5
8D39
  8
01
 10
-190.29300000000001
 20
-3499.1100000000001
 30
0.0
 70
    32
  0
VERTEX
  5
8D3A
  8
01
 10
-190.364
 20
-3499.02
 30
0.0
 70
    32
  0
VERTEX
  5
8D3B
  8
01
 10
-190.43600000000001
 20
-3498.96
 30
0.0
 70
    32
  0
VERTEX
  5
8D3C
  8
01
 10
-190.50899999999999
 20
-3498.9000000000001
 30
0.0
 70
    32
  0
VERTEX
  5
8D3D
  8
01
 10
-190.58199999999999
 20
-3498.8699999999999
 30
0.0
 70
    32
  0
VERTEX
  5
8D3E
  8
01
 10
-190.65700000000001
 20
-3498.8100000000009
 30
0.0
 70
    32
  0
VERTEX
  5
8D3F
  8
01
 10
-190.732
 20
-3498.7500000000009
 30
0.0
 70
    32
  0
VERTEX
  5
8D40
  8
01
 10
-190.809
 20
-3498.6900000000001
 30
0.0
 70
    32
  0
VERTEX
  5
8D41
  8
01
 10
-190.886
 20
-3498.6300000000001
 30
0.0
 70
    32
  0
VERTEX
  5
8D42
  8
01
 10
-190.964
 20
-3498.5700000000002
 30
0.0
 70
    32
  0
VERTEX
  5
8D43
  8
01
 10
-191.04300000000001
 20
-3498.54
 30
0.0
 70
    32
  0
VERTEX
  5
8D44
  8
01
 10
-191.12299999999999
 20
-3498.4800000000009
 30
0.0
 70
    32
  0
VERTEX
  5
8D45
  8
01
 10
-191.20400000000001
 20
-3498.4200000000001
 30
0.0
 70
    32
  0
VERTEX
  5
8D46
  8
01
 10
-191.285
 20
-3498.3899999999999
 30
0.0
 70
    32
  0
VERTEX
  5
8D47
  8
01
 10
-191.36699999999999
 20
-3498.3299999999999
 30
0.0
 70
    32
  0
VERTEX
  5
8D48
  8
01
 10
-191.44999999999999
 20
-3498.3000000000002
 30
0.0
 70
    32
  0
VERTEX
  5
8D49
  8
01
 10
-191.53299999999999
 20
-3498.2399999999998
 30
0.0
 70
    32
  0
VERTEX
  5
8D4A
  8
01
 10
-191.61699999999999
 20
-3498.21
 30
0.0
 70
    32
  0
VERTEX
  5
8D4B
  8
01
 10
-191.702
 20
-3498.1799999999998
 30
0.0
 70
    32
  0
VERTEX
  5
8D4C
  8
01
 10
-191.78800000000001
 20
-3498.1199999999999
 30
0.0
 70
    32
  0
VERTEX
  5
8D4D
  8
01
 10
-191.874
 20
-3498.0900000000011
 30
0.0
 70
    32
  0
VERTEX
  5
8D4E
  8
01
 10
-191.96100000000001
 20
-3498.0600000000009
 30
0.0
 70
    32
  0
VERTEX
  5
8D4F
  8
01
 10
-192.048
 20
-3498.0300000000002
 30
0.0
 70
    32
  0
VERTEX
  5
8D50
  8
01
 10
-192.136
 20
-3498.0
 30
0.0
 70
    32
  0
VERTEX
  5
8D51
  8
01
 10
-192.22399999999999
 20
-3497.9699999999998
 30
0.0
 70
    32
  0
VERTEX
  5
8D52
  8
01
 10
-192.31299999999999
 20
-3497.9400000000001
 30
0.0
 70
    32
  0
VERTEX
  5
8D53
  8
01
 10
-192.40199999999999
 20
-3497.9099999999999
 30
0.0
 70
    32
  0
VERTEX
  5
8D54
  8
01
 10
-192.49199999999999
 20
-3497.8800000000001
 30
0.0
 70
    32
  0
VERTEX
  5
8D55
  8
01
 10
-192.58199999999999
 20
-3497.8500000000008
 30
0.0
 70
    32
  0
VERTEX
  5
8D56
  8
01
 10
-192.673
 20
-3497.8200000000002
 30
0.0
 70
    32
  0
VERTEX
  5
8D57
  8
01
 10
-192.76400000000001
 20
-3497.79
 30
0.0
 70
    32
  0
VERTEX
  5
8D58
  8
01
 10
-192.85499999999999
 20
-3497.79
 30
0.0
 70
    32
  0
VERTEX
  5
8D59
  8
01
 10
-192.947
 20
-3497.7600000000002
 30
0.0
 70
    32
  0
VERTEX
  5
8D5A
  8
01
 10
-193.03899999999999
 20
-3497.7300000000009
 30
0.0
 70
    32
  0
VERTEX
  5
8D5B
  8
01
 10
-193.13200000000001
 20
-3497.7300000000009
 30
0.0
 70
    32
  0
VERTEX
  5
8D5C
  8
01
 10
-193.22399999999999
 20
-3497.6999999999998
 30
0.0
 70
    32
  0
VERTEX
  5
8D5D
  8
01
 10
-193.31700000000001
 20
-3497.6999999999998
 30
0.0
 70
    32
  0
VERTEX
  5
8D5E
  8
01
 10
-193.41
 20
-3497.6700000000001
 30
0.0
 70
    32
  0
VERTEX
  5
8D5F
  8
01
 10
-193.50299999999999
 20
-3497.6700000000001
 30
0.0
 70
    32
  0
VERTEX
  5
8D60
  8
01
 10
-193.59700000000001
 20
-3497.6399999999999
 30
0.0
 70
    32
  0
VERTEX
  5
8D61
  8
01
 10
-193.69
 20
-3497.6399999999999
 30
0.0
 70
    32
  0
VERTEX
  5
8D62
  8
01
 10
-193.78399999999999
 20
-3497.6399999999999
 30
0.0
 70
    32
  0
VERTEX
  5
8D63
  8
01
 10
-193.87799999999999
 20
-3497.6399999999999
 30
0.0
 70
    32
  0
VERTEX
  5
8D64
  8
01
 10
-193.97200000000001
 20
-3497.6399999999999
 30
0.0
 70
    32
  0
VERTEX
  5
8D65
  8
01
 10
-194.066
 20
-3497.6399999999999
 30
0.0
 70
    32
  0
VERTEX
  5
8D66
  8
01
 10
-194.16
 20
-3497.6399999999999
 30
0.0
 70
    32
  0
VERTEX
  5
8D67
  8
01
 10
-194.25399999999999
 20
-3497.6399999999999
 30
0.0
 70
    32
  0
VERTEX
  5
8D68
  8
01
 10
-194.34800000000001
 20
-3497.6399999999999
 30
0.0
 70
    32
  0
VERTEX
  5
8D69
  8
01
 10
-194.44200000000001
 20
-3497.6399999999999
 30
0.0
 70
    32
  0
VERTEX
  5
8D6A
  8
01
 10
-194.535
 20
-3497.6399999999999
 30
0.0
 70
    32
  0
VERTEX
  5
8D6B
  8
01
 10
-194.62899999999999
 20
-3497.6399999999999
 30
0.0
 70
    32
  0
VERTEX
  5
8D6C
  8
01
 10
-194.72300000000001
 20
-3497.6399999999999
 30
0.0
 70
    32
  0
VERTEX
  5
8D6D
  8
01
 10
-194.816
 20
-3497.6700000000001
 30
0.0
 70
    32
  0
VERTEX
  5
8D6E
  8
01
 10
-194.90899999999999
 20
-3497.6700000000001
 30
0.0
 70
    32
  0
VERTEX
  5
8D6F
  8
01
 10
-195.00299999999999
 20
-3497.6999999999998
 30
0.0
 70
    32
  0
VERTEX
  5
8D70
  8
01
 10
-195.095
 20
-3497.6999999999998
 30
0.0
 70
    32
  0
VERTEX
  5
8D71
  8
01
 10
-195.18799999999999
 20
-3497.7300000000009
 30
0.0
 70
    32
  0
VERTEX
  5
8D72
  8
01
 10
-195.28
 20
-3497.7300000000009
 30
0.0
 70
    32
  0
VERTEX
  5
8D73
  8
01
 10
-195.37200000000001
 20
-3497.7600000000002
 30
0.0
 70
    32
  0
VERTEX
  5
8D74
  8
01
 10
-195.464
 20
-3497.79
 30
0.0
 70
    32
  0
VERTEX
  5
8D75
  8
01
 10
-195.55600000000001
 20
-3497.79
 30
0.0
 70
    32
  0
VERTEX
  5
8D76
  8
01
 10
-195.64699999999999
 20
-3497.8200000000002
 30
0.0
 70
    32
  0
VERTEX
  5
8D77
  8
01
 10
-195.73699999999999
 20
-3497.8500000000008
 30
0.0
 70
    32
  0
VERTEX
  5
8D78
  8
01
 10
-195.827
 20
-3497.8800000000001
 30
0.0
 70
    32
  0
VERTEX
  5
8D79
  8
01
 10
-195.917
 20
-3497.9099999999999
 30
0.0
 70
    32
  0
VERTEX
  5
8D7A
  8
01
 10
-196.00700000000001
 20
-3497.9400000000001
 30
0.0
 70
    32
  0
VERTEX
  5
8D7B
  8
01
 10
-196.095
 20
-3497.9699999999998
 30
0.0
 70
    32
  0
VERTEX
  5
8D7C
  8
01
 10
-196.184
 20
-3498.0
 30
0.0
 70
    32
  0
VERTEX
  5
8D7D
  8
01
 10
-196.27199999999999
 20
-3498.0300000000002
 30
0.0
 70
    32
  0
VERTEX
  5
8D7E
  8
01
 10
-196.35900000000001
 20
-3498.0600000000009
 30
0.0
 70
    32
  0
VERTEX
  5
8D7F
  8
01
 10
-196.446
 20
-3498.0900000000011
 30
0.0
 70
    32
  0
VERTEX
  5
8D80
  8
01
 10
-196.53200000000001
 20
-3498.1199999999999
 30
0.0
 70
    32
  0
VERTEX
  5
8D81
  8
01
 10
-196.61699999999999
 20
-3498.1799999999998
 30
0.0
 70
    32
  0
VERTEX
  5
8D82
  8
01
 10
-196.702
 20
-3498.21
 30
0.0
 70
    32
  0
VERTEX
  5
8D83
  8
01
 10
-196.78599999999989
 20
-3498.2399999999998
 30
0.0
 70
    32
  0
VERTEX
  5
8D84
  8
01
 10
-196.87
 20
-3498.3000000000002
 30
0.0
 70
    32
  0
VERTEX
  5
8D85
  8
01
 10
-196.953
 20
-3498.3299999999999
 30
0.0
 70
    32
  0
VERTEX
  5
8D86
  8
01
 10
-197.035
 20
-3498.3899999999999
 30
0.0
 70
    32
  0
VERTEX
  5
8D87
  8
01
 10
-197.11600000000001
 20
-3498.4200000000001
 30
0.0
 70
    32
  0
VERTEX
  5
8D88
  8
01
 10
-197.197
 20
-3498.4800000000009
 30
0.0
 70
    32
  0
VERTEX
  5
8D89
  8
01
 10
-197.27600000000001
 20
-3498.54
 30
0.0
 70
    32
  0
VERTEX
  5
8D8A
  8
01
 10
-197.35499999999999
 20
-3498.5700000000002
 30
0.0
 70
    32
  0
VERTEX
  5
8D8B
  8
01
 10
-197.434
 20
-3498.6300000000001
 30
0.0
 70
    32
  0
VERTEX
  5
8D8C
  8
01
 10
-197.511
 20
-3498.6900000000001
 30
0.0
 70
    32
  0
VERTEX
  5
8D8D
  8
01
 10
-197.58699999999999
 20
-3498.7500000000009
 30
0.0
 70
    32
  0
VERTEX
  5
8D8E
  8
01
 10
-197.66300000000001
 20
-3498.8100000000009
 30
0.0
 70
    32
  0
VERTEX
  5
8D8F
  8
01
 10
-197.73699999999999
 20
-3498.8699999999999
 30
0.0
 70
    32
  0
VERTEX
  5
8D90
  8
01
 10
-197.81100000000001
 20
-3498.9000000000001
 30
0.0
 70
    32
  0
VERTEX
  5
8D91
  8
01
 10
-197.88399999999999
 20
-3498.96
 30
0.0
 70
    32
  0
VERTEX
  5
8D92
  8
01
 10
-197.95500000000001
 20
-3499.02
 30
0.0
 70
    32
  0
VERTEX
  5
8D93
  8
01
 10
-198.02600000000001
 20
-3499.1100000000001
 30
0.0
 70
    32
  0
VERTEX
  5
8D94
  8
01
 10
-198.09599999999989
 20
-3499.1700000000001
 30
0.0
 70
    32
  0
VERTEX
  5
8D95
  8
01
 10
-198.16499999999999
 20
-3499.2300000000009
 30
0.0
 70
    32
  0
VERTEX
  5
8D96
  8
01
 10
-198.232
 20
-3499.29
 30
0.0
 70
    32
  0
VERTEX
  5
8D97
  8
01
 10
-198.29900000000001
 20
-3499.3500000000008
 30
0.0
 70
    32
  0
VERTEX
  5
8D98
  8
01
 10
-198.364
 20
-3499.4099999999999
 30
0.0
 70
    32
  0
VERTEX
  5
8D99
  8
01
 10
-198.429
 20
-3499.5
 30
0.0
 70
    32
  0
VERTEX
  5
8D9A
  8
01
 10
-198.49199999999999
 20
-3499.5600000000009
 30
0.0
 70
    32
  0
VERTEX
  5
8D9B
  8
01
 10
-198.554
 20
-3499.6199999999999
 30
0.0
 70
    32
  0
VERTEX
  5
8D9C
  8
01
 10
-198.61600000000001
 20
-3499.71
 30
0.0
 70
    32
  0
VERTEX
  5
8D9D
  8
01
 10
-198.67500000000001
 20
-3499.77
 30
0.0
 70
    32
  0
VERTEX
  5
8D9E
  8
01
 10
-198.73400000000001
 20
-3499.8600000000001
 30
0.0
 70
    32
  0
VERTEX
  5
8D9F
  8
01
 10
-198.792
 20
-3499.9200000000001
 30
0.0
 70
    32
  0
VERTEX
  5
8DA0
  8
01
 10
-198.84800000000001
 20
-3500.0100000000002
 30
0.0
 70
    32
  0
VERTEX
  5
8DA1
  8
01
 10
-198.90299999999991
 20
-3500.0700000000002
 30
0.0
 70
    32
  0
VERTEX
  5
8DA2
  8
01
 10
-198.95699999999999
 20
-3500.1599999999999
 30
0.0
 70
    32
  0
VERTEX
  5
8DA3
  8
01
 10
-199.00999999999999
 20
-3500.2199999999998
 30
0.0
 70
    32
  0
VERTEX
  5
8DA4
  8
01
 10
-199.06100000000001
 20
-3500.3100000000009
 30
0.0
 70
    32
  0
VERTEX
  5
8DA5
  8
01
 10
-199.11099999999999
 20
-3500.4000000000001
 30
0.0
 70
    32
  0
VERTEX
  5
8DA6
  8
01
 10
-199.16
 20
-3500.46
 30
0.0
 70
    32
  0
SEQEND
  5
8DA7
  8
01
  0
LINE
  5
8DA8
  8
01
 10
-189.15979999999999
 20
-3500.465999999999
 30
0.0
 11
0.8402
 21
-3500.465999999999
 31
0.0
  0
LINE
  5
8DA9
  8
01
 10
10.840199999999999
 20
-3500.465999999999
 30
0.0
 11
25.340199999999999
 21
-3500.465999999999
 31
0.0
  0
POLYLINE
  5
8DAA
  8
01
 66
     1
 10
0.0
 20
0.0
 30
0.0
 70
     8
  0
VERTEX
  5
8DAB
  8
01
 10
77.840199999999996
 20
-3494.46
 30
0.0
 70
    32
  0
VERTEX
  5
8DAC
  8
01
 10
77.832999999999998
 20
-3494.1599999999999
 30
0.0
 70
    32
  0
VERTEX
  5
8DAD
  8
01
 10
77.811300000000003
 20
-3493.8899999999999
 30
0.0
 70
    32
  0
VERTEX
  5
8DAE
  8
01
 10
77.775300000000001
 20
-3493.5900000000011
 30
0.0
 70
    32
  0
VERTEX
  5
8DAF
  8
01
 10
77.724900000000005
 20
-3493.29
 30
0.0
 70
    32
  0
VERTEX
  5
8DB0
  8
01
 10
77.660399999999996
 20
-3493.02
 30
0.0
 70
    32
  0
VERTEX
  5
8DB1
  8
01
 10
77.581800000000001
 20
-3492.7200000000012
 30
0.0
 70
    32
  0
VERTEX
  5
8DB2
  8
01
 10
77.489500000000007
 20
-3492.4499999999998
 30
0.0
 70
    32
  0
VERTEX
  5
8DB3
  8
01
 10
77.383499999999998
 20
-3492.1799999999998
 30
0.0
 70
    32
  0
VERTEX
  5
8DB4
  8
01
 10
77.264099999999999
 20
-3491.9099999999999
 30
0.0
 70
    32
  0
VERTEX
  5
8DB5
  8
01
 10
77.131699999999995
 20
-3491.6399999999999
 30
0.0
 70
    32
  0
VERTEX
  5
8DB6
  8
01
 10
76.986599999999996
 20
-3491.3699999999999
 30
0.0
 70
    32
  0
VERTEX
  5
8DB7
  8
01
 10
76.828999999999994
 20
-3491.1300000000001
 30
0.0
 70
    32
  0
VERTEX
  5
8DB8
  8
01
 10
76.659400000000005
 20
-3490.8899999999999
 30
0.0
 70
    32
  0
VERTEX
  5
8DB9
  8
01
 10
76.478300000000004
 20
-3490.6500000000001
 30
0.0
 70
    32
  0
VERTEX
  5
8DBA
  8
01
 10
76.285899999999984
 20
-3490.4400000000001
 30
0.0
 70
    32
  0
VERTEX
  5
8DBB
  8
01
 10
76.082800000000006
 20
-3490.23
 30
0.0
 70
    32
  0
VERTEX
  5
8DBC
  8
01
 10
75.869600000000005
 20
-3490.02
 30
0.0
 70
    32
  0
VERTEX
  5
8DBD
  8
01
 10
75.646600000000007
 20
-3489.8400000000001
 30
0.0
 70
    32
  0
VERTEX
  5
8DBE
  8
01
 10
75.414400000000001
 20
-3489.6599999999999
 30
0.0
 70
    32
  0
VERTEX
  5
8DBF
  8
01
 10
75.173599999999993
 20
-3489.48
 30
0.0
 70
    32
  0
VERTEX
  5
8DC0
  8
01
 10
74.924800000000005
 20
-3489.3300000000008
 30
0.0
 70
    32
  0
VERTEX
  5
8DC1
  8
01
 10
74.668599999999998
 20
-3489.1799999999998
 30
0.0
 70
    32
  0
VERTEX
  5
8DC2
  8
01
 10
74.405500000000004
 20
-3489.0300000000002
 30
0.0
 70
    32
  0
VERTEX
  5
8DC3
  8
01
 10
74.136300000000006
 20
-3488.9099999999999
 30
0.0
 70
    32
  0
VERTEX
  5
8DC4
  8
01
 10
73.861500000000007
 20
-3488.8200000000002
 30
0.0
 70
    32
  0
VERTEX
  5
8DC5
  8
01
 10
73.581900000000005
 20
-3488.73
 30
0.0
 70
    32
  0
VERTEX
  5
8DC6
  8
01
 10
73.298100000000005
 20
-3488.6399999999999
 30
0.0
 70
    32
  0
VERTEX
  5
8DC7
  8
01
 10
73.0107
 20
-3488.5800000000008
 30
0.0
 70
    32
  0
VERTEX
  5
8DC8
  8
01
 10
72.720600000000005
 20
-3488.52
 30
0.0
 70
    32
  0
VERTEX
  5
8DC9
  8
01
 10
72.428299999999993
 20
-3488.4899999999998
 30
0.0
 70
    32
  0
VERTEX
  5
8DCA
  8
01
 10
72.134600000000006
 20
-3488.46
 30
0.0
 70
    32
  0
VERTEX
  5
8DCB
  8
01
 10
71.840199999999996
 20
-3488.46
 30
0.0
 70
    32
  0
VERTEX
  5
8DCC
  8
01
 10
71.5458
 20
-3488.46
 30
0.0
 70
    32
  0
VERTEX
  5
8DCD
  8
01
 10
71.252099999999999
 20
-3488.4899999999998
 30
0.0
 70
    32
  0
VERTEX
  5
8DCE
  8
01
 10
70.959800000000001
 20
-3488.52
 30
0.0
 70
    32
  0
VERTEX
  5
8DCF
  8
01
 10
70.669700000000006
 20
-3488.5800000000008
 30
0.0
 70
    32
  0
VERTEX
  5
8DD0
  8
01
 10
70.382300000000001
 20
-3488.6399999999999
 30
0.0
 70
    32
  0
VERTEX
  5
8DD1
  8
01
 10
70.098500000000001
 20
-3488.73
 30
0.0
 70
    32
  0
VERTEX
  5
8DD2
  8
01
 10
69.818899999999985
 20
-3488.8200000000002
 30
0.0
 70
    32
  0
VERTEX
  5
8DD3
  8
01
 10
69.5441
 20
-3488.9099999999999
 30
0.0
 70
    32
  0
VERTEX
  5
8DD4
  8
01
 10
69.274900000000002
 20
-3489.0300000000002
 30
0.0
 70
    32
  0
VERTEX
  5
8DD5
  8
01
 10
69.011799999999994
 20
-3489.1799999999998
 30
0.0
 70
    32
  0
VERTEX
  5
8DD6
  8
01
 10
68.755600000000001
 20
-3489.3300000000008
 30
0.0
 70
    32
  0
VERTEX
  5
8DD7
  8
01
 10
68.506799999999998
 20
-3489.48
 30
0.0
 70
    32
  0
VERTEX
  5
8DD8
  8
01
 10
68.266000000000005
 20
-3489.6599999999999
 30
0.0
 70
    32
  0
VERTEX
  5
8DD9
  8
01
 10
68.033799999999999
 20
-3489.8400000000001
 30
0.0
 70
    32
  0
VERTEX
  5
8DDA
  8
01
 10
67.8108
 20
-3490.02
 30
0.0
 70
    32
  0
VERTEX
  5
8DDB
  8
01
 10
67.597599999999986
 20
-3490.23
 30
0.0
 70
    32
  0
VERTEX
  5
8DDC
  8
01
 10
67.394499999999994
 20
-3490.4400000000001
 30
0.0
 70
    32
  0
VERTEX
  5
8DDD
  8
01
 10
67.202100000000002
 20
-3490.6500000000001
 30
0.0
 70
    32
  0
VERTEX
  5
8DDE
  8
01
 10
67.021000000000001
 20
-3490.8899999999999
 30
0.0
 70
    32
  0
VERTEX
  5
8DDF
  8
01
 10
66.851399999999998
 20
-3491.1300000000001
 30
0.0
 70
    32
  0
VERTEX
  5
8DE0
  8
01
 10
66.693799999999996
 20
-3491.3699999999999
 30
0.0
 70
    32
  0
VERTEX
  5
8DE1
  8
01
 10
66.548699999999997
 20
-3491.6399999999999
 30
0.0
 70
    32
  0
VERTEX
  5
8DE2
  8
01
 10
66.416300000000007
 20
-3491.9099999999999
 30
0.0
 70
    32
  0
VERTEX
  5
8DE3
  8
01
 10
66.296899999999994
 20
-3492.1799999999998
 30
0.0
 70
    32
  0
VERTEX
  5
8DE4
  8
01
 10
66.190899999999985
 20
-3492.4499999999998
 30
0.0
 70
    32
  0
VERTEX
  5
8DE5
  8
01
 10
66.098600000000005
 20
-3492.7200000000012
 30
0.0
 70
    32
  0
VERTEX
  5
8DE6
  8
01
 10
66.019999999999996
 20
-3493.02
 30
0.0
 70
    32
  0
VERTEX
  5
8DE7
  8
01
 10
65.955500000000001
 20
-3493.29
 30
0.0
 70
    32
  0
VERTEX
  5
8DE8
  8
01
 10
65.905100000000004
 20
-3493.5900000000011
 30
0.0
 70
    32
  0
VERTEX
  5
8DE9
  8
01
 10
65.869100000000003
 20
-3493.8899999999999
 30
0.0
 70
    32
  0
VERTEX
  5
8DEA
  8
01
 10
65.847399999999993
 20
-3494.1599999999999
 30
0.0
 70
    32
  0
VERTEX
  5
8DEB
  8
01
 10
65.840199999999996
 20
-3494.46
 30
0.0
 70
    32
  0
VERTEX
  5
8DEC
  8
01
 10
65.847399999999993
 20
-3494.7600000000002
 30
0.0
 70
    32
  0
VERTEX
  5
8DED
  8
01
 10
65.869100000000003
 20
-3495.0599999999999
 30
0.0
 70
    32
  0
VERTEX
  5
8DEE
  8
01
 10
65.905100000000004
 20
-3495.3600000000001
 30
0.0
 70
    32
  0
VERTEX
  5
8DEF
  8
01
 10
65.955500000000001
 20
-3495.6300000000001
 30
0.0
 70
    32
  0
VERTEX
  5
8DF0
  8
01
 10
66.019999999999996
 20
-3495.9299999999998
 30
0.0
 70
    32
  0
VERTEX
  5
8DF1
  8
01
 10
66.098600000000005
 20
-3496.1999999999998
 30
0.0
 70
    32
  0
VERTEX
  5
8DF2
  8
01
 10
66.190899999999985
 20
-3496.5000000000009
 30
0.0
 70
    32
  0
VERTEX
  5
8DF3
  8
01
 10
66.296899999999994
 20
-3496.77
 30
0.0
 70
    32
  0
VERTEX
  5
8DF4
  8
01
 10
66.416300000000007
 20
-3497.04
 30
0.0
 70
    32
  0
VERTEX
  5
8DF5
  8
01
 10
66.548699999999997
 20
-3497.2800000000002
 30
0.0
 70
    32
  0
VERTEX
  5
8DF6
  8
01
 10
66.693799999999996
 20
-3497.5500000000002
 30
0.0
 70
    32
  0
VERTEX
  5
8DF7
  8
01
 10
66.851399999999998
 20
-3497.79
 30
0.0
 70
    32
  0
VERTEX
  5
8DF8
  8
01
 10
67.021000000000001
 20
-3498.0300000000002
 30
0.0
 70
    32
  0
VERTEX
  5
8DF9
  8
01
 10
67.202100000000002
 20
-3498.27
 30
0.0
 70
    32
  0
VERTEX
  5
8DFA
  8
01
 10
67.394499999999994
 20
-3498.4800000000009
 30
0.0
 70
    32
  0
VERTEX
  5
8DFB
  8
01
 10
67.597599999999986
 20
-3498.7199999999998
 30
0.0
 70
    32
  0
VERTEX
  5
8DFC
  8
01
 10
67.8108
 20
-3498.9000000000001
 30
0.0
 70
    32
  0
VERTEX
  5
8DFD
  8
01
 10
68.033799999999999
 20
-3499.1100000000001
 30
0.0
 70
    32
  0
VERTEX
  5
8DFE
  8
01
 10
68.266000000000005
 20
-3499.29
 30
0.0
 70
    32
  0
VERTEX
  5
8DFF
  8
01
 10
68.506799999999998
 20
-3499.4400000000001
 30
0.0
 70
    32
  0
VERTEX
  5
8E00
  8
01
 10
68.755600000000001
 20
-3499.6199999999999
 30
0.0
 70
    32
  0
VERTEX
  5
8E01
  8
01
 10
69.011799999999994
 20
-3499.77
 30
0.0
 70
    32
  0
VERTEX
  5
8E02
  8
01
 10
69.274900000000002
 20
-3499.8900000000008
 30
0.0
 70
    32
  0
VERTEX
  5
8E03
  8
01
 10
69.5441
 20
-3500.0100000000002
 30
0.0
 70
    32
  0
VERTEX
  5
8E04
  8
01
 10
69.818899999999985
 20
-3500.1000000000008
 30
0.0
 70
    32
  0
VERTEX
  5
8E05
  8
01
 10
70.098500000000001
 20
-3500.2199999999998
 30
0.0
 70
    32
  0
VERTEX
  5
8E06
  8
01
 10
70.382300000000001
 20
-3500.2800000000002
 30
0.0
 70
    32
  0
VERTEX
  5
8E07
  8
01
 10
70.669700000000006
 20
-3500.3400000000001
 30
0.0
 70
    32
  0
VERTEX
  5
8E08
  8
01
 10
70.959800000000001
 20
-3500.4000000000001
 30
0.0
 70
    32
  0
VERTEX
  5
8E09
  8
01
 10
71.252099999999999
 20
-3500.4299999999998
 30
0.0
 70
    32
  0
VERTEX
  5
8E0A
  8
01
 10
71.5458
 20
-3500.46
 30
0.0
 70
    32
  0
VERTEX
  5
8E0B
  8
01
 10
71.840199999999996
 20
-3500.46
 30
0.0
 70
    32
  0
VERTEX
  5
8E0C
  8
01
 10
72.134600000000006
 20
-3500.46
 30
0.0
 70
    32
  0
VERTEX
  5
8E0D
  8
01
 10
72.428299999999993
 20
-3500.4299999999998
 30
0.0
 70
    32
  0
VERTEX
  5
8E0E
  8
01
 10
72.720600000000005
 20
-3500.4000000000001
 30
0.0
 70
    32
  0
VERTEX
  5
8E0F
  8
01
 10
73.0107
 20
-3500.3400000000001
 30
0.0
 70
    32
  0
VERTEX
  5
8E10
  8
01
 10
73.298100000000005
 20
-3500.2800000000002
 30
0.0
 70
    32
  0
VERTEX
  5
8E11
  8
01
 10
73.581900000000005
 20
-3500.2199999999998
 30
0.0
 70
    32
  0
VERTEX
  5
8E12
  8
01
 10
73.861500000000007
 20
-3500.1000000000008
 30
0.0
 70
    32
  0
VERTEX
  5
8E13
  8
01
 10
74.136300000000006
 20
-3500.0100000000002
 30
0.0
 70
    32
  0
VERTEX
  5
8E14
  8
01
 10
74.405500000000004
 20
-3499.8900000000008
 30
0.0
 70
    32
  0
VERTEX
  5
8E15
  8
01
 10
74.668599999999998
 20
-3499.77
 30
0.0
 70
    32
  0
VERTEX
  5
8E16
  8
01
 10
74.924800000000005
 20
-3499.6199999999999
 30
0.0
 70
    32
  0
VERTEX
  5
8E17
  8
01
 10
75.173599999999993
 20
-3499.4400000000001
 30
0.0
 70
    32
  0
VERTEX
  5
8E18
  8
01
 10
75.414400000000001
 20
-3499.29
 30
0.0
 70
    32
  0
VERTEX
  5
8E19
  8
01
 10
75.646600000000007
 20
-3499.1100000000001
 30
0.0
 70
    32
  0
VERTEX
  5
8E1A
  8
01
 10
75.869600000000005
 20
-3498.9000000000001
 30
0.0
 70
    32
  0
VERTEX
  5
8E1B
  8
01
 10
76.082800000000006
 20
-3498.7199999999998
 30
0.0
 70
    32
  0
VERTEX
  5
8E1C
  8
01
 10
76.285899999999984
 20
-3498.4800000000009
 30
0.0
 70
    32
  0
VERTEX
  5
8E1D
  8
01
 10
76.478300000000004
 20
-3498.27
 30
0.0
 70
    32
  0
VERTEX
  5
8E1E
  8
01
 10
76.659400000000005
 20
-3498.0300000000002
 30
0.0
 70
    32
  0
VERTEX
  5
8E1F
  8
01
 10
76.828999999999994
 20
-3497.79
 30
0.0
 70
    32
  0
VERTEX
  5
8E20
  8
01
 10
76.986599999999996
 20
-3497.5500000000002
 30
0.0
 70
    32
  0
VERTEX
  5
8E21
  8
01
 10
77.131699999999995
 20
-3497.2800000000002
 30
0.0
 70
    32
  0
VERTEX
  5
8E22
  8
01
 10
77.264099999999999
 20
-3497.04
 30
0.0
 70
    32
  0
VERTEX
  5
8E23
  8
01
 10
77.383499999999998
 20
-3496.77
 30
0.0
 70
    32
  0
VERTEX
  5
8E24
  8
01
 10
77.489500000000007
 20
-3496.5000000000009
 30
0.0
 70
    32
  0
VERTEX
  5
8E25
  8
01
 10
77.581800000000001
 20
-3496.1999999999998
 30
0.0
 70
    32
  0
VERTEX
  5
8E26
  8
01
 10
77.660399999999996
 20
-3495.9299999999998
 30
0.0
 70
    32
  0
VERTEX
  5
8E27
  8
01
 10
77.724900000000005
 20
-3495.6300000000001
 30
0.0
 70
    32
  0
VERTEX
  5
8E28
  8
01
 10
77.775300000000001
 20
-3495.3600000000001
 30
0.0
 70
    32
  0
VERTEX
  5
8E29
  8
01
 10
77.811300000000003
 20
-3495.0599999999999
 30
0.0
 70
    32
  0
VERTEX
  5
8E2A
  8
01
 10
77.832999999999998
 20
-3494.7600000000002
 30
0.0
 70
    32
  0
VERTEX
  5
8E2B
  8
01
 10
77.840199999999996
 20
-3494.46
 30
0.0
 70
    32
  0
SEQEND
  5
8E2C
  8
01
  0
LINE
  5
8E2D
  8
01
 10
-213.65979999999999
 20
-3416.466300000001
 30
0.0
 11
25.340199999999999
 21
-3416.466300000001
 31
0.0
  0
LINE
  5
8E2E
  8
01
 10
-214.15979999999999
 20
-3416.966100000001
 30
0.0
 11
-214.15979999999999
 21
-3427.9661999999998
 31
0.0
  0
LINE
  5
8E2F
  8
01
 10
25.840199999999999
 20
-3416.966100000001
 30
0.0
 11
25.840199999999999
 21
-3427.9661999999998
 31
0.0
  0
LINE
  5
8E30
  8
01
 10
-213.65979999999999
 20
-3416.466300000001
 30
0.0
 11
-214.15979999999999
 21
-3416.966100000001
 31
0.0
  0
LINE
  5
8E31
  8
01
 10
-214.15979999999999
 20
-3427.9661999999998
 30
0.0
 11
-213.65979999999999
 21
-3428.4659999999999
 31
0.0
  0
LINE
  5
8E32
  8
01
 10
-213.65979999999999
 20
-3416.466300000001
 30
0.0
 11
-213.65979999999999
 21
-3428.4659999999999
 31
0.0
  0
LINE
  5
8E33
  8
01
 10
25.840199999999999
 20
-3416.966100000001
 30
0.0
 11
25.340199999999999
 21
-3416.466300000001
 31
0.0
  0
LINE
  5
8E34
  8
01
 10
25.840199999999999
 20
-3427.9661999999998
 30
0.0
 11
25.340199999999999
 21
-3428.4659999999999
 31
0.0
  0
LINE
  5
8E35
  8
01
 10
25.340199999999999
 20
-3416.466300000001
 30
0.0
 11
25.340199999999999
 21
-3428.4659999999999
 31
0.0
  0
LINE
  5
8E36
  8
01
 10
-213.65979999999999
 20
-3428.4659999999999
 30
0.0
 11
25.340199999999999
 21
-3428.4659999999999
 31
0.0
  0
LINE
  5
8E37
  8
1CENTER
 10
5.8402000000000003
 20
-3425.4659999999999
 30
0.0
 11
5.8402000000000003
 21
-3419.465999999999
 31
0.0
  0
LINE
  5
8E38
  8
1CENTER
 10
2.8401999999999989
 20
-3422.4659999999999
 30
0.0
 11
8.8401999999999994
 21
-3422.4659999999999
 31
0.0
  0
LINE
  5
8E39
  8
1CENTER
 10
-194.15979999999999
 20
-3425.4659999999999
 30
0.0
 11
-194.15979999999999
 21
-3419.465999999999
 31
0.0
  0
LINE
  5
8E3A
  8
1CENTER
 10
-197.15979999999999
 20
-3422.4659999999999
 30
0.0
 11
-191.15979999999999
 21
-3422.4659999999999
 31
0.0
  0
LINE
  5
8E3B
  8
1CENTER
 10
5.8402000000000003
 20
-3511.466100000001
 30
0.0
 11
5.8402000000000003
 21
-3523.466100000001
 31
0.0
  0
LINE
  5
8E3C
  8
1CENTER
 10
-194.15979999999999
 20
-3511.466100000001
 30
0.0
 11
-194.15979999999999
 21
-3523.466100000001
 31
0.0
  0
LINE
  5
8E3D
  8
1CENTER
 10
71.840199999999996
 20
-3511.466100000001
 30
0.0
 11
71.840199999999996
 21
-3523.466100000001
 31
0.0
  0
LINE
  5
8E3E
  8
1DIM
 10
-189.15979999999999
 20
-3521.4659999999999
 30
0.0
 11
-189.15979999999999
 21
-3542.4659999999999
 31
0.0
  0
LINE
  5
8E3F
  8
1DIM
 10
0.8402
 20
-3521.4659999999999
 30
0.0
 11
0.8402
 21
-3542.4659999999999
 31
0.0
  0
LINE
  5
8E40
  8
1DIM
 10
-187.15979999999999
 20
-3541.466100000001
 30
0.0
 11
-1.1597999999999991
 21
-3541.466100000001
 31
0.0
  0
LINE
  5
8E41
  8
0
  6
BYBLOCK
 10
-187.15979999999999
 20
-3542.0019000000011
 30
0.0
 11
-189.15979999999999
 21
-3541.466100000001
 31
0.0
  0
LINE
  5
8E42
  8
0
  6
BYBLOCK
 10
-189.15979999999999
 20
-3541.466100000001
 30
0.0
 11
-187.15979999999999
 21
-3540.9299999999998
 31
0.0
  0
LINE
  5
8E43
  8
0
  6
BYBLOCK
 10
-189.15979999999999
 20
-3541.466100000001
 30
0.0
 11
-187.15979999999999
 21
-3541.466100000001
 31
0.0
  0
LINE
  5
8E44
  8
0
  6
BYBLOCK
 10
-1.1597999999999991
 20
-3540.9299999999998
 30
0.0
 11
0.8402
 21
-3541.466100000001
 31
0.0
  0
LINE
  5
8E45
  8
0
  6
BYBLOCK
 10
0.8402
 20
-3541.466100000001
 30
0.0
 11
-1.1597999999999991
 21
-3542.0019000000011
 31
0.0
  0
LINE
  5
8E46
  8
0
  6
BYBLOCK
 10
0.8402
 20
-3541.466100000001
 30
0.0
 11
-1.1597999999999991
 21
-3541.466100000001
 31
0.0
  0
TEXT
  5
8E47
  8
1DIM
 10
-97.951499999999996
 20
-3540.7658999999999
 30
0.0
 40
3.5001000000002018
  1
190 
  0
LINE
  5
8E48
  8
1DIM
 10
-194.15979999999999
 20
-3523.466100000001
 30
0.0
 11
-194.15979999999999
 21
-3552.4659000000001
 31
0.0
  0
LINE
  5
8E49
  8
1DIM
 10
5.8402000000000003
 20
-3523.466100000001
 30
0.0
 11
5.8402000000000003
 21
-3552.4659000000001
 31
0.0
  0
LINE
  5
8E4A
  8
1DIM
 10
-192.15979999999999
 20
-3551.4659999999999
 30
0.0
 11
3.8401999999999989
 21
-3551.4659999999999
 31
0.0
  0
LINE
  5
8E4B
  8
0
  6
BYBLOCK
 10
-192.15979999999999
 20
-3552.0018
 30
0.0
 11
-194.15979999999999
 21
-3551.4659999999999
 31
0.0
  0
LINE
  5
8E4C
  8
0
  6
BYBLOCK
 10
-194.15979999999999
 20
-3551.4659999999999
 30
0.0
 11
-192.15979999999999
 21
-3550.9301999999998
 31
0.0
  0
LINE
  5
8E4D
  8
0
  6
BYBLOCK
 10
-194.15979999999999
 20
-3551.4659999999999
 30
0.0
 11
-192.15979999999999
 21
-3551.4659999999999
 31
0.0
  0
LINE
  5
8E4E
  8
0
  6
BYBLOCK
 10
3.8401999999999989
 20
-3550.9301999999998
 30
0.0
 11
5.8402000000000003
 21
-3551.4659999999999
 31
0.0
  0
LINE
  5
8E4F
  8
0
  6
BYBLOCK
 10
5.8402000000000003
 20
-3551.4659999999999
 30
0.0
 11
3.8401999999999989
 21
-3552.0018
 31
0.0
  0
LINE
  5
8E50
  8
0
  6
BYBLOCK
 10
5.8402000000000003
 20
-3551.4659999999999
 30
0.0
 11
3.8401999999999989
 21
-3551.4659999999999
 31
0.0
  0
TEXT
  5
8E51
  8
1DIM
 10
-99.993100000000013
 20
-3550.7660999999998
 30
0.0
 40
3.5000999999997471
  1
P200 
  0
LINE
  5
8E52
  8
1DIM
 10
-214.15979999999999
 20
-3499.9659000000001
 30
0.0
 11
-214.15979999999999
 21
-3552.4659000000001
 31
0.0
  0
LINE
  5
8E53
  8
1DIM
 10
-194.15979999999999
 20
-3523.466100000001
 30
0.0
 11
-194.15979999999999
 21
-3552.4659000000001
 31
0.0
  0
LINE
  5
8E54
  8
1DIM
 10
-212.15979999999999
 20
-3551.4659999999999
 30
0.0
 11
-196.15979999999999
 21
-3551.4659999999999
 31
0.0
  0
LINE
  5
8E55
  8
0
  6
BYBLOCK
 10
-212.15979999999999
 20
-3552.0018
 30
0.0
 11
-214.15979999999999
 21
-3551.4659999999999
 31
0.0
  0
LINE
  5
8E56
  8
0
  6
BYBLOCK
 10
-214.15979999999999
 20
-3551.4659999999999
 30
0.0
 11
-212.15979999999999
 21
-3550.9301999999998
 31
0.0
  0
LINE
  5
8E57
  8
0
  6
BYBLOCK
 10
-214.15979999999999
 20
-3551.4659999999999
 30
0.0
 11
-212.15979999999999
 21
-3551.4659999999999
 31
0.0
  0
LINE
  5
8E58
  8
0
  6
BYBLOCK
 10
-196.15979999999999
 20
-3550.9301999999998
 30
0.0
 11
-194.15979999999999
 21
-3551.4659999999999
 31
0.0
  0
LINE
  5
8E59
  8
0
  6
BYBLOCK
 10
-194.15979999999999
 20
-3551.4659999999999
 30
0.0
 11
-196.15979999999999
 21
-3552.0018
 31
0.0
  0
LINE
  5
8E5A
  8
0
  6
BYBLOCK
 10
-194.15979999999999
 20
-3551.4659999999999
 30
0.0
 11
-196.15979999999999
 21
-3551.4659999999999
 31
0.0
  0
TEXT
  5
8E5B
  8
1DIM
 10
-206.78479999999999
 20
-3550.7660999999998
 30
0.0
 40
3.5000999999997471
  1
20 
  0
LINE
  5
8E5C
  8
1DIM
 10
5.8402000000000003
 20
-3523.466100000001
 30
0.0
 11
5.8402000000000003
 21
-3552.4659000000001
 31
0.0
  0
LINE
  5
8E5D
  8
1DIM
 10
25.840199999999999
 20
-3499.9659000000001
 30
0.0
 11
25.840199999999999
 21
-3552.4659000000001
 31
0.0
  0
LINE
  5
8E5E
  8
1DIM
 10
7.8402000000000003
 20
-3551.4659999999999
 30
0.0
 11
23.840199999999999
 21
-3551.4659999999999
 31
0.0
  0
LINE
  5
8E5F
  8
0
  6
BYBLOCK
 10
7.8402000000000003
 20
-3552.0018
 30
0.0
 11
5.8402000000000003
 21
-3551.4659999999999
 31
0.0
  0
LINE
  5
8E60
  8
0
  6
BYBLOCK
 10
5.8402000000000003
 20
-3551.4659999999999
 30
0.0
 11
7.8402000000000003
 21
-3550.9301999999998
 31
0.0
  0
LINE
  5
8E61
  8
0
  6
BYBLOCK
 10
5.8402000000000003
 20
-3551.4659999999999
 30
0.0
 11
7.8402000000000003
 21
-3551.4659999999999
 31
0.0
  0
LINE
  5
8E62
  8
0
  6
BYBLOCK
 10
23.840199999999999
 20
-3550.9301999999998
 30
0.0
 11
25.840199999999999
 21
-3551.4659999999999
 31
0.0
  0
LINE
  5
8E63
  8
0
  6
BYBLOCK
 10
25.840199999999999
 20
-3551.4659999999999
 30
0.0
 11
23.840199999999999
 21
-3552.0018
 31
0.0
  0
LINE
  5
8E64
  8
0
  6
BYBLOCK
 10
25.840199999999999
 20
-3551.4659999999999
 30
0.0
 11
23.840199999999999
 21
-3551.4659999999999
 31
0.0
  0
TEXT
  5
8E65
  8
1DIM
 10
13.215199999999999
 20
-3550.7660999999998
 30
0.0
 40
3.5000999999997471
  1
20 
  0
LINE
  5
8E66
  8
1DIM
 10
25.340199999999999
 20
-3488.4659999999999
 30
0.0
 11
56.840200000000003
 21
-3488.4659999999999
 31
0.0
  0
LINE
  5
8E67
  8
1DIM
 10
25.840199999999999
 20
-3521.4659999999999
 30
0.0
 11
56.840200000000003
 21
-3521.4659999999999
 31
0.0
  0
LINE
  5
8E68
  8
1DIM
 10
55.840200000000003
 20
-3490.466100000001
 30
0.0
 11
55.840200000000003
 21
-3519.4659000000001
 31
0.0
  0
LINE
  5
8E69
  8
0
  6
BYBLOCK
 10
55.304299999999991
 20
-3490.466100000001
 30
0.0
 11
55.840200000000003
 21
-3488.4659999999999
 31
0.0
  0
LINE
  5
8E6A
  8
0
  6
BYBLOCK
 10
55.840200000000003
 20
-3488.4659999999999
 30
0.0
 11
56.376100000000001
 21
-3490.466100000001
 31
0.0
  0
LINE
  5
8E6B
  8
0
  6
BYBLOCK
 10
55.840200000000003
 20
-3488.4659999999999
 30
0.0
 11
55.840200000000003
 21
-3490.466100000001
 31
0.0
  0
LINE
  5
8E6C
  8
0
  6
BYBLOCK
 10
56.376100000000001
 20
-3519.4659000000001
 30
0.0
 11
55.840200000000003
 21
-3521.4659999999999
 31
0.0
  0
LINE
  5
8E6D
  8
0
  6
BYBLOCK
 10
55.840200000000003
 20
-3521.4659999999999
 30
0.0
 11
55.304299999999991
 21
-3519.4659000000001
 31
0.0
  0
LINE
  5
8E6E
  8
0
  6
BYBLOCK
 10
55.840200000000003
 20
-3521.4659999999999
 30
0.0
 11
55.840200000000003
 21
-3519.4659000000001
 31
0.0
  0
TEXT
  5
8E6F
  8
1DIM
 10
55.1402
 20
-3507.8825999999999
 30
0.0
 40
3.5
  1
33 
 50
90.0
 41
0.9998999999997977
  0
LINE
  5
8E70
  8
1DIM
 10
25.340199999999999
 20
-3416.466300000001
 30
0.0
 11
56.840200000000003
 21
-3416.466300000001
 31
0.0
  0
LINE
  5
8E71
  8
1DIM
 10
25.340199999999999
 20
-3428.4659999999999
 30
0.0
 11
56.840200000000003
 21
-3428.4659999999999
 31
0.0
  0
LINE
  5
8E72
  8
1DIM
 10
55.840200000000003
 20
-3418.466100000001
 30
0.0
 11
55.840200000000003
 21
-3426.4661999999998
 31
0.0
  0
LINE
  5
8E73
  8
0
  6
BYBLOCK
 10
55.304299999999991
 20
-3418.466100000001
 30
0.0
 11
55.840200000000003
 21
-3416.466300000001
 31
0.0
  0
LINE
  5
8E74
  8
0
  6
BYBLOCK
 10
55.840200000000003
 20
-3416.466300000001
 30
0.0
 11
56.376100000000001
 21
-3418.466100000001
 31
0.0
  0
LINE
  5
8E75
  8
0
  6
BYBLOCK
 10
55.840200000000003
 20
-3416.466300000001
 30
0.0
 11
55.840200000000003
 21
-3418.466100000001
 31
0.0
  0
LINE
  5
8E76
  8
0
  6
BYBLOCK
 10
56.376100000000001
 20
-3426.4661999999998
 30
0.0
 11
55.840200000000003
 21
-3428.4659999999999
 31
0.0
  0
LINE
  5
8E77
  8
0
  6
BYBLOCK
 10
55.840200000000003
 20
-3428.4659999999999
 30
0.0
 11
55.304299999999991
 21
-3426.4661999999998
 31
0.0
  0
LINE
  5
8E78
  8
0
  6
BYBLOCK
 10
55.840200000000003
 20
-3428.4659999999999
 30
0.0
 11
55.840200000000003
 21
-3426.4661999999998
 31
0.0
  0
TEXT
  5
8E79
  8
1DIM
 10
55.1402
 20
-3427.2494999999999
 30
0.0
 40
3.5
  1
φ12
 50
90.0
 41
0.9998999999997977
  0
LINE
  5
8E7A
  8
1DIM
 10
-214.15979999999999
 20
-3427.9661999999998
 30
0.0
 11
-214.15979999999999
 21
-3449.4659999999999
 31
0.0
  0
LINE
  5
8E7B
  8
1DIM
 10
25.840199999999999
 20
-3427.9661999999998
 30
0.0
 11
25.840199999999999
 21
-3449.4659999999999
 31
0.0
  0
LINE
  5
8E7C
  8
1DIM
 10
-212.15979999999999
 20
-3448.466100000001
 30
0.0
 11
23.840199999999999
 21
-3448.466100000001
 31
0.0
  0
LINE
  5
8E7D
  8
0
  6
BYBLOCK
 10
-212.15979999999999
 20
-3449.0019000000011
 30
0.0
 11
-214.15979999999999
 21
-3448.466100000001
 31
0.0
  0
LINE
  5
8E7E
  8
0
  6
BYBLOCK
 10
-214.15979999999999
 20
-3448.466100000001
 30
0.0
 11
-212.15979999999999
 21
-3447.9303
 31
0.0
  0
LINE
  5
8E7F
  8
0
  6
BYBLOCK
 10
-214.15979999999999
 20
-3448.466100000001
 30
0.0
 11
-212.15979999999999
 21
-3448.466100000001
 31
0.0
  0
LINE
  5
8E80
  8
0
  6
BYBLOCK
 10
23.840199999999999
 20
-3447.9303
 30
0.0
 11
25.840199999999999
 21
-3448.466100000001
 31
0.0
  0
LINE
  5
8E81
  8
0
  6
BYBLOCK
 10
25.840199999999999
 20
-3448.466100000001
 30
0.0
 11
23.840199999999999
 21
-3449.0019000000011
 31
0.0
  0
LINE
  5
8E82
  8
0
  6
BYBLOCK
 10
25.840199999999999
 20
-3448.466100000001
 30
0.0
 11
23.840199999999999
 21
-3448.466100000001
 31
0.0
  0
TEXT
  5
8E83
  8
1DIM
 10
-98.534800000000004
 20
-3447.7662
 30
0.0
 40
3.5001000000002018
  1
240 
  0
LINE
  5
8E84
  8
1DIM
 10
66.840199999999996
 20
-3521.4659999999999
 30
0.0
 11
66.840199999999996
 21
-3552.4659000000001
 31
0.0
  0
LINE
  5
8E85
  8
1DIM
 10
76.840199999999996
 20
-3521.4659999999999
 30
0.0
 11
76.840199999999996
 21
-3552.4659000000001
 31
0.0
  0
LINE
  5
8E86
  8
1DIM
 10
68.840199999999996
 20
-3551.4659999999999
 30
0.0
 11
74.840199999999996
 21
-3551.4659999999999
 31
0.0
  0
LINE
  5
8E87
  8
1DIM
 10
76.840199999999996
 20
-3551.4659999999999
 30
0.0
 11
89.906899999999979
 21
-3551.4659999999999
 31
0.0
  0
LINE
  5
8E88
  8
0
  6
BYBLOCK
 10
68.840199999999996
 20
-3552.0018
 30
0.0
 11
66.840199999999996
 21
-3551.4659999999999
 31
0.0
  0
LINE
  5
8E89
  8
0
  6
BYBLOCK
 10
66.840199999999996
 20
-3551.4659999999999
 30
0.0
 11
68.840199999999996
 21
-3550.9301999999998
 31
0.0
  0
LINE
  5
8E8A
  8
0
  6
BYBLOCK
 10
66.840199999999996
 20
-3551.4659999999999
 30
0.0
 11
68.840199999999996
 21
-3551.4659999999999
 31
0.0
  0
LINE
  5
8E8B
  8
0
  6
BYBLOCK
 10
74.840199999999996
 20
-3550.9301999999998
 30
0.0
 11
76.840199999999996
 21
-3551.4659999999999
 31
0.0
  0
LINE
  5
8E8C
  8
0
  6
BYBLOCK
 10
76.840199999999996
 20
-3551.4659999999999
 30
0.0
 11
74.840199999999996
 21
-3552.0018
 31
0.0
  0
LINE
  5
8E8D
  8
0
  6
BYBLOCK
 10
76.840199999999996
 20
-3551.4659999999999
 30
0.0
 11
74.840199999999996
 21
-3551.4659999999999
 31
0.0
  0
TEXT
  5
8E8E
  8
1DIM
 10
79.881900000000002
 20
-3550.7660999999998
 30
0.0
 40
3.5000999999997471
  1
φ10
  0
TEXT
  5
8E8F
  8
1TEXT
 10
-201.68260000000001
 20
-3396.4662000000012
 30
0.0
 40
8.0000999999997475
  1
PS01H200
  0
LINE
  5
8E90
  8
1DIM
 10
25.340199999999999
 20
-3500.465999999999
 30
0.0
 11
46.840200000000003
 21
-3500.465999999999
 31
0.0
  0
LINE
  5
8E91
  8
1DIM
 10
10.840199999999999
 20
-3521.4659999999999
 30
0.0
 11
46.840200000000003
 21
-3521.4659999999999
 31
0.0
  0
LINE
  5
8E92
  8
1DIM
 10
45.840200000000003
 20
-3502.466100000001
 30
0.0
 11
45.840200000000003
 21
-3519.4659000000001
 31
0.0
  0
LINE
  5
8E93
  8
0
  6
BYBLOCK
 10
45.304299999999991
 20
-3502.466100000001
 30
0.0
 11
45.840200000000003
 21
-3500.465999999999
 31
0.0
  0
LINE
  5
8E94
  8
0
  6
BYBLOCK
 10
45.840200000000003
 20
-3500.465999999999
 30
0.0
 11
46.376100000000001
 21
-3502.466100000001
 31
0.0
  0
LINE
  5
8E95
  8
0
  6
BYBLOCK
 10
45.840200000000003
 20
-3500.465999999999
 30
0.0
 11
45.840200000000003
 21
-3502.466100000001
 31
0.0
  0
LINE
  5
8E96
  8
0
  6
BYBLOCK
 10
46.376100000000001
 20
-3519.4659000000001
 30
0.0
 11
45.840200000000003
 21
-3521.4659999999999
 31
0.0
  0
LINE
  5
8E97
  8
0
  6
BYBLOCK
 10
45.840200000000003
 20
-3521.4659999999999
 30
0.0
 11
45.304299999999991
 21
-3519.4659000000001
 31
0.0
  0
LINE
  5
8E98
  8
0
  6
BYBLOCK
 10
45.840200000000003
 20
-3521.4659999999999
 30
0.0
 11
45.840200000000003
 21
-3519.4659000000001
 31
0.0
  0
TEXT
  5
8E99
  8
1DIM
 10
45.1402
 20
-3513.2993999999999
 30
0.0
 40
3.5
  1
21 
 50
90.0
 41
0.9998999999997977
  0
SOLID
  5
8E9A
  8
1DIM
 10
72.633899999999997
 20
-3523.3317000000002
 30
0.0
 11
71.840199999999996
 21
-3521.4659999999999
 31
0.0
 12
73.196100000000001
 22
-3522.9735000000001
 32
0.0
 13
73.196100000000001
 23
-3522.9735000000001
 33
0.0
  0
LINE
  5
8E9B
  8
1DIM
 10
72.915000000000006
 20
-3523.1525999999999
 30
0.0
 11
85.031899999999993
 21
-3542.1660000000002
 31
0.0
  0
LINE
  5
8E9C
  8
1DIM
 10
85.031899999999993
 20
-3542.1660000000002
 30
0.0
 11
104.8986
 21
-3542.1660000000002
 31
0.0
  0
TEXT
  5
8E9D
  8
1DIM
 10
87.731899999999996
 20
-3541.466100000001
 30
0.0
 40
3.5001000000002018
  1
M4-10
  0
LINE
  5
8E9E
  8
1DIM
 10
-214.15979999999999
 20
-3581.4659999999999
 30
0.0
 11
-144.15979999999999
 21
-3581.4659999999999
 31
0.0
  0
LINE
  5
8E9F
  8
1DIM
 10
-214.15979999999999
 20
-3588.4659000000001
 30
0.0
 11
-144.15979999999999
 21
-3588.4659000000001
 31
0.0
  0
LINE
  5
8EA0
  8
1DIM
 10
-214.15979999999999
 20
-3595.466100000001
 30
0.0
 11
-144.15979999999999
 21
-3595.466100000001
 31
0.0
  0
LINE
  5
8EA1
  8
1DIM
 10
-214.15979999999999
 20
-3581.4659999999999
 30
0.0
 11
-214.15979999999999
 21
-3595.466100000001
 31
0.0
  0
TEXT
  5
8EA2
  8
1TEXT
 10
-175.42612500000001
 20
-3593.966100000001
 30
0.0
 40
3.999900000000252
  1
PS01H200
 72
     1
 11
-161.75980000000001
 21
-3593.966100000001
 31
0.0
  0
LINE
  5
8EA3
  8
1DIM
 10
-179.15979999999999
 20
-3581.4659999999999
 30
0.0
 11
-179.15979999999999
 21
-3595.466100000001
 31
0.0
  0
TEXT
  5
8EA4
  8
1TEXT
 10
-208.22618
 20
-3593.966100000001
 30
0.0
 40
3.999900000000252
  1
ヘアライン
 72
     1
 11
-196.75980000000001
 21
-3593.966100000001
 31
0.0
  0
TEXT
  5
8EA5
  8
1TEXT
 10
-207.4071528571429
 20
-3586.9659000000001
 30
0.0
 40
3.999900000000252
  1
表面処理：
 72
     1
 11
-196.75980000000001
 21
-3586.9659000000001
 31
0.0
  0
LINE
  5
8EA6
  8
1DIM
 10
-144.15979999999999
 20
-3581.4659999999999
 30
0.0
 11
-144.15979999999999
 21
-3595.466100000001
 31
0.0
  0
TEXT
  5
8EA7
  8
1TEXT
 10
-168.55963
 20
-3586.9659000000001
 30
0.0
 40
3.999900000000252
  1
コード
 72
     1
 11
-161.75980000000001
 21
-3586.9659000000001
 31
0.0
  0
TEXT
  5
8EA8
  8
1TEXT
 10
-205.85733999999999
 20
-3577.6311000000001
 30
0.0
 40
3.9998999999997968
  1
材質：ステンレス
 72
     1
 11
-187.45779999999991
 21
-3577.6311000000001
 31
0.0
  0
VIEWPORT
  5
57
 67
     1
  8
0
 10
5.6154163991372421
 20
3.9020832317081959
 30
0.0
 40
12.7102895252974
 41
8.7461330960491512
 68
     1
 69
     1
1001
ACAD
1000
MVIEW
1002
{
1070
    16
1010
0.0
1020
0.0
1030
0.0
1010
0.0
1020
0.0
1030
1.0
1040
0.0
1040
8.7461330960491512
1040
5.6154163991372421
1040
3.9020832317081959
1040
50.0
1040
0.0
1040
0.0
1070
     0
1070
   100
1070
     1
1070
     1
1070
     0
1070
     0
1070
     0
1070
     0
1040
0.0
1040
0.0
1040
0.0
1040
10.0
1040
10.0
1040
10.0
1040
10.0
1070
     0
1002
{
1002
}
1002
}
  0
ENDSEC
  0
EOF
