  0
SECTION
  2
HEADER
  9
$ACADVER
  1
AC1018
  9
$ACADMAINTVER
 70
   104
  9
$DWGCODEPAGE
  3
ANSI_1252
  9
$LASTSAVEDBY
  1
Jen
  9
$INSBASE
 10
0.0
 20
0.0
 30
0.0
  9
$EXTMIN
 10
-135.8361889777151
 20
-30.99999999999199
 30
0.0
  9
$EXTMAX
 10
119.5583801364848
 20
173.0062367118497
 30
0.0
  9
$LIMMIN
 10
0.0
 20
0.0
  9
$LIMMAX
 10
420.0
 20
297.0
  9
$ORTHOMODE
 70
     0
  9
$REGENMODE
 70
     1
  9
$FILLMODE
 70
     1
  9
$QTEXTMODE
 70
     0
  9
$MIRRTEXT
 70
     0
  9
$LTSCALE
 40
0.5
  9
$ATTMODE
 70
     1
  9
$TEXTSIZE
 40
4.0
  9
$TRACEWID
 40
1.0
  9
$TEXTSTYLE
  7
STANDARD
  9
$CLAYER
  8
1TEXT
  9
$CELTYPE
  6
BYLAYER
  9
$CECOLOR
 62
   256
  9
$CELTSCALE
 40
1.0
  9
$DISPSILH
 70
     0
  9
$DIMSCALE
 40
1.0
  9
$DIMASZ
 40
2.0
  9
$DIMEXO
 40
0.0
  9
$DIMDLI
 40
7.0
  9
$DIMRND
 40
0.0
  9
$DIMDLE
 40
0.0
  9
$DIMEXE
 40
1.0
  9
$DIMTP
 40
0.0
  9
$DIMTM
 40
0.0
  9
$DIMTXT
 40
3.5
  9
$DIMCEN
 40
0.0
  9
$DIMTSZ
 40
0.0
  9
$DIMTOL
 70
     0
  9
$DIMLIM
 70
     0
  9
$DIMTIH
 70
     0
  9
$DIMTOH
 70
     0
  9
$DIMSE1
 70
     0
  9
$DIMSE2
 70
     0
  9
$DIMTAD
 70
     1
  9
$DIMZIN
 70
     8
  9
$DIMBLK
  1

  9
$DIMASO
 70
     1
  9
$DIMSHO
 70
     1
  9
$DIMPOST
  1
 
  9
$DIMAPOST
  1

  9
$DIMALT
 70
     0
  9
$DIMALTD
 70
     2
  9
$DIMALTF
 40
25.4
  9
$DIMLFAC
 40
1.0
  9
$DIMTOFL
 70
     1
  9
$DIMTVP
 40
0.0
  9
$DIMTIX
 70
     0
  9
$DIMSOXD
 70
     0
  9
$DIMSAH
 70
     1
  9
$DIMBLK1
  1
OPEN30
  9
$DIMBLK2
  1
OPEN30
  9
$DIMSTYLE
  2
NEWX10
  9
$DIMCLRD
 70
   256
  9
$DIMCLRE
 70
   256
  9
$DIMCLRT
 70
   201
  9
$DIMTFAC
 40
0.7
  9
$DIMGAP
 40
0.7
  9
$DIMJUST
 70
     0
  9
$DIMSD1
 70
     0
  9
$DIMSD2
 70
     0
  9
$DIMTOLJ
 70
     1
  9
$DIMTZIN
 70
     8
  9
$DIMALTZ
 70
     0
  9
$DIMALTTZ
 70
     0
  9
$DIMUPT
 70
     0
  9
$DIMDEC
 70
     2
  9
$DIMTDEC
 70
     4
  9
$DIMALTU
 70
     2
  9
$DIMALTTD
 70
     2
  9
$DIMTXSTY
  7
STANDARD
  9
$DIMAUNIT
 70
     0
  9
$DIMADEC
 70
     0
  9
$DIMALTRND
 40
0.0
  9
$DIMAZIN
 70
     0
  9
$DIMDSEP
 70
    46
  9
$DIMATFIT
 70
     3
  9
$DIMFRAC
 70
     0
  9
$DIMLDRBLK
  1
OPEN30
  9
$DIMLUNIT
 70
     2
  9
$DIMLWD
 70
    -2
  9
$DIMLWE
 70
    -2
  9
$DIMTMOVE
 70
     0
  9
$LUNITS
 70
     2
  9
$LUPREC
 70
     4
  9
$SKETCHINC
 40
1.0
  9
$FILLETRAD
 40
0.0
  9
$AUNITS
 70
     0
  9
$AUPREC
 70
     2
  9
$MENU
  1
acad
  9
$ELEVATION
 40
0.0
  9
$PELEVATION
 40
0.0
  9
$THICKNESS
 40
0.0
  9
$LIMCHECK
 70
     0
  9
$CHAMFERA
 40
10.0
  9
$CHAMFERB
 40
10.0
  9
$CHAMFERC
 40
20.0
  9
$CHAMFERD
 40
0.0
  9
$SKPOLY
 70
     0
  9
$TDCREATE
 40
2451318.579675926
  9
$TDUCREATE
 40
2451318.246342593
  9
$TDUPDATE
 40
2458444.650613426
  9
$TDUUPDATE
 40
2458444.317280093
  9
$TDINDWG
 40
0.7972934954
  9
$TDUSRTIMER
 40
0.7972934954
  9
$USRTIMER
 70
     1
  9
$ANGBASE
 50
0.0
  9
$ANGDIR
 70
     0
  9
$PDMODE
 70
     0
  9
$PDSIZE
 40
0.0
  9
$PLINEWID
 40
0.0
  9
$SPLFRAME
 70
     0
  9
$SPLINETYPE
 70
     6
  9
$SPLINESEGS
 70
     8
  9
$HANDSEED
  5
10911
  9
$SURFTAB1
 70
     6
  9
$SURFTAB2
 70
     6
  9
$SURFTYPE
 70
     6
  9
$SURFU
 70
     6
  9
$SURFV
 70
     6
  9
$UCSBASE
  2

  9
$UCSNAME
  2

  9
$UCSORG
 10
0.0
 20
0.0
 30
0.0
  9
$UCSXDIR
 10
1.0
 20
0.0
 30
0.0
  9
$UCSYDIR
 10
0.0
 20
1.0
 30
0.0
  9
$UCSORTHOREF
  2

  9
$UCSORTHOVIEW
 70
     0
  9
$UCSORGTOP
 10
0.0
 20
0.0
 30
0.0
  9
$UCSORGBOTTOM
 10
0.0
 20
0.0
 30
0.0
  9
$UCSORGLEFT
 10
0.0
 20
0.0
 30
0.0
  9
$UCSORGRIGHT
 10
0.0
 20
0.0
 30
0.0
  9
$UCSORGFRONT
 10
0.0
 20
0.0
 30
0.0
  9
$UCSORGBACK
 10
0.0
 20
0.0
 30
0.0
  9
$PUCSBASE
  2

  9
$PUCSNAME
  2

  9
$PUCSORG
 10
0.0
 20
0.0
 30
0.0
  9
$PUCSXDIR
 10
1.0
 20
0.0
 30
0.0
  9
$PUCSYDIR
 10
0.0
 20
1.0
 30
0.0
  9
$PUCSORTHOREF
  2

  9
$PUCSORTHOVIEW
 70
     0
  9
$PUCSORGTOP
 10
0.0
 20
0.0
 30
0.0
  9
$PUCSORGBOTTOM
 10
0.0
 20
0.0
 30
0.0
  9
$PUCSORGLEFT
 10
0.0
 20
0.0
 30
0.0
  9
$PUCSORGRIGHT
 10
0.0
 20
0.0
 30
0.0
  9
$PUCSORGFRONT
 10
0.0
 20
0.0
 30
0.0
  9
$PUCSORGBACK
 10
0.0
 20
0.0
 30
0.0
  9
$USERI1
 70
     0
  9
$USERI2
 70
     0
  9
$USERI3
 70
     0
  9
$USERI4
 70
     0
  9
$USERI5
 70
     0
  9
$USERR1
 40
0.0
  9
$USERR2
 40
0.0
  9
$USERR3
 40
0.0
  9
$USERR4
 40
0.0
  9
$USERR5
 40
0.0
  9
$WORLDVIEW
 70
     1
  9
$SHADEDGE
 70
     3
  9
$SHADEDIF
 70
    70
  9
$TILEMODE
 70
     1
  9
$MAXACTVP
 70
    48
  9
$PINSBASE
 10
0.0
 20
0.0
 30
0.0
  9
$PLIMCHECK
 70
     0
  9
$PEXTMIN
 10
1.000000000000000E+20
 20
1.000000000000000E+20
 30
1.000000000000000E+20
  9
$PEXTMAX
 10
-1.000000000000000E+20
 20
-1.000000000000000E+20
 30
-1.000000000000000E+20
  9
$PLIMMIN
 10
0.0
 20
0.0
  9
$PLIMMAX
 10
420.0
 20
297.0
  9
$UNITMODE
 70
     0
  9
$VISRETAIN
 70
     1
  9
$PLINEGEN
 70
     0
  9
$PSLTSCALE
 70
     1
  9
$TREEDEPTH
 70
  3020
  9
$CMLSTYLE
  2
STANDARD
  9
$CMLJUST
 70
     0
  9
$CMLSCALE
 40
20.0
  9
$PROXYGRAPHICS
 70
     1
  9
$MEASUREMENT
 70
     0
  9
$CELWEIGHT
370
    -1
  9
$ENDCAPS
280
     0
  9
$JOINSTYLE
280
     0
  9
$LWDISPLAY
290
     0
  9
$INSUNITS
 70
     0
  9
$HYPERLINKBASE
  1

  9
$STYLESHEET
  1

  9
$XEDIT
290
     1
  9
$CEPSNTYPE
380
     0
  9
$PSTYLEMODE
290
     1
  9
$FINGERPRINTGUID
  2
{68505910-B6D2-3047-A9E9-5B982B9FA673}
  9
$VERSIONGUID
  2
{D4762420-3617-7747-A24C-79711894A1E4}
  9
$EXTNAMES
290
     1
  9
$PSVPSCALE
 40
0.0
  9
$OLESTARTUP
290
     0
  9
$SORTENTS
280
   127
  9
$INDEXCTL
280
     0
  9
$HIDETEXT
280
     1
  9
$XCLIPFRAME
290
     0
  9
$HALOGAP
280
     0
  9
$OBSCOLOR
 70
     8
  9
$OBSLTYPE
280
     2
  9
$INTERSECTIONDISPLAY
280
     1
  9
$INTERSECTIONCOLOR
 70
     8
  9
$DIMASSOC
280
     2
  9
$PROJECTNAME
  1

  0
ENDSEC
  0
SECTION
  2
CLASSES
  0
CLASS
  1
DICTIONARYVAR
  2
AcDbDictionaryVar
  3
ObjectDBX Classes
 90
        0
 91
       18
280
     0
281
     0
  0
CLASS
  1
IDBUFFER
  2
AcDbIdBuffer
  3
ObjectDBX Classes
 90
        0
 91
        0
280
     0
281
     0
  0
CLASS
  1
LWPOLYLINE
  2
AcDbPolyline
  3
ObjectDBX Classes
 90
        0
 91
        1
280
     0
281
     1
  0
CLASS
  1
ACDBDICTIONARYWDFLT
  2
AcDbDictionaryWithDefault
  3
ObjectDBX Classes
 90
        0
 91
        1
280
     0
281
     0
  0
CLASS
  1
ACDBPLACEHOLDER
  2
AcDbPlaceHolder
  3
ObjectDBX Classes
 90
        0
 91
        1
280
     0
281
     0
  0
CLASS
  1
LAYOUT
  2
AcDbLayout
  3
ObjectDBX Classes
 90
        0
 91
        2
280
     0
281
     0
  0
CLASS
  1
TABLESTYLE
  2
AcDbTableStyle
  3
ObjectDBX Classes
 90
     4095
 91
        1
280
     0
281
     0
  0
CLASS
  1
SORTENTSTABLE
  2
AcDbSortentsTable
  3
ObjectDBX Classes
 90
        0
 91
        1
280
     0
281
     0
  0
CLASS
  1
MATERIAL
  2
AcDbMaterial
  3
ObjectDBX Classes
 90
     1153
 91
        3
280
     0
281
     0
  0
CLASS
  1
VISUALSTYLE
  2
AcDbVisualStyle
  3
ObjectDBX Classes
 90
     4095
 91
       56
280
     0
281
     0
  0
CLASS
  1
SCALE
  2
AcDbScale
  3
ObjectDBX Classes
 90
     1153
 91
       66
280
     0
281
     0
  0
CLASS
  1
MLEADERSTYLE
  2
AcDbMLeaderStyle
  3
ACDB_MLEADERSTYLE_CLASS
 90
     4095
 91
        2
280
     0
281
     0
  0
CLASS
  1
CELLSTYLEMAP
  2
AcDbCellStyleMap
  3
ObjectDBX Classes
 90
     1152
 91
        1
280
     0
281
     0
  0
CLASS
  1
SUN
  2
AcDbSun
  3
SCENEOE
 90
     1153
 91
        0
280
     0
281
     0
  0
CLASS
  1
ACDBSECTIONVIEWSTYLE
  2
AcDbSectionViewStyle
  3
ObjectDBX Classes
 90
     1025
 91
        3
280
     0
281
     0
  0
CLASS
  1
ACDBDETAILVIEWSTYLE
  2
AcDbDetailViewStyle
  3
ObjectDBX Classes
 90
     1025
 91
        3
280
     0
281
     0
  0
CLASS
  1
EXACXREFPANELOBJECT
  2
ExAcXREFPanelObject
  3
EXAC_ESW
 90
     1025
 91
        1
280
     1
281
     0
  0
CLASS
  1
NPOCOLLECTION
  2
AcDbImpNonPersistentObjectsCollection
  3
ObjectDBX Classes
 90
     1153
 91
        1
280
     1
281
     0
  0
CLASS
  1
XRECORD
  2
AcDbXrecord
  3
ObjectDBX Classes
 90
        0
 91
       61
280
     0
281
     0
  0
CLASS
  1
HATCH
  2
AcDbHatch
  3
ObjectDBX Classes
 90
        0
 91
        0
280
     0
281
     1
  0
ENDSEC
  0
SECTION
  2
TABLES
  0
TABLE
  2
VPORT
  5
8
330
0
100
AcDbSymbolTable
 70
     1
  0
VPORT
  5
CFAB
330
8
100
AcDbSymbolTableRecord
100
AcDbViewportTableRecord
  2
*ACTIVE
 70
     0
 10
0.0
 20
0.0
 11
1.0
 21
1.0
 12
25.44182714030166
 22
22.75864388514299
 13
0.0
 23
0.0
 14
10.0
 24
10.0
 15
10.0
 25
10.0
 16
0.0
 26
0.0
 36
1.0
 17
0.0
 27
0.0
 37
0.0
 40
114.7017126159915
 41
1.979101358411703
 42
50.0
 43
0.0
 44
0.0
 50
0.0
 51
0.0
 71
    16
 72
   100
 73
     1
 74
     1
 75
     0
 76
     0
 77
     0
 78
     0
281
     0
 65
     1
110
0.0
120
0.0
130
0.0
111
1.0
121
0.0
131
0.0
112
0.0
122
1.0
132
0.0
 79
     0
146
0.0
1001
ACAD_NAV_VCDISPLAY
1070
     3
  0
ENDTAB
  0
TABLE
  2
LTYPE
  5
5
330
0
100
AcDbSymbolTable
 70
     3
  0
LTYPE
  5
12
330
5
100
AcDbSymbolTableRecord
100
AcDbLinetypeTableRecord
  2
BYBLOCK
 70
     0
  3

 72
    65
 73
     0
 40
0.0
  0
LTYPE
  5
13
330
5
100
AcDbSymbolTableRecord
100
AcDbLinetypeTableRecord
  2
BYLAYER
 70
     0
  3

 72
    65
 73
     0
 40
0.0
  0
LTYPE
  5
14
330
5
100
AcDbSymbolTableRecord
100
AcDbLinetypeTableRecord
  2
CONTINUOUS
 70
     0
  3
Solid line
 72
    65
 73
     0
 40
0.0
  0
LTYPE
  5
A61B
330
5
100
AcDbSymbolTableRecord
100
AcDbLinetypeTableRecord
  2
CENTER2
 70
     0
  3
Center (.5x) ___ _ ___ _ ___ _ ___ _ ___ _ ___
 72
    65
 73
     4
 40
28.575
 49
19.05
 74
     0
 49
-3.174999999999999
 74
     0
 49
3.174999999999999
 74
     0
 49
-3.174999999999999
 74
     0
  0
ENDTAB
  0
TABLE
  2
LAYER
  5
2
102
{ACAD_XDICTIONARY
360
D16C
102
}
330
0
100
AcDbSymbolTable
 70
     5
  0
LAYER
  5
E
102
{ACAD_XDICTIONARY
360
D0B5
102
}
330
2
100
AcDbSymbolTableRecord
100
AcDbLayerTableRecord
  2
0
 70
     0
 62
     7
  6
CONTINUOUS
370
    -3
390
108AB
  0
LAYER
  5
29
102
{ACAD_XDICTIONARY
360
D0B7
102
}
330
2
100
AcDbSymbolTableRecord
100
AcDbLayerTableRecord
  2
1CENTER
 70
     0
 62
     7
  6
CENTER2
370
    -3
390
108AB
  0
LAYER
  5
31
102
{ACAD_XDICTIONARY
360
D0B9
102
}
330
2
100
AcDbSymbolTableRecord
100
AcDbLayerTableRecord
  2
1TEXT
 70
     0
 62
     7
  6
CONTINUOUS
370
    -3
390
108AB
  0
LAYER
  5
243
102
{ACAD_XDICTIONARY
360
D0BF
102
}
330
2
100
AcDbSymbolTableRecord
100
AcDbLayerTableRecord
  2
01
 70
     0
 62
     1
  6
CONTINUOUS
370
    -3
390
108AB
  0
LAYER
  5
24E
102
{ACAD_XDICTIONARY
360
D0C5
102
}
330
2
100
AcDbSymbolTableRecord
100
AcDbLayerTableRecord
  2
1DIM
 70
     0
 62
     7
  6
CONTINUOUS
370
    -3
390
108AB
  0
ENDTAB
  0
TABLE
  2
STYLE
  5
3
330
0
100
AcDbSymbolTable
 70
     1
  0
STYLE
  5
F
330
3
100
AcDbSymbolTableRecord
100
AcDbTextStyleTableRecord
  2
STANDARD
 70
     0
 40
0.0
 41
1.0
 50
0.0
 71
     0
 42
4.0
  3
txt.shx
  4
extfont.shx
  0
ENDTAB
  0
TABLE
  2
VIEW
  5
6
330
0
100
AcDbSymbolTable
 70
     1
  0
ENDTAB
  0
TABLE
  2
UCS
  5
7
330
0
100
AcDbSymbolTable
 70
     0
  0
ENDTAB
  0
TABLE
  2
APPID
  5
9
330
0
100
AcDbSymbolTable
 70
    16
  0
APPID
  5
10
330
9
100
AcDbSymbolTableRecord
100
AcDbRegAppTableRecord
  2
ACAD
 70
     0
  0
APPID
  5
21
330
9
100
AcDbSymbolTableRecord
100
AcDbRegAppTableRecord
  2
DRAWINGVARIABLESXDATA
 70
     0
  0
APPID
  5
64
330
9
100
AcDbSymbolTableRecord
100
AcDbRegAppTableRecord
  2
CONTENTTABDATA
 70
     0
  0
APPID
  5
65
330
9
100
AcDbSymbolTableRecord
100
AcDbRegAppTableRecord
  2
CONTENTCURRENTTAB
 70
     0
  0
APPID
  5
66
330
9
100
AcDbSymbolTableRecord
100
AcDbRegAppTableRecord
  2
CONTENTBLOCKDESCRIPTION
 70
     0
  0
APPID
  5
67
330
9
100
AcDbSymbolTableRecord
100
AcDbRegAppTableRecord
  2
CONTENTBLOCKICON
 70
     0
  0
APPID
  5
68
330
9
100
AcDbSymbolTableRecord
100
AcDbRegAppTableRecord
  2
CONTENTLONGBLOCKNAME
 70
     0
  0
APPID
  5
2AE
330
9
100
AcDbSymbolTableRecord
100
AcDbRegAppTableRecord
  2
ACAD_PSEXT
 70
     0
  0
APPID
  5
D09F
330
9
100
AcDbSymbolTableRecord
100
AcDbRegAppTableRecord
  2
ACAD_MLEADERVER
 70
     0
  0
APPID
  5
D7D9
330
9
100
AcDbSymbolTableRecord
100
AcDbRegAppTableRecord
  2
ACAD_EXEMPT_FROM_CAD_STAND
 70
     0
  0
APPID
  5
DB3E
330
9
100
AcDbSymbolTableRecord
100
AcDbRegAppTableRecord
  2
ACAECLAYERSTANDARD
 70
     0
  0
APPID
  5
F289
330
9
100
AcDbSymbolTableRecord
100
AcDbRegAppTableRecord
  2
ACADANNOTATIVE
 70
     0
  0
APPID
  5
F2A2
330
9
100
AcDbSymbolTableRecord
100
AcDbRegAppTableRecord
  2
ACDBBLOCKREPETAG
 70
     0
  0
APPID
  5
F2A3
330
9
100
AcDbSymbolTableRecord
100
AcDbRegAppTableRecord
  2
ACLAYERTOOLS
 70
     0
  0
APPID
  5
F2A4
330
9
100
AcDbSymbolTableRecord
100
AcDbRegAppTableRecord
  2
ACAD_NAV_VCDISPLAY
 70
     0
  0
APPID
  5
FE4E
330
9
100
AcDbSymbolTableRecord
100
AcDbRegAppTableRecord
  2
ACADSTRINGINFO
 70
     0
  0
ENDTAB
  0
TABLE
  2
DIMSTYLE
  5
A
330
0
100
AcDbSymbolTable
 70
     2
100
AcDbDimStyleTable
 71
     1
340
48
  0
DIMSTYLE
105
48
330
A
100
AcDbSymbolTableRecord
100
AcDbDimStyleTableRecord
  2
NEWX10
 70
     0
  3
 
 41
2.0
 42
0.0
 43
7.0
 44
1.0
 73
     0
 74
     0
 77
     1
 78
     8
140
3.5
141
0.0
146
0.7
147
0.7
172
     1
173
     1
176
   256
177
   256
178
   201
179
     2
271
     2
284
     8
340
F
341
42
343
42
344
42
  0
ENDTAB
  0
TABLE
  2
BLOCK_RECORD
  5
1
330
0
100
AcDbSymbolTable
 70
     9
  0
BLOCK_RECORD
  5
18
102
{ACAD_XDICTIONARY
360
88F
102
}
330
1
100
AcDbSymbolTableRecord
100
AcDbBlockTableRecord
  2
*MODEL_SPACE
340
108B2
  0
BLOCK_RECORD
  5
15
330
1
100
AcDbSymbolTableRecord
100
AcDbBlockTableRecord
  2
*PAPER_SPACE
340
108B3
  0
BLOCK_RECORD
  5
42
330
1
100
AcDbSymbolTableRecord
100
AcDbBlockTableRecord
  2
_OPEN30
340
0
  0
BLOCK_RECORD
  5
F2F3
330
1
100
AcDbSymbolTableRecord
100
AcDbBlockTableRecord
  2
A3WAKUKAWAJUN2017_HYOUDAI_
340
0
  0
BLOCK_RECORD
  5
10705
330
1
100
AcDbSymbolTableRecord
100
AcDbBlockTableRecord
  2
*X2
340
0
102
{BLKREFS
331
F336
102
}
  0
BLOCK_RECORD
  5
10753
330
1
100
AcDbSymbolTableRecord
100
AcDbBlockTableRecord
  2
*X3
340
0
102
{BLKREFS
331
F337
102
}
  0
BLOCK_RECORD
  5
107A5
330
1
100
AcDbSymbolTableRecord
100
AcDbBlockTableRecord
  2
*X4
340
0
102
{BLKREFS
331
F338
102
}
  0
BLOCK_RECORD
  5
107F6
330
1
100
AcDbSymbolTableRecord
100
AcDbBlockTableRecord
  2
*X5
340
0
102
{BLKREFS
331
F339
102
}
  0
BLOCK_RECORD
  5
10832
330
1
100
AcDbSymbolTableRecord
100
AcDbBlockTableRecord
  2
*X6
340
0
102
{BLKREFS
331
F33A
102
}
  0
BLOCK_RECORD
  5
10872
330
1
100
AcDbSymbolTableRecord
100
AcDbBlockTableRecord
  2
*X7
340
0
102
{BLKREFS
331
F33B
102
}
  0
ENDTAB
  0
ENDSEC
  0
SECTION
  2
BLOCKS
  0
BLOCK
  5
19
330
18
100
AcDbEntity
  8
0
100
AcDbBlockBegin
  2
*MODEL_SPACE
 70
     0
 10
0.0
 20
0.0
 30
0.0
  3
*MODEL_SPACE
  1

  0
ENDBLK
  5
1A
330
18
100
AcDbEntity
  8
0
100
AcDbBlockEnd
  0
BLOCK
  5
16
330
15
100
AcDbEntity
 67
     1
  8
0
100
AcDbBlockBegin
  2
*PAPER_SPACE
 70
     0
 10
0.0
 20
0.0
 30
0.0
  3
*PAPER_SPACE
  1

  0
ENDBLK
  5
17
330
15
100
AcDbEntity
 67
     1
  8
0
100
AcDbBlockEnd
  0
BLOCK
  5
43
330
42
100
AcDbEntity
  8
0
100
AcDbBlockBegin
  2
_OPEN30
 70
     0
 10
0.0
 20
0.0
 30
0.0
  3
_OPEN30
  1

  0
LINE
  5
44
330
42
100
AcDbEntity
  8
0
  6
ByBlock
 62
     0
100
AcDbLine
 10
-1.0
 20
0.26794919
 30
0.0
 11
0.0
 21
0.0
 31
0.0
  0
LINE
  5
45
330
42
100
AcDbEntity
  8
0
  6
ByBlock
 62
     0
100
AcDbLine
 10
0.0
 20
0.0
 30
0.0
 11
-1.0
 21
-0.26794919
 31
0.0
  0
LINE
  5
46
330
42
100
AcDbEntity
  8
0
  6
ByBlock
 62
     0
100
AcDbLine
 10
0.0
 20
0.0
 30
0.0
 11
-1.0
 21
0.0
 31
0.0
  0
ENDBLK
  5
47
330
42
100
AcDbEntity
  8
0
100
AcDbBlockEnd
  0
BLOCK
  5
FA01
330
F2F3
100
AcDbEntity
  8
0
100
AcDbBlockBegin
  2
A3WAKUKAWAJUN2017_HYOUDAI_
 70
     0
 10
0.0
 20
0.0
 30
0.0
  3
A3WAKUKAWAJUN2017_HYOUDAI_
  1

  0
LINE
  5
F2F5
330
F2F3
100
AcDbEntity
  8
0
100
AcDbLine
 10
13.26299999998673
 20
-0.0001000000000317
 30
0.0
 11
9.236999999990757
 21
8.999899999990986
 31
0.0
1001
ACAD
1000
ASC_BOUNDS
1002
{
1070
    19
1005
F336
1002
}
  0
LINE
  5
F2F6
330
F2F3
100
AcDbEntity
  8
0
100
AcDbLine
 10
5.657999999994332
 20
0.9999999999989768
 30
0.0
 11
9.236999999990757
 21
8.99999999999102
 31
0.0
1001
ACAD
1000
ASC_BOUNDS
1002
{
1070
    19
1005
F336
1002
}
  0
LINE
  5
F2F7
330
F2F3
100
AcDbEntity
  8
0
100
AcDbLine
 10
18.59199999998134
 20
-0.2368999999997641
 30
0.0
 11
16.46099999998353
 21
5.432899999994561
 31
0.0
1001
ACAD
1000
ASC_BOUNDS
1002
{
1070
    19
1005
F337
1002
}
  0
LINE
  5
F2F8
330
F2F3
100
AcDbEntity
  8
0
100
AcDbLine
 10
18.59199999998134
 20
-0.2368999999997641
 30
0.0
 11
22.38199999997767
 21
8.763099999991254
 31
0.0
1001
ACAD
1000
ASC_BOUNDS
1002
{
1070
    19
1005
F337
1002
}
  0
LINE
  5
F2F9
330
F2F3
100
AcDbEntity
  8
0
100
AcDbLine
 10
14.32899999998563
 20
-0.2368999999997641
 30
0.0
 11
16.46099999998353
 21
5.432899999994561
 31
0.0
1001
ACAD
1000
ASC_BOUNDS
1002
{
1070
    19
1005
F337
1002
}
  0
LINE
  5
F2FA
330
F2F3
100
AcDbEntity
  8
0
100
AcDbLine
 10
14.32899999998563
 20
-0.2368999999997641
 30
0.0
 11
10.53899999998941
 21
8.763099999991254
 31
0.0
1001
ACAD
1000
ASC_BOUNDS
1002
{
1070
    19
1005
F337
1002
}
  0
LINE
  5
F2FB
330
F2F3
100
AcDbEntity
  8
0
100
AcDbLine
 10
19.53899999998043
 20
-0.0001000000000317
 30
0.0
 11
23.56599999997638
 21
8.999899999990986
 31
0.0
1001
ACAD
1000
ASC_BOUNDS
1002
{
1070
    19
1005
F338
1002
}
  0
LINE
  5
F2FC
330
F2F3
100
AcDbEntity
  8
0
100
AcDbLine
 10
26.97358892824992
 20
1.383099999991202
 30
0.0
 11
23.56599999997638
 21
8.999899999990986
 31
0.0
1001
ACAD
1000
ASC_BOUNDS
1002
{
1070
    19
1005
F338
1002
}
  0
LINE
  5
F2FD
330
F2F3
100
AcDbEntity
  8
0
100
AcDbLine
 10
5.657999999994332
 20
0.9999999999989768
 30
0.0
 11
3.181999999996833
 21
4.668599999995308
 31
0.0
1001
ACAD
1000
ASC_BOUNDS
1002
{
1070
    19
1005
F336
1002
}
  0
LINE
  5
F2FE
330
F2F3
100
AcDbEntity
  8
0
100
AcDbLine
 10
4.617999999995391
 20
-0.0001000000000317
 30
0.0
 11
1.420999999998571
 21
4.736799999995242
 31
0.0
1001
ACAD
1000
ASC_BOUNDS
1002
{
1070
    19
1005
F336
1002
}
  0
LINE
  5
F2FF
330
F2F3
100
AcDbEntity
  8
0
100
AcDbLine
 10
1.420999999998571
 20
8.763099999991254
 30
0.0
 11
1.420999999998571
 21
0.0
 31
0.0
1001
ACAD
1000
ASC_BOUNDS
1002
{
1070
    19
1005
F33B
1002
}
  0
LINE
  5
F300
330
F2F3
100
AcDbEntity
  8
0
100
AcDbLine
 10
0.0
 20
8.763099999991254
 30
0.0
 11
0.0
 21
0.0
 31
0.0
1001
ACAD
1000
ASC_BOUNDS
1002
{
1070
    19
1005
F33B
1002
}
  0
LINE
  5
F301
330
F2F3
100
AcDbEntity
  8
0
100
AcDbLine
 10
6.766999999993232
 20
-0.0001000000000317
 30
0.0
 11
7.826999999992153
 21
2.368399999997621
 31
0.0
1001
ACAD
1000
ASC_BOUNDS
1002
{
1070
    19
1005
F336
1002
}
  0
LINE
  5
F302
330
F2F3
100
AcDbEntity
  8
0
100
AcDbLine
 10
0.0
 20
0.0
 30
0.0
 11
1.420999999998571
 21
0.0
 31
0.0
1001
ACAD
1000
ASC_BOUNDS
1002
{
1070
    19
1005
F33B
1002
}
  0
LINE
  5
F303
330
F2F3
100
AcDbEntity
  8
0
100
AcDbLine
 10
4.617999999995391
 20
0.0
 30
0.0
 11
6.766999999993232
 21
0.0
 31
0.0
1001
ACAD
1000
ASC_BOUNDS
1002
{
1070
    19
1005
F336
1002
}
  0
LINE
  5
F304
330
F2F3
100
AcDbEntity
  8
0
100
AcDbLine
 10
11.70599999998831
 20
-0.0001000000000317
 30
0.0
 11
10.64699999998936
 21
2.368399999997621
 31
0.0
1001
ACAD
1000
ASC_BOUNDS
1002
{
1070
    19
1005
F336
1002
}
  0
LINE
  5
F305
330
F2F3
100
AcDbEntity
  8
0
100
AcDbLine
 10
7.826999999992153
 20
2.368399999997621
 30
0.0
 11
10.64699999998936
 21
2.368399999997621
 31
0.0
1001
ACAD
1000
ASC_BOUNDS
1002
{
1070
    19
1005
F336
1002
}
  0
LINE
  5
F306
330
F2F3
100
AcDbEntity
  8
0
100
AcDbLine
 10
11.70599999998831
 20
0.0
 30
0.0
 11
13.26299999998673
 21
0.0
 31
0.0
1001
ACAD
1000
ASC_BOUNDS
1002
{
1070
    19
1005
F336
1002
}
  0
LINE
  5
F307
330
F2F3
100
AcDbEntity
  8
0
100
AcDbLine
 10
22.15599999997789
 20
2.368399999997621
 30
0.0
 11
24.97599999997499
 21
2.368399999997621
 31
0.0
1001
ACAD
1000
ASC_BOUNDS
1002
{
1070
    19
1005
F338
1002
}
  0
LINE
  5
F308
330
F2F3
100
AcDbEntity
  8
0
100
AcDbLine
 10
19.53899999998043
 20
0.0
 30
0.0
 11
21.09599999997886
 21
0.0
 31
0.0
1001
ACAD
1000
ASC_BOUNDS
1002
{
1070
    19
1005
F338
1002
}
  0
LINE
  5
F309
330
F2F3
100
AcDbEntity
  8
0
100
AcDbLine
 10
21.09599999997886
 20
-0.0001000000000317
 30
0.0
 11
22.15599999997789
 21
2.368399999997621
 31
0.0
1001
ACAD
1000
ASC_BOUNDS
1002
{
1070
    19
1005
F338
1002
}
  0
LINE
  5
F30A
330
F2F3
100
AcDbEntity
  8
0
100
AcDbLine
 10
26.02015566812236
 20
0.0330999999912365
 30
0.0
 11
24.97599999997499
 21
2.368399999997621
 31
0.0
1001
ACAD
1000
ASC_BOUNDS
1002
{
1070
    19
1005
F338
1002
}
  0
LINE
  5
F30B
330
F2F3
100
AcDbEntity
  8
0
100
AcDbLine
 10
14.32399999998563
 20
3.315799999996671
 30
0.0
 11
16.46099999998353
 21
8.999899999990986
 31
0.0
1001
ACAD
1000
ASC_BOUNDS
1002
{
1070
    19
1005
F337
1002
}
  0
LINE
  5
F30C
330
F2F3
100
AcDbEntity
  8
0
100
AcDbLine
 10
6.432999999993512
 20
8.763099999991254
 30
0.0
 11
3.181999999996833
 21
4.668599999995308
 31
0.0
1001
ACAD
1000
ASC_BOUNDS
1002
{
1070
    19
1005
F336
1002
}
  0
LINE
  5
F30D
330
F2F3
100
AcDbEntity
  8
0
100
AcDbLine
 10
4.617999999995391
 20
8.763099999991254
 30
0.0
 11
1.420999999998571
 21
4.736799999995242
 31
0.0
1001
ACAD
1000
ASC_BOUNDS
1002
{
1070
    19
1005
F336
1002
}
  0
LINE
  5
F30E
330
F2F3
100
AcDbEntity
  8
0
100
AcDbLine
 10
0.0
 20
8.763099999991254
 30
0.0
 11
1.420999999998571
 21
8.763099999991254
 31
0.0
1001
ACAD
1000
ASC_BOUNDS
1002
{
1070
    19
1005
F33B
1002
}
  0
LINE
  5
F30F
330
F2F3
100
AcDbEntity
  8
0
100
AcDbLine
 10
4.617999999995391
 20
8.763099999991254
 30
0.0
 11
6.432999999993512
 21
8.763099999991254
 31
0.0
1001
ACAD
1000
ASC_BOUNDS
1002
{
1070
    19
1005
F336
1002
}
  0
LINE
  5
F310
330
F2F3
100
AcDbEntity
  8
0
100
AcDbLine
 10
14.32399999998563
 20
3.315799999996671
 30
0.0
 11
12.02999999998792
 21
8.763099999991254
 31
0.0
1001
ACAD
1000
ASC_BOUNDS
1002
{
1070
    19
1005
F337
1002
}
  0
LINE
  5
F311
330
F2F3
100
AcDbEntity
  8
0
100
AcDbLine
 10
10.06399999998996
 20
3.670999999996296
 30
0.0
 11
9.236999999990757
 21
5.520099999994499
 31
0.0
1001
ACAD
1000
ASC_BOUNDS
1002
{
1070
    19
1005
F336
1002
}
  0
LINE
  5
F312
330
F2F3
100
AcDbEntity
  8
0
100
AcDbLine
 10
8.409999999991555
 20
3.670999999996296
 30
0.0
 11
9.236999999990757
 21
5.520099999994499
 31
0.0
1001
ACAD
1000
ASC_BOUNDS
1002
{
1070
    19
1005
F336
1002
}
  0
LINE
  5
F313
330
F2F3
100
AcDbEntity
  8
0
100
AcDbLine
 10
8.409999999991555
 20
3.670999999996296
 30
0.0
 11
10.06399999998996
 21
3.670999999996296
 31
0.0
1001
ACAD
1000
ASC_BOUNDS
1002
{
1070
    19
1005
F336
1002
}
  0
LINE
  5
F314
330
F2F3
100
AcDbEntity
  8
0
100
AcDbLine
 10
10.53899999998941
 20
8.763099999991254
 30
0.0
 11
12.02999999998792
 21
8.763099999991254
 31
0.0
1001
ACAD
1000
ASC_BOUNDS
1002
{
1070
    19
1005
F337
1002
}
  0
LINE
  5
F315
330
F2F3
100
AcDbEntity
  8
0
100
AcDbLine
 10
22.7389999999773
 20
3.670999999996296
 30
0.0
 11
23.56599999997638
 21
5.520099999994499
 31
0.0
1001
ACAD
1000
ASC_BOUNDS
1002
{
1070
    19
1005
F338
1002
}
  0
LINE
  5
F316
330
F2F3
100
AcDbEntity
  8
0
100
AcDbLine
 10
22.7389999999773
 20
3.670999999996296
 30
0.0
 11
24.39299999997559
 21
3.670999999996296
 31
0.0
1001
ACAD
1000
ASC_BOUNDS
1002
{
1070
    19
1005
F338
1002
}
  0
LINE
  5
F317
330
F2F3
100
AcDbEntity
  8
0
100
AcDbLine
 10
18.59799999998143
 20
3.315799999996671
 30
0.0
 11
20.89099999997916
 21
8.763099999991254
 31
0.0
1001
ACAD
1000
ASC_BOUNDS
1002
{
1070
    19
1005
F337
1002
}
  0
LINE
  5
F318
330
F2F3
100
AcDbEntity
  8
0
100
AcDbLine
 10
18.59799999998143
 20
3.315799999996671
 30
0.0
 11
16.46099999998353
 21
8.999899999990986
 31
0.0
1001
ACAD
1000
ASC_BOUNDS
1002
{
1070
    19
1005
F337
1002
}
  0
LINE
  5
F319
330
F2F3
100
AcDbEntity
  8
0
100
AcDbLine
 10
20.89099999997916
 20
8.763099999991254
 30
0.0
 11
22.38199999997767
 21
8.763099999991254
 31
0.0
1001
ACAD
1000
ASC_BOUNDS
1002
{
1070
    19
1005
F337
1002
}
  0
LINE
  5
F31A
330
F2F3
100
AcDbEntity
  8
0
100
AcDbLine
 10
24.39299999997559
 20
3.670999999996296
 30
0.0
 11
23.56599999997638
 21
5.520099999994499
 31
0.0
1001
ACAD
1000
ASC_BOUNDS
1002
{
1070
    19
1005
F338
1002
}
  0
LINE
  5
F31B
330
F2F3
100
AcDbEntity
  8
0
100
AcDbLine
 10
44.99999999995497
 20
-0.2368999999997641
 30
0.0
 11
40.02599999995993
 21
5.341799999994634
 31
0.0
1001
ACAD
1000
ASC_BOUNDS
1002
{
1070
    19
1005
F33A
1002
}
  0
LINE
  5
F31C
330
F2F3
100
AcDbEntity
  8
0
100
AcDbLine
 10
40.02599999995993
 20
5.341799999994634
 30
0.0
 11
40.02599999995993
 21
0.0
 31
0.0
1001
ACAD
1000
ASC_BOUNDS
1002
{
1070
    19
1005
F33A
1002
}
  0
LINE
  5
F31D
330
F2F3
100
AcDbEntity
  8
0
100
AcDbLine
 10
38.60499999996136
 20
8.99999999999102
 30
0.0
 11
38.60499999996136
 21
0.0
 31
0.0
1001
ACAD
1000
ASC_BOUNDS
1002
{
1070
    19
1005
F33A
1002
}
  0
LINE
  5
F31E
330
F2F3
100
AcDbEntity
  8
0
100
AcDbLine
 10
44.99999999995497
 20
8.763099999991254
 30
0.0
 11
44.99999999995497
 21
-0.2368999999997641
 31
0.0
1001
ACAD
1000
ASC_BOUNDS
1002
{
1070
    19
1005
F33A
1002
}
  0
LINE
  5
F31F
330
F2F3
100
AcDbEntity
  8
0
100
AcDbLine
 10
38.60499999996136
 20
0.0
 30
0.0
 11
40.02599999995993
 21
0.0
 31
0.0
1001
ACAD
1000
ASC_BOUNDS
1002
{
1070
    19
1005
F33A
1002
}
  0
LINE
  5
F320
330
F2F3
100
AcDbEntity
  8
0
100
AcDbLine
 10
43.5789999999564
 20
3.421199999996587
 30
0.0
 11
38.60499999996136
 21
8.999899999990986
 31
0.0
1001
ACAD
1000
ASC_BOUNDS
1002
{
1070
    19
1005
F33A
1002
}
  0
LINE
  5
F321
330
F2F3
100
AcDbEntity
  8
0
100
AcDbLine
 10
43.5789999999564
 20
8.763099999991254
 30
0.0
 11
43.5789999999564
 21
3.421199999996587
 31
0.0
1001
ACAD
1000
ASC_BOUNDS
1002
{
1070
    19
1005
F33A
1002
}
  0
LINE
  5
F322
330
F2F3
100
AcDbEntity
  8
0
100
AcDbLine
 10
43.5789999999564
 20
8.763099999991254
 30
0.0
 11
44.99999999995497
 21
8.763099999991254
 31
0.0
1001
ACAD
1000
ASC_BOUNDS
1002
{
1070
    19
1005
F33A
1002
}
  0
LINE
  5
F323
330
F2F3
100
AcDbEntity
  8
0
100
AcDbLine
 10
37.67199999996832
 20
8.763099999991254
 30
0.0
 11
36.23199999996837
 21
8.763099999991254
 31
0.0
  0
LINE
  5
F324
330
F2F3
100
AcDbEntity
  8
0
100
AcDbLine
 10
31.64199999996833
 20
8.763099999991254
 30
0.0
 11
31.64199999996833
 21
2.481619422925121
 31
0.0
  0
LINE
  5
F325
330
F2F3
100
AcDbEntity
  8
0
100
AcDbLine
 10
37.67199999996832
 20
8.763099999991254
 30
0.0
 11
37.67199999996832
 21
2.481619422925121
 31
0.0
  0
LINE
  5
F326
330
F2F3
100
AcDbEntity
  8
0
100
AcDbLine
 10
36.23199999996837
 20
8.763099999991254
 30
0.0
 11
36.23199999996837
 21
2.481619422925064
 31
0.0
  0
LINE
  5
F327
330
F2F3
100
AcDbEntity
  8
0
100
AcDbLine
 10
33.08199999996839
 20
8.763099999991254
 30
0.0
 11
33.08199999996839
 21
2.481619422925121
 31
0.0
  0
ARC
  5
F328
330
F2F3
100
AcDbEntity
  8
0
100
AcDbCircle
 10
34.65699999996832
 20
3.183099999991213
 30
0.0
 40
3.420000000000006
100
AcDbArc
 50
240.0000000000255
 51
299.9999999999766
  0
ARC
  5
F329
330
F2F3
100
AcDbEntity
  8
0
100
AcDbCircle
 10
34.65699999996832
 20
3.183099999991213
 30
0.0
 40
1.979999999999989
100
AcDbArc
 50
240.000000000026
 51
299.9999999999703
  0
LINE
  5
F32A
330
F2F3
100
AcDbEntity
  8
0
100
AcDbLine
 10
33.08199999996829
 20
8.763099999991254
 30
0.0
 11
31.64199999996833
 21
8.763099999991254
 31
0.0
  0
ARC
  5
F32B
330
F2F3
100
AcDbEntity
  8
0
100
AcDbCircle
 10
35.06199999996829
 20
2.481619422925064
 30
0.0
 40
1.169999999999999
100
AcDbArc
 50
299.9999999999699
 51
0.0
  0
ARC
  5
F32C
330
F2F3
100
AcDbEntity
  8
0
100
AcDbCircle
 10
34.25199999996836
 20
2.481619422925121
 30
0.0
 40
1.169999999999999
100
AcDbArc
 50
180.0
 51
240.0000000000238
  0
ARC
  5
F32D
330
F2F3
100
AcDbEntity
  8
0
100
AcDbCircle
 10
35.06199999996841
 20
2.481619422925121
 30
0.0
 40
2.609999999999999
100
AcDbArc
 50
299.9999999999756
 51
0.0
  0
ARC
  5
F32E
330
F2F3
100
AcDbEntity
  8
0
100
AcDbCircle
 10
34.25199999996836
 20
2.481619422925121
 30
0.0
 40
2.609999999999999
100
AcDbArc
 50
180.0
 51
240.0000000000244
  0
LINE
  5
F32F
330
F2F3
100
AcDbEntity
  8
0
100
AcDbLine
 10
29.30199999996933
 20
8.763099999991254
 30
0.0
 11
30.74199999996927
 21
8.763099999991254
 31
0.0
1001
ACAD
1000
ASC_BOUNDS
1002
{
1070
    19
1005
F338
1002
}
  0
LINE
  5
F330
330
F2F3
100
AcDbEntity
  8
0
100
AcDbLine
 10
30.74199999996927
 20
8.763099999991254
 30
0.0
 11
30.74199999996927
 21
2.373099999991211
 31
0.0
1001
ACAD
1000
ASC_BOUNDS
1002
{
1070
    19
1005
F338
1002
}
  0
LINE
  5
F331
330
F2F3
100
AcDbEntity
  8
0
100
AcDbLine
 10
26.02015566812236
 20
0.0330999999912365
 30
0.0
 11
28.40199999996923
 21
0.0330999999912365
 31
0.0
1001
ACAD
1000
ASC_BOUNDS
1002
{
1070
    19
1005
F338
1002
}
  0
LINE
  5
F332
330
F2F3
100
AcDbEntity
  8
0
100
AcDbLine
 10
29.30199999996933
 20
8.763099999991254
 30
0.0
 11
29.30199999996933
 21
2.283099999991235
 31
0.0
1001
ACAD
1000
ASC_BOUNDS
1002
{
1070
    19
1005
F338
1002
}
  0
LINE
  5
F333
330
F2F3
100
AcDbEntity
  8
0
100
AcDbLine
 10
26.97358892824992
 20
1.383099999991202
 30
0.0
 11
28.40199999996923
 21
1.383099999991202
 31
0.0
1001
ACAD
1000
ASC_BOUNDS
1002
{
1070
    19
1005
F338
1002
}
  0
ARC
  5
F334
330
F2F3
100
AcDbEntity
  8
0
100
AcDbCircle
 10
28.40199999996923
 20
2.283099999991235
 30
0.0
 40
0.9
100
AcDbArc
 50
270.0
 51
0.0
1001
ACAD
1000
ASC_BOUNDS
1002
{
1070
    19
1005
F338
1002
}
  0
ARC
  5
F335
330
F2F3
100
AcDbEntity
  8
0
100
AcDbCircle
 10
28.40199999996923
 20
2.373099999991211
 30
0.0
 40
2.339999999999999
100
AcDbArc
 50
270.0
 51
0.0
1001
ACAD
1000
ASC_BOUNDS
1002
{
1070
    19
1005
F338
1002
}
  0
INSERT
  5
F336
330
F2F3
100
AcDbEntity
  8
0
100
AcDbBlockReference
  2
*X2
 10
0.0
 20
0.0
 30
0.0
1001
ACAD
1000
HATCH
1002
{
1070
    19
1000
ANSI37
1040
0.15
1040
0.0
1000
ASC_BOUNDS
1070
     2
1070
     2
1070
    12
1005
F2F5
1005
F2F6
1005
F2FD
1005
F30C
1005
F30F
1005
F30D
1005
F2FE
1005
F303
1005
F301
1005
F305
1005
F304
1005
F306
1070
     2
1070
     3
1005
F311
1005
F313
1005
F312
1000
ASC_SEEDPOINT
1011
3.614004224891801
1021
2.996669441146024
1031
0.0
1000
R14_HATCH_DATA
1000
F336
1011
1.0
1021
0.0
1031
0.0
1011
0.0
1021
1.0
1031
0.0
1011
0.0
1021
0.0
1031
1.0
1040
0.0
1010
0.0
1020
0.0
1030
1.0
1000
ANSI37
1070
     0
1070
     1
1071
        2
1071
        7
1070
     0
1070
     1
1071
       17
1040
13.26299999998673
1040
-0.0001000000000317
1040
9.236999999990757
1040
8.999899999990986
1040
9.236999999990757
1040
8.99999999999102
1040
5.657999999994332
1040
0.9999999999989768
1040
3.181999999996833
1040
4.668599999995308
1040
6.432999999993512
1040
8.763099999991254
1040
4.617999999995391
1040
8.763099999991254
1040
1.420999999998571
1040
4.736799999995242
1040
4.617999999995391
1040
-0.0001000000000317
1040
4.617999999995391
1040
0.0
1040
6.766999999993232
1040
0.0
1040
6.766999999993232
1040
-0.0001000000000317
1040
7.826999999992153
1040
2.368399999997621
1040
10.64699999998936
1040
2.368399999997621
1040
11.70599999998831
1040
-0.0001000000000317
1040
11.70599999998831
1040
0.0
1040
13.26299999998673
1040
0.0
1071
       12
1005
F2F5
1005
F2F6
1005
F2FD
1005
F30C
1005
F30F
1005
F30D
1005
F2FE
1005
F303
1005
F301
1005
F305
1005
F304
1005
F306
1071
       22
1070
     0
1070
     1
1071
        3
1040
9.236999999990757
1040
5.520099999994499
1040
10.06399999998996
1040
3.670999999996296
1040
8.409999999991555
1040
3.670999999996296
1071
        3
1005
F311
1005
F313
1005
F312
1070
     0
1070
     1
1040
0.0
1040
0.15
1070
     0
1070
     2
1040
0.7853981633974483
1040
49.29960901727088
1040
-10.17736998311392
1040
-0.3367596045400932
1040
0.3367596045400932
1070
     0
1040
2.356194490192345
1040
49.29960901727088
1040
-10.17736998311392
1040
-0.3367596045400932
1040
-0.3367596045400932
1070
     0
1040
0.0110235143455945
1071
        2
1040
3.614004224891801
1040
2.996669441146024
1040
0.0
1040
3.614004224891801
1040
2.996669441146024
1040
0.0
1002
}
  0
INSERT
  5
F337
330
F2F3
100
AcDbEntity
  8
0
100
AcDbBlockReference
  2
*X3
 10
0.0
 20
0.0
 30
0.0
1001
ACAD
1000
HATCH
1002
{
1070
    19
1000
ANSI37
1040
0.15
1040
0.0
1000
ASC_BOUNDS
1070
     1
1070
     2
1070
    10
1005
F2F7
1005
F2F8
1005
F319
1005
F317
1005
F318
1005
F30B
1005
F310
1005
F314
1005
F2FA
1005
F2F9
1000
ASC_SEEDPOINT
1011
14.73245321214324
1021
2.79824617828342
1031
0.0
1000
R14_HATCH_DATA
1000
F337
1011
1.0
1021
0.0
1031
0.0
1011
0.0
1021
1.0
1031
0.0
1011
0.0
1021
0.0
1031
1.0
1040
0.0
1010
0.0
1020
0.0
1030
1.0
1000
ANSI37
1070
     0
1070
     1
1071
        1
1071
        7
1070
     0
1070
     1
1071
       10
1040
16.46099999998353
1040
5.432899999994561
1040
18.59199999998134
1040
-0.2368999999997641
1040
22.38199999997767
1040
8.763099999991254
1040
20.89099999997916
1040
8.763099999991254
1040
18.59799999998143
1040
3.315799999996671
1040
16.46099999998353
1040
8.999899999990986
1040
14.32399999998563
1040
3.315799999996671
1040
12.02999999998792
1040
8.763099999991254
1040
10.53899999998941
1040
8.763099999991254
1040
14.32899999998563
1040
-0.2368999999997641
1071
       10
1005
F2F7
1005
F2F8
1005
F319
1005
F317
1005
F318
1005
F30B
1005
F310
1005
F314
1005
F2FA
1005
F2F9
1070
     0
1070
     1
1040
0.0
1040
0.15
1070
     0
1070
     2
1040
0.7853981633974483
1040
49.29960901727088
1040
-10.17736998311392
1040
-0.3367596045400932
1040
0.3367596045400932
1070
     0
1040
2.356194490192345
1040
49.29960901727088
1040
-10.17736998311392
1040
-0.3367596045400932
1040
-0.3367596045400932
1070
     0
1040
0.0110235143455945
1071
        1
1040
14.73245321214324
1040
2.79824617828342
1040
0.0
1002
}
  0
INSERT
  5
F338
330
F2F3
100
AcDbEntity
  8
0
100
AcDbBlockReference
  2
*X4
 10
0.0
 20
0.0
 30
0.0
1001
ACAD
1000
HATCH
1002
{
1070
    19
1000
ANSI37
1040
0.15
1040
0.0
1000
ASC_BOUNDS
1070
     2
1070
     2
1070
    13
1005
F2FB
1005
F308
1005
F309
1005
F307
1005
F30A
1005
F331
1005
F335
1005
F330
1005
F32F
1005
F332
1005
F334
1005
F333
1005
F2FC
1070
     2
1070
     3
1005
F315
1005
F31A
1005
F316
1000
ASC_SEEDPOINT
1011
21.97929957367762
1021
3.294304244259307
1031
0.0
1000
R14_HATCH_DATA
1000
F338
1011
1.0
1021
0.0
1031
0.0
1011
0.0
1021
1.0
1031
0.0
1011
0.0
1021
0.0
1031
1.0
1040
0.0
1010
0.0
1020
0.0
1030
1.0
1000
ANSI37
1070
     0
1070
     1
1071
        2
1071
        7
1070
     1
1070
     1
1071
       15
1040
23.56599999997638
1040
8.999899999990986
1040
0.0
1040
19.53899999998043
1040
-0.0001000000000317
1040
0.0
1040
19.53899999998043
1040
0.0
1040
0.0
1040
21.09599999997886
1040
0.0
1040
0.0
1040
21.09599999997886
1040
-0.0001000000000317
1040
0.0
1040
22.15599999997789
1040
2.368399999997621
1040
0.0
1040
24.97599999997499
1040
2.368399999997621
1040
0.0
1040
26.02015566812236
1040
0.0330999999912365
1040
0.0
1040
28.40199999996923
1040
0.0330999999912365
1040
0.4142135623730951
1040
30.74199999996923
1040
2.373099999991211
1040
0.0
1040
30.74199999996927
1040
8.763099999991254
1040
0.0
1040
29.30199999996933
1040
8.763099999991254
1040
0.0
1040
29.30199999996933
1040
2.283099999991235
1040
-0.4142135623730951
1040
28.40199999996923
1040
1.383099999991237
1040
0.0
1040
26.97358892824992
1040
1.383099999991202
1040
0.0
1071
       13
1005
F2FB
1005
F308
1005
F309
1005
F307
1005
F30A
1005
F331
1005
F335
1005
F330
1005
F32F
1005
F332
1005
F334
1005
F333
1005
F2FC
1071
       22
1070
     0
1070
     1
1071
        3
1040
22.7389999999773
1040
3.670999999996296
1040
23.56599999997638
1040
5.520099999994499
1040
24.39299999997559
1040
3.670999999996296
1071
        3
1005
F315
1005
F31A
1005
F316
1070
     0
1070
     1
1040
0.0
1040
0.15
1070
     0
1070
     2
1040
0.7853981633974483
1040
49.29960901727088
1040
-10.17736998311392
1040
-0.3367596045400932
1040
0.3367596045400932
1070
     0
1040
2.356194490192345
1040
49.29960901727088
1040
-10.17736998311392
1040
-0.3367596045400932
1040
-0.3367596045400932
1070
     0
1040
0.0110235143455945
1071
        2
1040
21.97929957367762
1040
3.294304244259307
1040
0.0
1040
21.97929957367762
1040
3.294304244259307
1040
0.0
1002
}
  0
INSERT
  5
F339
330
F2F3
100
AcDbEntity
  8
0
100
AcDbBlockReference
  2
*X5
 10
0.0
 20
0.0
 30
0.0
1001
ACAD
1000
HATCH
1002
{
1070
    19
1000
ANSI37
1040
0.15
1040
0.0
1000
R14_HATCH_DATA
1000
F339
1011
1.0
1021
0.0
1031
0.0
1011
0.0
1021
1.0
1031
0.0
1011
0.0
1021
0.0
1031
1.0
1040
0.0
1010
0.0
1020
0.0
1030
1.0
1000
ANSI37
1070
     0
1070
     1
1071
        1
1071
        7
1070
     1
1070
     1
1071
       12
1040
31.64199999996833
1040
2.481619422925121
1040
0.2679491924310942
1040
32.94699999997067
1040
0.2212931190493919
1040
0.2679491924301353
1040
36.36699999995983
1040
0.2212931190459813
1040
0.2679491924321411
1040
37.67199999996832
1040
2.48161942292836
1040
0.0
1040
37.67199999996832
1040
8.763099999991254
1040
0.0
1040
36.23199999996837
1040
8.763099999991254
1040
0.0
1040
36.23199999996837
1040
2.481619422925064
1040
-0.2679491924310291
1040
35.64699999996708
1040
1.468369700498385
1040
-0.2679491924305189
1040
33.66699999997094
1040
1.468369700497703
1040
-0.267949192431809
1040
33.08199999996839
1040
2.481619422926996
1040
0.0
1040
33.08199999996839
1040
8.763099999991254
1040
0.0
1040
31.64199999996833
1040
8.763099999991254
1040
0.0
1071
        0
1070
     0
1070
     1
1040
0.0
1040
0.15
1070
     0
1070
     2
1040
0.7853981633974483
1040
49.29960901727088
1040
-10.17736998311392
1040
-0.3367596045400932
1040
0.3367596045400932
1070
     0
1040
2.356194490192345
1040
49.29960901727088
1040
-10.17736998311392
1040
-0.3367596045400932
1040
-0.3367596045400932
1070
     0
1040
0.0110235143455945
1071
        1
1040
32.30357378967279
1040
3.988785755459218
1040
0.0
1002
}
  0
INSERT
  5
F33A
330
F2F3
100
AcDbEntity
  8
0
100
AcDbBlockReference
  2
*X6
 10
0.0
 20
0.0
 30
0.0
1001
ACAD
1000
HATCH
1002
{
1070
    19
1000
ANSI37
1040
0.15
1040
0.0
1000
ASC_BOUNDS
1070
     1
1070
     2
1070
     8
1005
F31B
1005
F31E
1005
F322
1005
F321
1005
F320
1005
F31D
1005
F31F
1005
F31C
1000
ASC_SEEDPOINT
1011
39.74896370716704
1021
4.484843821435048
1031
0.0
1000
R14_HATCH_DATA
1000
F33A
1011
1.0
1021
0.0
1031
0.0
1011
0.0
1021
1.0
1031
0.0
1011
0.0
1021
0.0
1031
1.0
1040
0.0
1010
0.0
1020
0.0
1030
1.0
1000
ANSI37
1070
     0
1070
     1
1071
        1
1071
        7
1070
     0
1070
     1
1071
        9
1040
40.02599999995993
1040
5.341799999994634
1040
44.99999999995497
1040
-0.2368999999997641
1040
44.99999999995497
1040
8.763099999991254
1040
43.5789999999564
1040
8.763099999991254
1040
43.5789999999564
1040
3.421199999996587
1040
38.60499999996136
1040
8.999899999990986
1040
38.60499999996136
1040
8.99999999999102
1040
38.60499999996136
1040
0.0
1040
40.02599999995993
1040
0.0
1071
        8
1005
F31B
1005
F31E
1005
F322
1005
F321
1005
F320
1005
F31D
1005
F31F
1005
F31C
1070
     0
1070
     1
1040
0.0
1040
0.15
1070
     0
1070
     2
1040
0.7853981633974483
1040
49.29960901727088
1040
-10.17736998311392
1040
-0.3367596045400932
1040
0.3367596045400932
1070
     0
1040
2.356194490192345
1040
49.29960901727088
1040
-10.17736998311392
1040
-0.3367596045400932
1040
-0.3367596045400932
1070
     0
1040
0.0110235143455945
1071
        1
1040
39.74896370716704
1040
4.484843821435048
1040
0.0
1002
}
  0
INSERT
  5
F33B
330
F2F3
100
AcDbEntity
  8
0
100
AcDbBlockReference
  2
*X7
 10
0.0
 20
0.0
 30
0.0
1001
ACAD
1000
HATCH
1002
{
1070
    19
1000
ANSI37
1040
0.15
1040
0.0
1000
ASC_BOUNDS
1070
     1
1070
     2
1070
     4
1005
F2FF
1005
F30E
1005
F300
1005
F302
1000
ASC_SEEDPOINT
1011
1.079051535452663
1021
4.148538732891836
1031
0.0
1000
R14_HATCH_DATA
1000
F33B
1011
1.0
1021
0.0
1031
0.0
1011
0.0
1021
1.0
1031
0.0
1011
0.0
1021
0.0
1031
1.0
1040
0.0
1010
0.0
1020
0.0
1030
1.0
1000
ANSI37
1070
     0
1070
     1
1071
        1
1071
        7
1070
     0
1070
     1
1071
        4
1040
1.420999999998571
1040
0.0
1040
1.420999999998571
1040
8.763099999991254
1040
0.0
1040
8.763099999991254
1040
0.0
1040
0.0
1071
        4
1005
F2FF
1005
F30E
1005
F300
1005
F302
1070
     0
1070
     1
1040
0.0
1040
0.15
1070
     0
1070
     2
1040
0.7853981633974483
1040
49.29960901727088
1040
-10.17736998311392
1040
-0.3367596045400932
1040
0.3367596045400932
1070
     0
1040
2.356194490192345
1040
49.29960901727088
1040
-10.17736998311392
1040
-0.3367596045400932
1040
-0.3367596045400932
1070
     0
1040
0.0053004257112761
1071
        1
1040
1.079051535452663
1040
4.148538732891836
1040
0.0
1002
}
  0
ENDBLK
  5
FA02
330
F2F3
100
AcDbEntity
  8
0
100
AcDbBlockEnd
  0
BLOCK
  5
10892
330
10705
100
AcDbEntity
  8
0
100
AcDbBlockBegin
  2
*X2
 70
     1
 10
0.0
 20
0.0
 30
0.0
  3
*X2
  1

  0
LINE
  5
10706
330
10705
100
AcDbEntity
  8
0
  6
Continuous
100
AcDbLine
 10
3.418023043697893
 20
7.251849696850611
 30
0.0
 11
4.929273346838535
 21
8.763099999991254
 31
0.0
  0
LINE
  5
10707
330
10705
100
AcDbEntity
  8
0
  6
Continuous
100
AcDbLine
 10
1.483656411257781
 20
4.643963855330317
 30
0.0
 11
5.602792555918719
 21
8.763099999991254
 31
0.0
  0
LINE
  5
10708
330
10705
100
AcDbEntity
  8
0
  6
Continuous
100
AcDbLine
 10
1.755053947328235
 20
4.241842182320583
 30
0.0
 11
6.276311764998906
 21
8.763099999991254
 31
0.0
  0
LINE
  5
10709
330
10705
100
AcDbEntity
  8
0
  6
Continuous
100
AcDbLine
 10
2.026451483398687
 20
3.839720509310848
 30
0.0
 11
4.441040904851877
 21
6.254309930764038
 31
0.0
  0
LINE
  5
1070A
330
10705
100
AcDbEntity
  8
0
  6
Continuous
100
AcDbLine
 10
2.297849019469139
 20
3.437598836301114
 30
0.0
 11
3.321765168359338
 21
4.461514985191313
 31
0.0
  0
LINE
  5
1070B
330
10705
100
AcDbEntity
  8
0
  6
Continuous
100
AcDbLine
 10
2.56924655553959
 20
3.035477163291379
 30
0.0
 11
3.593163397972742
 21
4.059394005724531
 31
0.0
  0
LINE
  5
1070C
330
10705
100
AcDbEntity
  8
0
  6
Continuous
100
AcDbLine
 10
2.840644091610042
 20
2.633355490281645
 30
0.0
 11
3.864561627586148
 21
3.657273026257751
 31
0.0
  0
LINE
  5
1070D
330
10705
100
AcDbEntity
  8
0
  6
Continuous
100
AcDbLine
 10
3.112041627680496
 20
2.231233817271911
 30
0.0
 11
4.135959857199553
 21
3.25515204679097
 31
0.0
  0
LINE
  5
1070E
330
10705
100
AcDbEntity
  8
0
  6
Continuous
100
AcDbLine
 10
3.383439163750948
 20
1.829112144262176
 30
0.0
 11
4.407358086812959
 21
2.853031067324188
 31
0.0
  0
LINE
  5
1070F
330
10705
100
AcDbEntity
  8
0
  6
Continuous
100
AcDbLine
 10
3.654836699821399
 20
1.426990471252441
 30
0.0
 11
4.678756316426365
 21
2.450910087857406
 31
0.0
  0
LINE
  5
10710
330
10705
100
AcDbEntity
  8
0
  6
Continuous
100
AcDbLine
 10
3.926234235891853
 20
1.024868798242708
 30
0.0
 11
4.950154546039769
 21
2.048789108390626
 31
0.0
  0
LINE
  5
10711
330
10705
100
AcDbEntity
  8
0
  6
Continuous
100
AcDbLine
 10
4.197631771962303
 20
0.6227471252329737
 30
0.0
 11
5.221552775653175
 21
1.646668128923845
 31
0.0
  0
LINE
  5
10712
330
10705
100
AcDbEntity
  8
0
  6
Continuous
100
AcDbLine
 10
8.715877546767851
 20
7.835069736359265
 30
0.0
 11
9.435953450375055
 21
8.555145639966472
 31
0.0
  0
LINE
  5
10713
330
10705
100
AcDbEntity
  8
0
  6
Continuous
100
AcDbLine
 10
8.170620868422266
 20
6.616293848933496
 30
0.0
 11
9.64412083374346
 21
8.08979381425469
 31
0.0
  0
LINE
  5
10714
330
10705
100
AcDbEntity
  8
0
  6
Continuous
100
AcDbLine
 10
7.625364190076683
 20
5.397517961507727
 30
0.0
 11
9.852288217111862
 21
7.624441988542907
 31
0.0
  0
LINE
  5
10715
330
10705
100
AcDbEntity
  8
0
  6
Continuous
100
AcDbLine
 10
7.0801075117311
 20
4.178742074081956
 30
0.0
 11
10.06045560048027
 21
7.159090162831123
 31
0.0
  0
LINE
  5
10716
330
10705
100
AcDbEntity
  8
0
  6
Continuous
100
AcDbLine
 10
6.534850833385517
 20
2.959966186656187
 30
0.0
 11
10.26862298384867
 21
6.693738337119342
 31
0.0
  0
LINE
  5
10717
330
10705
100
AcDbEntity
  8
0
  6
Continuous
100
AcDbLine
 10
4.469029308032755
 20
0.2206254522232385
 30
0.0
 11
5.492951005266581
 21
1.244547149457063
 31
0.0
  0
LINE
  5
10718
330
10705
100
AcDbEntity
  8
0
  6
Continuous
100
AcDbLine
 10
5.989594155039934
 20
1.741190299230416
 30
0.0
 11
8.806950407233131
 21
4.558546551423613
 31
0.0
  0
LINE
  5
10719
330
10705
100
AcDbEntity
  8
0
  6
Continuous
100
AcDbLine
 10
9.401251593263644
 20
5.152847737454125
 30
0.0
 11
10.47679036721708
 21
6.228386511407558
 31
0.0
  0
LINE
  5
1071A
330
10705
100
AcDbEntity
  8
0
  6
Continuous
100
AcDbLine
 10
4.921837203428691
 20
-0.0000858614610131
 30
0.0
 11
8.592923064886001
 21
3.670999999996296
 31
0.0
  0
LINE
  5
1071B
330
10705
100
AcDbEntity
  8
0
  6
Continuous
100
AcDbLine
 10
9.609390446785305
 20
4.687467381895599
 30
0.0
 11
10.68495775058548
 21
5.763034685695775
 31
0.0
  0
LINE
  5
1071C
330
10705
100
AcDbEntity
  8
0
  6
Continuous
100
AcDbLine
 10
5.595387755019431
 20
-0.0000545189504582
 30
0.0
 11
7.716137258923767
 21
2.120694984953879
 31
0.0
  0
LINE
  5
1071D
330
10705
100
AcDbEntity
  8
0
  6
Continuous
100
AcDbLine
 10
6.268938306610173
 20
-0.000023176439905
 30
0.0
 11
7.170485805526503
 21
0.9015243224764267
 31
0.0
  0
LINE
  5
1071E
330
10705
100
AcDbEntity
  8
0
  6
Continuous
100
AcDbLine
 10
7.963842273967511
 20
2.368399999997621
 30
0.0
 11
9.266442273966188
 21
3.670999999996296
 31
0.0
  0
LINE
  5
1071F
330
10705
100
AcDbEntity
  8
0
  6
Continuous
100
AcDbLine
 10
8.637361483047696
 20
2.368399999997621
 30
0.0
 11
9.939961483046376
 21
3.670999999996296
 31
0.0
  0
LINE
  5
10720
330
10705
100
AcDbEntity
  8
0
  6
Continuous
100
AcDbLine
 10
9.817529300306961
 20
4.222087026337074
 30
0.0
 11
10.89312513395388
 21
5.297682859983993
 31
0.0
  0
LINE
  5
10721
330
10705
100
AcDbEntity
  8
0
  6
Continuous
100
AcDbLine
 10
10.02566815382863
 20
3.756706670778548
 30
0.0
 11
11.10129251732229
 21
4.83233103427221
 31
0.0
  0
LINE
  5
10722
330
10705
100
AcDbEntity
  8
0
  6
Continuous
100
AcDbLine
 10
9.310880692127883
 20
2.368399999997621
 30
0.0
 11
11.30945990069069
 21
4.366979208560428
 31
0.0
  0
LINE
  5
10723
330
10705
100
AcDbEntity
  8
0
  6
Continuous
100
AcDbLine
 10
9.984399901208069
 20
2.368399999997619
 30
0.0
 11
11.5176272840591
 21
3.901627382848644
 31
0.0
  0
LINE
  5
10724
330
10705
100
AcDbEntity
  8
0
  6
Continuous
100
AcDbLine
 10
10.65037369446246
 20
2.360854584171819
 30
0.0
 11
11.7257946674275
 21
3.436275557136861
 31
0.0
  0
LINE
  5
10725
330
10705
100
AcDbEntity
  8
0
  6
Continuous
100
AcDbLine
 10
10.85847197087848
 20
1.895433651507655
 30
0.0
 11
11.9339620507959
 21
2.97092373142508
 31
0.0
  0
LINE
  5
10726
330
10705
100
AcDbEntity
  8
0
  6
Continuous
100
AcDbLine
 10
11.0665702472945
 20
1.430012718843491
 30
0.0
 11
12.14212943416431
 21
2.505571905713296
 31
0.0
  0
LINE
  5
10727
330
10705
100
AcDbEntity
  8
0
  6
Continuous
100
AcDbLine
 10
11.27466852371052
 20
0.9645917861793256
 30
0.0
 11
12.35029681753271
 21
2.040220080001513
 31
0.0
  0
LINE
  5
10728
330
10705
100
AcDbEntity
  8
0
  6
Continuous
100
AcDbLine
 10
11.48276680012654
 20
0.4991708535151611
 30
0.0
 11
12.55846420090111
 21
1.574868254289729
 31
0.0
  0
LINE
  5
10729
330
10705
100
AcDbEntity
  8
0
  6
Continuous
100
AcDbLine
 10
11.69086507654257
 20
0.0337499208509957
 30
0.0
 11
12.76663158426952
 21
1.109516428577947
 31
0.0
  0
LINE
  5
1072A
330
10705
100
AcDbEntity
  8
0
  6
Continuous
100
AcDbLine
 10
12.33057447873954
 20
-0.0000598860322123
 30
0.0
 11
12.97479896763792
 21
0.6441646028661663
 31
0.0
  0
LINE
  5
1072B
330
10705
100
AcDbEntity
  8
0
  6
Continuous
100
AcDbLine
 10
13.00413694809395
 20
-0.0000166257579952
 30
0.0
 11
13.18296635100632
 21
0.1788127771543824
 31
0.0
  0
LINE
  5
1072C
330
10705
100
AcDbEntity
  8
0
  6
Continuous
100
AcDbLine
 10
4.772852165289667
 20
-0.000092794222212
 30
0.0
 11
4.296495091028901
 21
0.4762642800385529
 31
0.0
  0
LINE
  5
1072D
330
10705
100
AcDbEntity
  8
0
  6
Continuous
100
AcDbLine
 10
5.446340034776103
 20
-0.0000614546284616
 30
0.0
 11
2.898195908335624
 21
2.548082671812017
 31
0.0
  0
LINE
  5
1072E
330
10705
100
AcDbEntity
  8
0
  6
Continuous
100
AcDbLine
 10
6.119827904262539
 20
-0.0000301150347113
 30
0.0
 11
1.499896725642348
 21
4.61990106358548
 31
0.0
  0
LINE
  5
1072F
330
10705
100
AcDbEntity
  8
0
  6
Continuous
100
AcDbLine
 10
6.775136745476158
 20
0.0181802528318542
 30
0.0
 11
5.699826040202668
 21
1.093490958105344
 31
0.0
  0
LINE
  5
10730
330
10705
100
AcDbEntity
  8
0
  6
Continuous
100
AcDbLine
 10
6.983376846288487
 20
0.4834593610997119
 30
0.0
 11
5.908008617934405
 21
1.558827589453795
 31
0.0
  0
LINE
  5
10731
330
10705
100
AcDbEntity
  8
0
  6
Continuous
100
AcDbLine
 10
5.377063484962296
 20
1.416253513345719
 30
0.0
 11
1.70227695701413
 21
5.091040041293882
 31
0.0
  0
LINE
  5
10732
330
10705
100
AcDbEntity
  8
0
  6
Continuous
100
AcDbLine
 10
3.978745891735323
 20
3.488090315652877
 30
0.0
 11
2.000373521109399
 21
5.466462686278801
 31
0.0
  0
LINE
  5
10733
330
10705
100
AcDbEntity
  8
0
  6
Continuous
100
AcDbLine
 10
7.191616947100818
 20
0.9487384693675679
 30
0.0
 11
6.116191195666139
 21
2.024164220802247
 31
0.0
  0
LINE
  5
10734
330
10705
100
AcDbEntity
  8
0
  6
Continuous
100
AcDbLine
 10
7.399857047913148
 20
1.414017577635424
 30
0.0
 11
6.324373773397875
 21
2.489500852150698
 31
0.0
  0
LINE
  5
10735
330
10705
100
AcDbEntity
  8
0
  6
Continuous
100
AcDbLine
 10
7.608097148725478
 20
1.87929668590328
 30
0.0
 11
6.53255635112961
 21
2.954837483499149
 31
0.0
  0
LINE
  5
10736
330
10705
100
AcDbEntity
  8
0
  6
Continuous
100
AcDbLine
 10
7.816337249537808
 20
2.344575794171138
 30
0.0
 11
6.740738928861344
 21
3.420174114847601
 31
0.0
  0
LINE
  5
10737
330
10705
100
AcDbEntity
  8
0
  6
Continuous
100
AcDbLine
 10
3.310241080789734
 20
4.830114335678652
 30
0.0
 11
2.298470085204666
 21
5.84188533126372
 31
0.0
  0
LINE
  5
10738
330
10705
100
AcDbEntity
  8
0
  6
Continuous
100
AcDbLine
 10
3.608329835635509
 20
5.205544789913063
 30
0.0
 11
2.596566649299935
 21
6.217307976248637
 31
0.0
  0
LINE
  5
10739
330
10705
100
AcDbEntity
  8
0
  6
Continuous
100
AcDbLine
 10
3.906418590481285
 20
5.580975244147472
 30
0.0
 11
2.894663213395203
 21
6.592730621233557
 31
0.0
  0
LINE
  5
1073A
330
10705
100
AcDbEntity
  8
0
  6
Continuous
100
AcDbLine
 10
4.204507345327061
 20
5.956405698381884
 30
0.0
 11
3.192759777490471
 21
6.968153266218473
 31
0.0
  0
LINE
  5
1073B
330
10705
100
AcDbEntity
  8
0
  6
Continuous
100
AcDbLine
 10
8.466032252791512
 20
2.368399999997621
 30
0.0
 11
6.94892150659308
 21
3.885510746196052
 31
0.0
  0
LINE
  5
1073C
330
10705
100
AcDbEntity
  8
0
  6
Continuous
100
AcDbLine
 10
9.139551461871699
 20
2.368399999997619
 30
0.0
 11
7.157104084324816
 21
4.350847377544504
 31
0.0
  0
LINE
  5
1073D
330
10705
100
AcDbEntity
  8
0
  6
Continuous
100
AcDbLine
 10
4.502596100172839
 20
6.331836152616294
 30
0.0
 11
3.49085634158574
 21
7.343575911203393
 31
0.0
  0
LINE
  5
1073E
330
10705
100
AcDbEntity
  8
0
  6
Continuous
100
AcDbLine
 10
4.800684855018615
 20
6.707266606850705
 30
0.0
 11
3.788952905681008
 21
7.718998556188313
 31
0.0
  0
LINE
  5
1073F
330
10705
100
AcDbEntity
  8
0
  6
Continuous
100
AcDbLine
 10
12.18154012887317
 20
-0.0000694579236642
 30
0.0
 11
11.32140332908496
 21
0.8600673418645499
 31
0.0
  0
LINE
  5
10740
330
10705
100
AcDbEntity
  8
0
  6
Continuous
100
AcDbLine
 10
12.85501608323566
 20
-0.0000262032059659
 30
0.0
 11
10.77672456435345
 21
2.078265315676246
 31
0.0
  0
LINE
  5
10741
330
10705
100
AcDbEntity
  8
0
  6
Continuous
100
AcDbLine
 10
9.813070670951885
 20
2.368399999997619
 30
0.0
 11
8.510470670953209
 21
3.670999999996296
 31
0.0
  0
LINE
  5
10742
330
10705
100
AcDbEntity
  8
0
  6
Continuous
100
AcDbLine
 10
10.48658988003207
 20
2.368399999997619
 30
0.0
 11
9.183989880033395
 21
3.670999999996296
 31
0.0
  0
LINE
  5
10743
330
10705
100
AcDbEntity
  8
0
  6
Continuous
100
AcDbLine
 10
8.441048632286793
 20
3.740422038662711
 30
0.0
 11
7.365286662056551
 21
4.816184008892955
 31
0.0
  0
LINE
  5
10744
330
10705
100
AcDbEntity
  8
0
  6
Continuous
100
AcDbLine
 10
8.649187485808454
 20
4.205802394221236
 30
0.0
 11
7.573469239788285
 21
5.281520640241406
 31
0.0
  0
LINE
  5
10745
330
10705
100
AcDbEntity
  8
0
  6
Continuous
100
AcDbLine
 10
5.098773609864391
 20
7.082697061085116
 30
0.0
 11
4.087049469776276
 21
8.094421201173229
 31
0.0
  0
LINE
  5
10746
330
10705
100
AcDbEntity
  8
0
  6
Continuous
100
AcDbLine
 10
5.396862364710166
 20
7.458127515319525
 30
0.0
 11
4.385146033871544
 21
8.469843846158148
 31
0.0
  0
LINE
  5
10747
330
10705
100
AcDbEntity
  8
0
  6
Continuous
100
AcDbLine
 10
13.04801363231285
 20
0.4804954567970335
 30
0.0
 11
9.85750908911358
 21
3.670999999996296
 31
0.0
  0
LINE
  5
10748
330
10705
100
AcDbEntity
  8
0
  6
Continuous
100
AcDbLine
 10
8.857326339330118
 20
4.671182749779762
 30
0.0
 11
7.781651817520021
 21
5.746857271589857
 31
0.0
  0
LINE
  5
10749
330
10705
100
AcDbEntity
  8
0
  6
Continuous
100
AcDbLine
 10
5.694951119555941
 20
7.833557969553938
 30
0.0
 11
4.765409089118623
 21
8.763099999991254
 31
0.0
  0
LINE
  5
1074A
330
10705
100
AcDbEntity
  8
0
  6
Continuous
100
AcDbLine
 10
12.50286117236978
 20
1.699167125820288
 30
0.0
 11
9.686118772502869
 21
4.515909525687196
 31
0.0
  0
LINE
  5
1074B
330
10705
100
AcDbEntity
  8
0
  6
Continuous
100
AcDbLine
 10
9.065465192851775
 20
5.136563105338288
 30
0.0
 11
7.989834395251758
 21
6.212193902938309
 31
0.0
  0
LINE
  5
1074C
330
10705
100
AcDbEntity
  8
0
  6
Continuous
100
AcDbLine
 10
5.993039874401718
 20
8.208988423788346
 30
0.0
 11
5.438928298198809
 21
8.763099999991254
 31
0.0
  0
LINE
  5
1074D
330
10705
100
AcDbEntity
  8
0
  6
Continuous
100
AcDbLine
 10
11.95770871242671
 20
2.917838794843543
 30
0.0
 11
8.19801697298349
 21
6.677530534286761
 31
0.0
  0
LINE
  5
1074E
330
10705
100
AcDbEntity
  8
0
  6
Continuous
100
AcDbLine
 10
6.291128629247494
 20
8.584418878022756
 30
0.0
 11
6.112447507278996
 21
8.763099999991254
 31
0.0
  0
LINE
  5
1074F
330
10705
100
AcDbEntity
  8
0
  6
Continuous
100
AcDbLine
 10
11.41255625248364
 20
4.136510463866796
 30
0.0
 11
8.406199550715227
 21
7.142867165635211
 31
0.0
  0
LINE
  5
10750
330
10705
100
AcDbEntity
  8
0
  6
Continuous
100
AcDbLine
 10
10.86740379254057
 20
5.355182132890051
 30
0.0
 11
8.614382128446962
 21
7.608203796983664
 31
0.0
  0
LINE
  5
10751
330
10705
100
AcDbEntity
  8
0
  6
Continuous
100
AcDbLine
 10
10.3222513325975
 20
6.573853801913304
 30
0.0
 11
8.822564706178695
 21
8.073540428332112
 31
0.0
  0
LINE
  5
10752
330
10705
100
AcDbEntity
  8
0
  6
Continuous
100
AcDbLine
 10
9.777098872654436
 20
7.792525470936563
 30
0.0
 11
9.030747283910431
 21
8.538877059680567
 31
0.0
  0
ENDBLK
  5
10893
330
10705
100
AcDbEntity
  8
0
100
AcDbBlockEnd
  0
BLOCK
  5
10894
330
10753
100
AcDbEntity
  8
0
100
AcDbBlockBegin
  2
*X3
 70
     1
 10
0.0
 20
0.0
 30
0.0
  3
*X3
  1

  0
LINE
  5
10754
330
10753
100
AcDbEntity
  8
0
  6
Continuous
100
AcDbLine
 10
10.67292308101235
 20
8.445076852443387
 30
0.0
 11
10.99094622856022
 21
8.763099999991254
 31
0.0
  0
LINE
  5
10755
330
10753
100
AcDbEntity
  8
0
  6
Continuous
100
AcDbLine
 10
10.87250383178748
 20
7.971138394138331
 30
0.0
 11
11.6644654376404
 21
8.763099999991254
 31
0.0
  0
LINE
  5
10756
330
10753
100
AcDbEntity
  8
0
  6
Continuous
100
AcDbLine
 10
11.07208458256261
 20
7.497199935833273
 30
0.0
 11
12.12126590876355
 21
8.546381262034211
 31
0.0
  0
LINE
  5
10757
330
10753
100
AcDbEntity
  8
0
  6
Continuous
100
AcDbLine
 10
11.27166533333774
 20
7.023261477528215
 30
0.0
 11
12.32085164573666
 21
8.072447789927137
 31
0.0
  0
LINE
  5
10758
330
10753
100
AcDbEntity
  8
0
  6
Continuous
100
AcDbLine
 10
11.47124608411287
 20
6.549323019223157
 30
0.0
 11
12.52043738270977
 21
7.598514317820058
 31
0.0
  0
LINE
  5
10759
330
10753
100
AcDbEntity
  8
0
  6
Continuous
100
AcDbLine
 10
11.670826834888
 20
6.0753845609181
 30
0.0
 11
12.72002311968288
 21
7.124580845712984
 31
0.0
  0
LINE
  5
1075A
330
10753
100
AcDbEntity
  8
0
  6
Continuous
100
AcDbLine
 10
11.87040758566313
 20
5.601446102613042
 30
0.0
 11
12.91960885665599
 21
6.650647373605907
 31
0.0
  0
LINE
  5
1075B
330
10753
100
AcDbEntity
  8
0
  6
Continuous
100
AcDbLine
 10
12.06998833643825
 20
5.127507644307986
 30
0.0
 11
13.1191945936291
 21
6.176713901498831
 31
0.0
  0
LINE
  5
1075C
330
10753
100
AcDbEntity
  8
0
  6
Continuous
100
AcDbLine
 10
12.26956908721338
 20
4.653569186002929
 30
0.0
 11
13.31878033060221
 21
5.702780429391757
 31
0.0
  0
LINE
  5
1075D
330
10753
100
AcDbEntity
  8
0
  6
Continuous
100
AcDbLine
 10
12.46914983798851
 20
4.179630727697873
 30
0.0
 11
13.51836606757532
 21
5.228846957284683
 31
0.0
  0
LINE
  5
1075E
330
10753
100
AcDbEntity
  8
0
  6
Continuous
100
AcDbLine
 10
12.66873058876364
 20
3.705692269392816
 30
0.0
 11
13.71795180454843
 21
4.754913485177606
 31
0.0
  0
LINE
  5
1075F
330
10753
100
AcDbEntity
  8
0
  6
Continuous
100
AcDbLine
 10
12.86831133953877
 20
3.231753811087758
 30
0.0
 11
13.91753754152154
 21
4.280980013070531
 31
0.0
  0
LINE
  5
10760
330
10753
100
AcDbEntity
  8
0
  6
Continuous
100
AcDbLine
 10
13.0678920903139
 20
2.757815352782702
 30
0.0
 11
14.11712327849465
 21
3.807046540963455
 31
0.0
  0
LINE
  5
10761
330
10753
100
AcDbEntity
  8
0
  6
Continuous
100
AcDbLine
 10
13.26747284108903
 20
2.283876894477643
 30
0.0
 11
14.31670901546777
 21
3.333113068856378
 31
0.0
  0
LINE
  5
10762
330
10753
100
AcDbEntity
  8
0
  6
Continuous
100
AcDbLine
 10
16.36767838827179
 20
8.751678487061342
 30
0.0
 11
16.50332410898388
 21
8.887324207773431
 31
0.0
  0
LINE
  5
10763
330
10753
100
AcDbEntity
  8
0
  6
Continuous
100
AcDbLine
 10
15.96190732182191
 20
7.672388211531269
 30
0.0
 11
16.68735328004734
 21
8.397834169756698
 31
0.0
  0
LINE
  5
10764
330
10753
100
AcDbEntity
  8
0
  6
Continuous
100
AcDbLine
 10
15.55613625537202
 20
6.593097936001195
 30
0.0
 11
16.87138245111079
 21
7.908344131739964
 31
0.0
  0
LINE
  5
10765
330
10753
100
AcDbEntity
  8
0
  6
Continuous
100
AcDbLine
 10
15.15036518892213
 20
5.513807660471122
 30
0.0
 11
17.05541162217424
 21
7.418854093723231
 31
0.0
  0
LINE
  5
10766
330
10753
100
AcDbEntity
  8
0
  6
Continuous
100
AcDbLine
 10
14.74459412247225
 20
4.434517384941048
 30
0.0
 11
17.2394407932377
 21
6.929364055706498
 31
0.0
  0
LINE
  5
10767
330
10753
100
AcDbEntity
  8
0
  6
Continuous
100
AcDbLine
 10
14.33882305602236
 20
3.355227109410975
 30
0.0
 11
17.42346996430114
 21
6.439874017689766
 31
0.0
  0
LINE
  5
10768
330
10753
100
AcDbEntity
  8
0
  6
Continuous
100
AcDbLine
 10
13.46705359186416
 20
1.809938436172586
 30
0.0
 11
16.0819338255367
 21
4.424818669845128
 31
0.0
  0
LINE
  5
10769
330
10753
100
AcDbEntity
  8
0
  6
Continuous
100
AcDbLine
 10
16.63283254238972
 20
4.975717386698148
 30
0.0
 11
17.60749913536461
 21
5.950383979673032
 31
0.0
  0
LINE
  5
1076A
330
10753
100
AcDbEntity
  8
0
  6
Continuous
100
AcDbLine
 10
13.66663434263929
 20
1.335999977867529
 30
0.0
 11
15.67604797733754
 21
3.345413612565779
 31
0.0
  0
LINE
  5
1076B
330
10753
100
AcDbEntity
  8
0
  6
Continuous
100
AcDbLine
 10
13.86621509341442
 20
0.8620615195624722
 30
0.0
 11
15.27016212913838
 21
2.266008555286429
 31
0.0
  0
LINE
  5
1076C
330
10753
100
AcDbEntity
  8
0
  6
Continuous
100
AcDbLine
 10
16.81682257348267
 20
4.486188208710908
 30
0.0
 11
17.79152830642806
 21
5.460893941656298
 31
0.0
  0
LINE
  5
1076D
330
10753
100
AcDbEntity
  8
0
  6
Continuous
100
AcDbLine
 10
17.00081260457561
 20
3.996659030723667
 30
0.0
 11
17.97555747749151
 21
4.971403903639565
 31
0.0
  0
LINE
  5
1076E
330
10753
100
AcDbEntity
  8
0
  6
Continuous
100
AcDbLine
 10
20.74362343514722
 20
8.412989070375463
 30
0.0
 11
21.09373436476302
 21
8.763099999991256
 31
0.0
  0
LINE
  5
1076F
330
10753
100
AcDbEntity
  8
0
  6
Continuous
100
AcDbLine
 10
20.25401257174777
 20
7.249858997895826
 30
0.0
 11
21.7672535738432
 21
8.763099999991254
 31
0.0
  0
LINE
  5
10770
330
10753
100
AcDbEntity
  8
0
  6
Continuous
100
AcDbLine
 10
14.06579584418955
 20
0.3881230612574149
 30
0.0
 11
14.86427628093921
 21
1.186603498007082
 31
0.0
  0
LINE
  5
10771
330
10753
100
AcDbEntity
  8
0
  6
Continuous
100
AcDbLine
 10
14.26537659496467
 20
-0.0858153970476412
 30
0.0
 11
14.45839043274005
 21
0.1071984407277329
 31
0.0
  0
LINE
  5
10772
330
10753
100
AcDbEntity
  8
0
  6
Continuous
100
AcDbLine
 10
17.18480263566856
 20
3.507129852736425
 30
0.0
 11
18.15958664855496
 21
4.481913865622832
 31
0.0
  0
LINE
  5
10773
330
10753
100
AcDbEntity
  8
0
  6
Continuous
100
AcDbLine
 10
17.3687926667615
 20
3.017600674749186
 30
0.0
 11
18.34361581961842
 21
3.992423827606099
 31
0.0
  0
LINE
  5
10774
330
10753
100
AcDbEntity
  8
0
  6
Continuous
100
AcDbLine
 10
19.76440170834832
 20
6.086728925416191
 30
0.0
 11
22.33924590259489
 21
8.661573119662755
 31
0.0
  0
LINE
  5
10775
330
10753
100
AcDbEntity
  8
0
  6
Continuous
100
AcDbLine
 10
19.27479084494887
 20
4.923598852936554
 30
0.0
 11
21.84929622842713
 21
7.498104236414808
 31
0.0
  0
LINE
  5
10776
330
10753
100
AcDbEntity
  8
0
  6
Continuous
100
AcDbLine
 10
17.55278269785445
 20
2.528071496761945
 30
0.0
 11
18.52764499068187
 21
3.502933789589366
 31
0.0
  0
LINE
  5
10777
330
10753
100
AcDbEntity
  8
0
  6
Continuous
100
AcDbLine
 10
18.78517998154942
 20
3.760468780456919
 30
0.0
 11
21.35934655425936
 21
6.33463535316686
 31
0.0
  0
LINE
  5
10778
330
10753
100
AcDbEntity
  8
0
  6
Continuous
100
AcDbLine
 10
17.73677272894739
 20
2.038542318774704
 30
0.0
 11
20.8693968800916
 21
5.171166469918913
 31
0.0
  0
LINE
  5
10779
330
10753
100
AcDbEntity
  8
0
  6
Continuous
100
AcDbLine
 10
17.92076276004034
 20
1.549013140787464
 30
0.0
 11
20.37944720592384
 21
4.007697586670968
 31
0.0
  0
LINE
  5
1077A
330
10753
100
AcDbEntity
  8
0
  6
Continuous
100
AcDbLine
 10
18.10475279113329
 20
1.059483962800223
 30
0.0
 11
19.88949753175608
 21
2.84422870342302
 31
0.0
  0
LINE
  5
1077B
330
10753
100
AcDbEntity
  8
0
  6
Continuous
100
AcDbLine
 10
18.28874282222623
 20
0.5699547848129823
 30
0.0
 11
19.39954785758832
 21
1.680759820175073
 31
0.0
  0
LINE
  5
1077C
330
10753
100
AcDbEntity
  8
0
  6
Continuous
100
AcDbLine
 10
18.47273285331918
 20
0.0804256068257416
 30
0.0
 11
18.90959818342056
 21
0.5172909369271271
 31
0.0
  0
LINE
  5
1077D
330
10753
100
AcDbEntity
  8
0
  6
Continuous
100
AcDbLine
 10
14.3590401358224
 20
-0.1570118376323384
 30
0.0
 11
14.24903296539946
 21
-0.0470046672093929
 31
0.0
  0
LINE
  5
1077E
330
10753
100
AcDbEntity
  8
0
  6
Continuous
100
AcDbLine
 10
14.54309291258661
 20
0.332454594683643
 30
0.0
 11
13.75908329123172
 21
1.116464216038528
 31
0.0
  0
LINE
  5
1077F
330
10753
100
AcDbEntity
  8
0
  6
Continuous
100
AcDbLine
 10
14.72714568935081
 20
0.8219210269996244
 30
0.0
 11
13.26913361706399
 21
2.279933099286449
 31
0.0
  0
LINE
  5
10780
330
10753
100
AcDbEntity
  8
0
  6
Continuous
100
AcDbLine
 10
14.91119846611502
 20
1.311387459315605
 30
0.0
 11
12.77918394289625
 21
3.44340198253437
 31
0.0
  0
LINE
  5
10781
330
10753
100
AcDbEntity
  8
0
  6
Continuous
100
AcDbLine
 10
15.09525124287922
 20
1.800853891631586
 30
0.0
 11
12.28923426872852
 21
4.606870865782292
 31
0.0
  0
LINE
  5
10782
330
10753
100
AcDbEntity
  8
0
  6
Continuous
100
AcDbLine
 10
15.27930401964343
 20
2.290320323947568
 30
0.0
 11
11.79928459456077
 21
5.770339749030213
 31
0.0
  0
LINE
  5
10783
330
10753
100
AcDbEntity
  8
0
  6
Continuous
100
AcDbLine
 10
15.46335679640763
 20
2.77978675626355
 30
0.0
 11
14.48885470994921
 21
3.754288842721972
 31
0.0
  0
LINE
  5
10784
330
10753
100
AcDbEntity
  8
0
  6
Continuous
100
AcDbLine
 10
13.88507249233704
 20
4.358071060334136
 30
0.0
 11
11.30933492039305
 21
6.933808632278134
 31
0.0
  0
LINE
  5
10785
330
10753
100
AcDbEntity
  8
0
  6
Continuous
100
AcDbLine
 10
18.75840522805855
 20
0.1582575336928151
 30
0.0
 11
18.25383727664818
 21
0.6628254851031863
 31
0.0
  0
LINE
  5
10786
330
10753
100
AcDbEntity
  8
0
  6
Continuous
100
AcDbLine
 10
15.64740957317184
 20
3.269253188579531
 30
0.0
 11
14.67288388101266
 21
4.243778880738704
 31
0.0
  0
LINE
  5
10787
330
10753
100
AcDbEntity
  8
0
  6
Continuous
100
AcDbLine
 10
13.39509276772158
 20
5.521569994029786
 30
0.0
 11
10.81938524622531
 21
8.097277515526055
 31
0.0
  0
LINE
  5
10788
330
10753
100
AcDbEntity
  8
0
  6
Continuous
100
AcDbLine
 10
18.95798597883369
 20
0.6321959919978686
 30
0.0
 11
17.84825644852853
 21
1.741925522303024
 31
0.0
  0
LINE
  5
10789
330
10753
100
AcDbEntity
  8
0
  6
Continuous
100
AcDbLine
 10
19.15756672960882
 20
1.106134450302922
 30
0.0
 11
17.44267562040888
 21
2.821025559502861
 31
0.0
  0
LINE
  5
1078A
330
10753
100
AcDbEntity
  8
0
  6
Continuous
100
AcDbLine
 10
15.83146234993604
 20
3.758719620895513
 30
0.0
 11
14.85691305207612
 21
4.733268918755438
 31
0.0
  0
LINE
  5
1078B
330
10753
100
AcDbEntity
  8
0
  6
Continuous
100
AcDbLine
 10
16.01551512670025
 20
4.248186053211493
 30
0.0
 11
15.04094222313957
 21
5.222758956772171
 31
0.0
  0
LINE
  5
1078C
330
10753
100
AcDbEntity
  8
0
  6
Continuous
100
AcDbLine
 10
12.90511304310612
 20
6.685068927725434
 30
0.0
 11
10.8270819708403
 21
8.763099999991254
 31
0.0
  0
LINE
  5
1078D
330
10753
100
AcDbEntity
  8
0
  6
Continuous
100
AcDbLine
 10
12.41513331849066
 20
7.848567861421082
 30
0.0
 11
11.50060117992049
 21
8.763099999991254
 31
0.0
  0
LINE
  5
1078E
330
10753
100
AcDbEntity
  8
0
  6
Continuous
100
AcDbLine
 10
19.35714748038395
 20
1.580072908607975
 30
0.0
 11
17.03709479228923
 21
3.900125596702696
 31
0.0
  0
LINE
  5
1078F
330
10753
100
AcDbEntity
  8
0
  6
Continuous
100
AcDbLine
 10
19.55672823115909
 20
2.054011366913027
 30
0.0
 11
16.63151396416958
 21
4.979225633902534
 31
0.0
  0
LINE
  5
10790
330
10753
100
AcDbEntity
  8
0
  6
Continuous
100
AcDbLine
 10
16.19956790346445
 20
4.737652485527476
 30
0.0
 11
15.22497139420302
 21
5.712248994788902
 31
0.0
  0
LINE
  5
10791
330
10753
100
AcDbEntity
  8
0
  6
Continuous
100
AcDbLine
 10
16.38362068022866
 20
5.227118917843457
 30
0.0
 11
15.40900056526648
 21
6.201739032805637
 31
0.0
  0
LINE
  5
10792
330
10753
100
AcDbEntity
  8
0
  6
Continuous
100
AcDbLine
 10
19.75630898193422
 20
2.52794982521808
 30
0.0
 11
18.70774536448286
 21
3.576513442669441
 31
0.0
  0
LINE
  5
10793
330
10753
100
AcDbEntity
  8
0
  6
Continuous
100
AcDbLine
 10
19.95588973270936
 20
3.001888283523133
 30
0.0
 11
18.90726987211446
 21
4.050508144118028
 31
0.0
  0
LINE
  5
10794
330
10753
100
AcDbEntity
  8
0
  6
Continuous
100
AcDbLine
 10
20.15547048348449
 20
3.475826741828186
 30
0.0
 11
19.10679437974606
 21
4.524502845566613
 31
0.0
  0
LINE
  5
10795
330
10753
100
AcDbEntity
  8
0
  6
Continuous
100
AcDbLine
 10
20.35505123425962
 20
3.94976520013324
 30
0.0
 11
19.30631888737766
 21
4.998497547015201
 31
0.0
  0
LINE
  5
10796
330
10753
100
AcDbEntity
  8
0
  6
Continuous
100
AcDbLine
 10
20.55463198503475
 20
4.423703658438292
 30
0.0
 11
19.50584339500926
 21
5.472492248463787
 31
0.0
  0
LINE
  5
10797
330
10753
100
AcDbEntity
  8
0
  6
Continuous
100
AcDbLine
 10
18.37481191085755
 20
3.909446896294751
 30
0.0
 11
15.59302973632993
 21
6.69122907082237
 31
0.0
  0
LINE
  5
10798
330
10753
100
AcDbEntity
  8
0
  6
Continuous
100
AcDbLine
 10
17.96904084440766
 20
4.988737171824825
 30
0.0
 11
15.77705890739338
 21
7.180719108839102
 31
0.0
  0
LINE
  5
10799
330
10753
100
AcDbEntity
  8
0
  6
Continuous
100
AcDbLine
 10
17.56326977795777
 20
6.068027447354898
 30
0.0
 11
15.96108807845684
 21
7.670209146855838
 31
0.0
  0
LINE
  5
1079A
330
10753
100
AcDbEntity
  8
0
  6
Continuous
100
AcDbLine
 10
17.15749871150789
 20
7.147317722884972
 30
0.0
 11
16.14511724952029
 21
8.15969918487257
 31
0.0
  0
LINE
  5
1079B
330
10753
100
AcDbEntity
  8
0
  6
Continuous
100
AcDbLine
 10
16.751727645058
 20
8.226607998415046
 30
0.0
 11
16.32914642058374
 21
8.649189222889303
 31
0.0
  0
LINE
  5
1079C
330
10753
100
AcDbEntity
  8
0
  6
Continuous
100
AcDbLine
 10
20.75421273580989
 20
4.897642116743345
 30
0.0
 11
19.70536790264086
 21
5.946486949912373
 31
0.0
  0
LINE
  5
1079D
330
10753
100
AcDbEntity
  8
0
  6
Continuous
100
AcDbLine
 10
20.95379348658502
 20
5.371580575048398
 30
0.0
 11
19.90489241027246
 21
6.42048165136096
 31
0.0
  0
LINE
  5
1079E
330
10753
100
AcDbEntity
  8
0
  6
Continuous
100
AcDbLine
 10
21.15337423736015
 20
5.845519033353452
 30
0.0
 11
20.10441691790406
 21
6.894476352809548
 31
0.0
  0
LINE
  5
1079F
330
10753
100
AcDbEntity
  8
0
  6
Continuous
100
AcDbLine
 10
21.35295498813529
 20
6.319457491658504
 30
0.0
 11
20.30394142553566
 21
7.368471054258134
 31
0.0
  0
LINE
  5
107A0
330
10753
100
AcDbEntity
  8
0
  6
Continuous
100
AcDbLine
 10
21.55253573891042
 20
6.793395949963557
 30
0.0
 11
20.50346593316726
 21
7.842465755706721
 31
0.0
  0
LINE
  5
107A1
330
10753
100
AcDbEntity
  8
0
  6
Continuous
100
AcDbLine
 10
21.75211648968556
 20
7.267334408268612
 30
0.0
 11
20.70299044079886
 21
8.316460457155306
 31
0.0
  0
LINE
  5
107A2
330
10753
100
AcDbEntity
  8
0
  6
Continuous
100
AcDbLine
 10
21.95169724046069
 20
7.741272866573661
 30
0.0
 11
20.9298701070431
 21
8.763099999991256
 31
0.0
  0
LINE
  5
107A3
330
10753
100
AcDbEntity
  8
0
  6
Continuous
100
AcDbLine
 10
22.15127799123582
 20
8.215211324878715
 30
0.0
 11
21.60338931612328
 21
8.763099999991256
 31
0.0
  0
LINE
  5
107A4
330
10753
100
AcDbEntity
  8
0
  6
Continuous
100
AcDbLine
 10
22.35085874201096
 20
8.689149783183768
 30
0.0
 11
22.27690852520347
 21
8.763099999991254
 31
0.0
  0
ENDBLK
  5
10895
330
10753
100
AcDbEntity
  8
0
100
AcDbBlockEnd
  0
BLOCK
  5
10896
330
107A5
100
AcDbEntity
  8
0
100
AcDbBlockBegin
  2
*X4
 70
     1
 10
0.0
 20
0.0
 30
0.0
  3
*X4
  1

  0
LINE
  5
107A6
330
107A5
100
AcDbEntity
  8
0
  6
Continuous
100
AcDbLine
 10
23.19462913593892
 20
8.169917934846424
 30
0.0
 11
23.70775465517246
 21
8.683043454079957
 31
0.0
  0
LINE
  5
107A7
330
107A5
100
AcDbEntity
  8
0
  6
Continuous
100
AcDbLine
 10
22.64923161835078
 20
6.951001208178087
 30
0.0
 11
23.9159364069932
 21
8.217705996820516
 31
0.0
  0
LINE
  5
107A8
330
107A5
100
AcDbEntity
  8
0
  6
Continuous
100
AcDbLine
 10
22.10383410076263
 20
5.73208448150975
 30
0.0
 11
24.12411815881395
 21
7.752368539561077
 31
0.0
  0
LINE
  5
107A9
330
107A5
100
AcDbEntity
  8
0
  6
Continuous
100
AcDbLine
 10
21.55843658317447
 20
4.513167754841414
 30
0.0
 11
24.3322999106347
 21
7.287031082301638
 31
0.0
  0
LINE
  5
107AA
330
107A5
100
AcDbEntity
  8
0
  6
Continuous
100
AcDbLine
 10
21.01303906558632
 20
3.294251028173076
 30
0.0
 11
24.54048166245544
 21
6.821693625042199
 31
0.0
  0
LINE
  5
107AB
330
107A5
100
AcDbEntity
  8
0
  6
Continuous
100
AcDbLine
 10
20.46764154799817
 20
2.075334301504737
 30
0.0
 11
23.28571549467848
 21
4.89340824818505
 31
0.0
  0
LINE
  5
107AC
330
107A5
100
AcDbEntity
  8
0
  6
Continuous
100
AcDbLine
 10
19.92224403041002
 20
0.8564175748364002
 30
0.0
 11
22.74075865492779
 21
3.674932199354171
 31
0.0
  0
LINE
  5
107AD
330
107A5
100
AcDbEntity
  8
0
  6
Continuous
100
AcDbLine
 10
23.67305085490148
 20
5.280743608408047
 30
0.0
 11
24.74866341427619
 21
6.356356167782758
 31
0.0
  0
LINE
  5
107AE
330
107A5
100
AcDbEntity
  8
0
  6
Continuous
100
AcDbLine
 10
23.88118970842314
 20
4.815363252849521
 30
0.0
 11
24.95684516609694
 21
5.89101871052332
 31
0.0
  0
LINE
  5
107AF
330
107A5
100
AcDbEntity
  8
0
  6
Continuous
100
AcDbLine
 10
19.73925852647308
 20
-0.0000871381807288
 30
0.0
 11
23.4103456646501
 21
3.670999999996296
 31
0.0
  0
LINE
  5
107B0
330
107A5
100
AcDbEntity
  8
0
  6
Continuous
100
AcDbLine
 10
24.0893285619448
 20
4.349982897290996
 30
0.0
 11
25.16502691791769
 21
5.42568125326388
 31
0.0
  0
LINE
  5
107B1
330
107A5
100
AcDbEntity
  8
0
  6
Continuous
100
AcDbLine
 10
20.41282099582748
 20
-0.0000438779065108
 30
0.0
 11
21.64944178675636
 21
1.236576913022366
 31
0.0
  0
LINE
  5
107B2
330
107A5
100
AcDbEntity
  8
0
  6
Continuous
100
AcDbLine
 10
22.78126487373161
 20
2.368399999997619
 30
0.0
 11
24.08386487373029
 21
3.670999999996296
 31
0.0
  0
LINE
  5
107B3
330
107A5
100
AcDbEntity
  8
0
  6
Continuous
100
AcDbLine
 10
24.29746741546646
 20
3.884602541732471
 30
0.0
 11
25.37320866973843
 21
4.96034379600444
 31
0.0
  0
LINE
  5
107B4
330
107A5
100
AcDbEntity
  8
0
  6
Continuous
100
AcDbLine
 10
21.08638346518189
 20
-0.0000006176322938
 30
0.0
 11
21.10379033335899
 21
0.0174062505448083
 31
0.0
  0
LINE
  5
107B5
330
107A5
100
AcDbEntity
  8
0
  6
Continuous
100
AcDbLine
 10
23.4547840828118
 20
2.368399999997619
 30
0.0
 11
25.58139042155918
 21
4.495006338745001
 31
0.0
  0
LINE
  5
107B6
330
107A5
100
AcDbEntity
  8
0
  6
Continuous
100
AcDbLine
 10
29.30199999996933
 20
8.215615917155147
 30
0.0
 11
29.84948408280543
 21
8.763099999991254
 31
0.0
  0
LINE
  5
107B7
330
107A5
100
AcDbEntity
  8
0
  6
Continuous
100
AcDbLine
 10
24.12830329189199
 20
2.368399999997619
 30
0.0
 11
25.78957217337993
 21
4.029668881485561
 31
0.0
  0
LINE
  5
107B8
330
107A5
100
AcDbEntity
  8
0
  6
Continuous
100
AcDbLine
 10
29.30199999996933
 20
7.542096708074959
 30
0.0
 11
30.52300329188562
 21
8.763099999991254
 31
0.0
  0
LINE
  5
107B9
330
107A5
100
AcDbEntity
  8
0
  6
Continuous
100
AcDbLine
 10
24.80182250097217
 20
2.368399999997619
 30
0.0
 11
25.99775392520067
 21
3.564331424226121
 31
0.0
  0
LINE
  5
107BA
330
107A5
100
AcDbEntity
  8
0
  6
Continuous
100
AcDbLine
 10
29.30199999996933
 20
6.868577498994773
 30
0.0
 11
30.74199999996926
 21
8.308577498994713
 31
0.0
  0
LINE
  5
107BB
330
107A5
100
AcDbEntity
  8
0
  6
Continuous
100
AcDbLine
 10
25.13028238392013
 20
2.023340673865392
 30
0.0
 11
26.20593567702143
 21
3.098993966966683
 31
0.0
  0
LINE
  5
107BC
330
107A5
100
AcDbEntity
  8
0
  6
Continuous
100
AcDbLine
 10
25.33838066033617
 20
1.557919741201243
 30
0.0
 11
26.41411742884217
 21
2.633656509707244
 31
0.0
  0
LINE
  5
107BD
330
107A5
100
AcDbEntity
  8
0
  6
Continuous
100
AcDbLine
 10
25.54647893675221
 20
1.092498808537097
 30
0.0
 11
26.62229918066291
 21
2.168319052447803
 31
0.0
  0
LINE
  5
107BE
330
107A5
100
AcDbEntity
  8
0
  6
Continuous
100
AcDbLine
 10
25.75457721316825
 20
0.62707787587295
 30
0.0
 11
26.83048093248366
 21
1.702981595188364
 31
0.0
  0
LINE
  5
107BF
330
107A5
100
AcDbEntity
  8
0
  6
Continuous
100
AcDbLine
 10
29.30199999996933
 20
6.195058289914587
 30
0.0
 11
30.74199999996926
 21
7.635058289914522
 31
0.0
  0
LINE
  5
107C0
330
107A5
100
AcDbEntity
  8
0
  6
Continuous
100
AcDbLine
 10
29.30199999996933
 20
5.521539080834402
 30
0.0
 11
30.74199999996926
 21
6.961539080834331
 31
0.0
  0
LINE
  5
107C1
330
107A5
100
AcDbEntity
  8
0
  6
Continuous
100
AcDbLine
 10
29.30199999996933
 20
4.848019871754213
 30
0.0
 11
30.74199999996925
 21
6.288019871754142
 31
0.0
  0
LINE
  5
107C2
330
107A5
100
AcDbEntity
  8
0
  6
Continuous
100
AcDbLine
 10
29.30199999996933
 20
4.174500662674028
 30
0.0
 11
30.74199999996925
 21
5.614500662673952
 31
0.0
  0
LINE
  5
107C3
330
107A5
100
AcDbEntity
  8
0
  6
Continuous
100
AcDbLine
 10
25.96267548958429
 20
0.1616569432088024
 30
0.0
 11
27.18411854636669
 21
1.383099999991207
 31
0.0
  0
LINE
  5
107C4
330
107A5
100
AcDbEntity
  8
0
  6
Continuous
100
AcDbLine
 10
29.30199999996933
 20
3.500981453593841
 30
0.0
 11
30.74199999996925
 21
4.940981453593761
 31
0.0
  0
LINE
  5
107C5
330
107A5
100
AcDbEntity
  8
0
  6
Continuous
100
AcDbLine
 10
26.50763775544691
 20
0.0330999999912356
 30
0.0
 11
27.85763775544689
 21
1.383099999991223
 31
0.0
  0
LINE
  5
107C6
330
107A5
100
AcDbEntity
  8
0
  6
Continuous
100
AcDbLine
 10
29.30199999996933
 20
2.827462244513656
 30
0.0
 11
30.74199999996925
 21
4.267462244513573
 31
0.0
  0
LINE
  5
107C7
330
107A5
100
AcDbEntity
  8
0
  6
Continuous
100
AcDbLine
 10
27.18115696452709
 20
0.0330999999912356
 30
0.0
 11
28.6224847300034
 21
1.474427765467544
 31
0.0
  0
LINE
  5
107C8
330
107A5
100
AcDbEntity
  8
0
  6
Continuous
100
AcDbLine
 10
29.21067223449293
 20
2.062615269957069
 30
0.0
 11
30.74199999996924
 21
3.593943035433383
 31
0.0
  0
LINE
  5
107C9
330
107A5
100
AcDbEntity
  8
0
  6
Continuous
100
AcDbLine
 10
27.85467617360728
 20
0.0330999999912356
 30
0.0
 11
30.74199999996924
 21
2.920423826353194
 31
0.0
  0
LINE
  5
107CA
330
107A5
100
AcDbEntity
  8
0
  6
Continuous
100
AcDbLine
 10
28.61742899356196
 20
0.1223336108657271
 30
0.0
 11
30.65276638909473
 21
2.157671006398498
 31
0.0
  0
LINE
  5
107CB
330
107A5
100
AcDbEntity
  8
0
  6
Continuous
100
AcDbLine
 10
29.76719820264213
 20
0.5985836108657137
 30
0.0
 11
30.17651638909472
 21
1.007901797318299
 31
0.0
  0
LINE
  5
107CC
330
107A5
100
AcDbEntity
  8
0
  6
Continuous
100
AcDbLine
 10
19.59027867740337
 20
-0.0000967065718083
 30
0.0
 11
19.55485265190471
 21
0.035329318926844
 31
0.0
  0
LINE
  5
107CD
330
107A5
100
AcDbEntity
  8
0
  6
Continuous
100
AcDbLine
 10
20.26375463176586
 20
-0.0000534518541091
 30
0.0
 11
19.76305575737534
 21
0.5006454225364015
 31
0.0
  0
LINE
  5
107CE
330
107A5
100
AcDbEntity
  8
0
  6
Continuous
100
AcDbLine
 10
20.93723058612834
 20
-0.0000101971364099
 30
0.0
 11
19.97125886284597
 21
0.9659615261459579
 31
0.0
  0
LINE
  5
107CF
330
107A5
100
AcDbEntity
  8
0
  6
Continuous
100
AcDbLine
 10
21.25514828313686
 20
0.355591314935257
 30
0.0
 11
20.1794619683166
 21
1.431277629755511
 31
0.0
  0
LINE
  5
107D0
330
107A5
100
AcDbEntity
  8
0
  6
Continuous
100
AcDbLine
 10
21.46338838394921
 20
0.8208704232030985
 30
0.0
 11
20.38766507378723
 21
1.896593733365069
 31
0.0
  0
LINE
  5
107D1
330
107A5
100
AcDbEntity
  8
0
  6
Continuous
100
AcDbLine
 10
21.67162848476155
 20
1.286149531470939
 30
0.0
 11
20.59586817925786
 21
2.361909836974625
 31
0.0
  0
LINE
  5
107D2
330
107A5
100
AcDbEntity
  8
0
  6
Continuous
100
AcDbLine
 10
21.8798685855739
 20
1.751428639738782
 30
0.0
 11
20.80407128472849
 21
2.827225940584183
 31
0.0
  0
LINE
  5
107D3
330
107A5
100
AcDbEntity
  8
0
  6
Continuous
100
AcDbLine
 10
22.08810868638624
 20
2.216707748006623
 30
0.0
 11
21.01227439019912
 21
3.292542044193738
 31
0.0
  0
LINE
  5
107D4
330
107A5
100
AcDbEntity
  8
0
  6
Continuous
100
AcDbLine
 10
22.60993564347543
 20
2.368399999997619
 30
0.0
 11
21.22047749566975
 21
3.757858147803296
 31
0.0
  0
LINE
  5
107D5
330
107A5
100
AcDbEntity
  8
0
  6
Continuous
100
AcDbLine
 10
23.28345485255561
 20
2.368399999997619
 30
0.0
 11
21.42868060114038
 21
4.223174251412853
 31
0.0
  0
LINE
  5
107D6
330
107A5
100
AcDbEntity
  8
0
  6
Continuous
100
AcDbLine
 10
26.29227406164219
 20
0.0330999999912356
 30
0.0
 11
25.80009199592872
 21
0.5252820657046957
 31
0.0
  0
LINE
  5
107D7
330
107A5
100
AcDbEntity
  8
0
  6
Continuous
100
AcDbLine
 10
23.9569740616358
 20
2.368399999997619
 30
0.0
 11
21.63688370661101
 21
4.688490355022408
 31
0.0
  0
LINE
  5
107D8
330
107A5
100
AcDbEntity
  8
0
  6
Continuous
100
AcDbLine
 10
26.96579327072237
 20
0.0330999999912356
 30
0.0
 11
25.2554132311971
 21
1.743480039516508
 31
0.0
  0
LINE
  5
107D9
330
107A5
100
AcDbEntity
  8
0
  6
Continuous
100
AcDbLine
 10
24.63049327071599
 20
2.368399999997619
 30
0.0
 11
23.32789327071731
 21
3.670999999996296
 31
0.0
  0
LINE
  5
107DA
330
107A5
100
AcDbEntity
  8
0
  6
Continuous
100
AcDbLine
 10
22.92098674744635
 20
4.077906523267254
 30
0.0
 11
21.84508681208164
 21
5.153806458631966
 31
0.0
  0
LINE
  5
107DB
330
107A5
100
AcDbEntity
  8
0
  6
Continuous
100
AcDbLine
 10
27.63931247980256
 20
0.0330999999912356
 30
0.0
 11
24.0014124797975
 21
3.670999999996296
 31
0.0
  0
LINE
  5
107DC
330
107A5
100
AcDbEntity
  8
0
  6
Continuous
100
AcDbLine
 10
23.129125600968
 20
4.543286878825799
 30
0.0
 11
22.05328991755227
 21
5.619122562241521
 31
0.0
  0
LINE
  5
107DD
330
107A5
100
AcDbEntity
  8
0
  6
Continuous
100
AcDbLine
 10
28.31283168888275
 20
0.0330999999912356
 30
0.0
 11
24.16488385994816
 21
4.181047828925827
 31
0.0
  0
LINE
  5
107DE
330
107A5
100
AcDbEntity
  8
0
  6
Continuous
100
AcDbLine
 10
23.33726445448964
 20
5.008667234384344
 30
0.0
 11
22.2614930230229
 21
6.084438665851079
 31
0.0
  0
LINE
  5
107DF
330
107A5
100
AcDbEntity
  8
0
  6
Continuous
100
AcDbLine
 10
28.81519848253303
 20
0.2042524154211396
 30
0.0
 11
27.63635089796295
 21
1.383099999991217
 31
0.0
  0
LINE
  5
107E0
330
107A5
100
AcDbEntity
  8
0
  6
Continuous
100
AcDbLine
 10
26.43704649509776
 20
2.582404402856404
 30
0.0
 11
23.61992702019732
 21
5.399523877756843
 31
0.0
  0
LINE
  5
107E1
330
107A5
100
AcDbEntity
  8
0
  6
Continuous
100
AcDbLine
 10
23.54540330801128
 20
5.474047589942888
 30
0.0
 11
22.46969612849353
 21
6.549754769460634
 31
0.0
  0
LINE
  5
107E2
330
107A5
100
AcDbEntity
  8
0
  6
Continuous
100
AcDbLine
 10
29.29144848253303
 20
0.4015216245013243
 30
0.0
 11
28.30987010704312
 21
1.383099999991234
 31
0.0
  0
LINE
  5
107E3
330
107A5
100
AcDbEntity
  8
0
  6
Continuous
100
AcDbLine
 10
25.89179548232307
 20
3.801174624711281
 30
0.0
 11
22.67789923396416
 21
7.01507087307019
 31
0.0
  0
LINE
  5
107E4
330
107A5
100
AcDbEntity
  8
0
  6
Continuous
100
AcDbLine
 10
29.76769848253303
 20
0.5987908335815085
 30
0.0
 11
28.81310432793121
 21
1.553384988183335
 31
0.0
  0
LINE
  5
107E5
330
107A5
100
AcDbEntity
  8
0
  6
Continuous
100
AcDbLine
 10
25.34654446954838
 20
5.01994484656616
 30
0.0
 11
22.88610233943479
 21
7.480386976679747
 31
0.0
  0
LINE
  5
107E6
330
107A5
100
AcDbEntity
  8
0
  6
Continuous
100
AcDbLine
 10
30.13421977859274
 20
0.9057887466019844
 30
0.0
 11
29.14234640337737
 21
1.897662121817354
 31
0.0
  0
LINE
  5
107E7
330
107A5
100
AcDbEntity
  8
0
  6
Continuous
100
AcDbLine
 10
24.80129345677369
 20
6.238715068421036
 30
0.0
 11
23.09430544490542
 21
7.945703080289304
 31
0.0
  0
LINE
  5
107E8
330
107A5
100
AcDbEntity
  8
0
  6
Continuous
100
AcDbLine
 10
30.33148898767293
 20
1.382038746601981
 30
0.0
 11
29.30199999996933
 21
2.411527734305587
 31
0.0
  0
LINE
  5
107E9
330
107A5
100
AcDbEntity
  8
0
  6
Continuous
100
AcDbLine
 10
30.52875819675312
 20
1.85828874660198
 30
0.0
 11
29.30199999996933
 21
3.085046943385775
 31
0.0
  0
LINE
  5
107EA
330
107A5
100
AcDbEntity
  8
0
  6
Continuous
100
AcDbLine
 10
24.256042443999
 20
7.457485290275914
 30
0.0
 11
23.30250855037605
 21
8.411019183898861
 31
0.0
  0
LINE
  5
107EB
330
107A5
100
AcDbEntity
  8
0
  6
Continuous
100
AcDbLine
 10
23.71079143122431
 20
8.676255512130794
 30
0.0
 11
23.51071165584668
 21
8.876335287508418
 31
0.0
  0
LINE
  5
107EC
330
107A5
100
AcDbEntity
  8
0
  6
Continuous
100
AcDbLine
 10
30.72602740583331
 20
2.334538746601977
 30
0.0
 11
29.30199999996933
 21
3.758566152465961
 31
0.0
  0
LINE
  5
107ED
330
107A5
100
AcDbEntity
  8
0
  6
Continuous
100
AcDbLine
 10
30.74199999996924
 20
2.992085361546236
 30
0.0
 11
29.30199999996933
 21
4.432085361546148
 31
0.0
  0
LINE
  5
107EE
330
107A5
100
AcDbEntity
  8
0
  6
Continuous
100
AcDbLine
 10
30.74199999996924
 20
3.665604570626419
 30
0.0
 11
29.30199999996933
 21
5.105604570626332
 31
0.0
  0
LINE
  5
107EF
330
107A5
100
AcDbEntity
  8
0
  6
Continuous
100
AcDbLine
 10
30.74199999996925
 20
4.339123779706602
 30
0.0
 11
29.30199999996933
 21
5.77912377970652
 31
0.0
  0
LINE
  5
107F0
330
107A5
100
AcDbEntity
  8
0
  6
Continuous
100
AcDbLine
 10
30.74199999996925
 20
5.012642988786785
 30
0.0
 11
29.30199999996933
 21
6.452642988786706
 31
0.0
  0
LINE
  5
107F1
330
107A5
100
AcDbEntity
  8
0
  6
Continuous
100
AcDbLine
 10
30.74199999996925
 20
5.68616219786697
 30
0.0
 11
29.30199999996933
 21
7.126162197866894
 31
0.0
  0
LINE
  5
107F2
330
107A5
100
AcDbEntity
  8
0
  6
Continuous
100
AcDbLine
 10
30.74199999996925
 20
6.359681406947152
 30
0.0
 11
29.30199999996933
 21
7.799681406947081
 31
0.0
  0
LINE
  5
107F3
330
107A5
100
AcDbEntity
  8
0
  6
Continuous
100
AcDbLine
 10
30.74199999996926
 20
7.033200616027337
 30
0.0
 11
29.30199999996933
 21
8.473200616027268
 31
0.0
  0
LINE
  5
107F4
330
107A5
100
AcDbEntity
  8
0
  6
Continuous
100
AcDbLine
 10
30.74199999996926
 20
7.706719825107517
 30
0.0
 11
29.68561982508552
 21
8.763099999991254
 31
0.0
  0
LINE
  5
107F5
330
107A5
100
AcDbEntity
  8
0
  6
Continuous
100
AcDbLine
 10
30.74199999996926
 20
8.380239034187701
 30
0.0
 11
30.35913903416571
 21
8.763099999991254
 31
0.0
  0
ENDBLK
  5
10897
330
107A5
100
AcDbEntity
  8
0
100
AcDbBlockEnd
  0
BLOCK
  5
10898
330
107F6
100
AcDbEntity
  8
0
100
AcDbBlockBegin
  2
*X5
 70
     1
 10
0.0
 20
0.0
 30
0.0
  3
*X5
  1

  0
LINE
  5
107F7
330
107F6
100
AcDbEntity
  8
0
  6
Continuous
100
AcDbLine
 10
31.64199999996833
 20
8.535058289913596
 30
0.0
 11
31.87004171004599
 21
8.763099999991254
 31
0.0
  0
LINE
  5
107F8
330
107F6
100
AcDbEntity
  8
0
  6
Continuous
100
AcDbLine
 10
31.64199999996833
 20
7.861539080833412
 30
0.0
 11
32.54356091912618
 21
8.763099999991254
 31
0.0
  0
LINE
  5
107F9
330
107F6
100
AcDbEntity
  8
0
  6
Continuous
100
AcDbLine
 10
31.64199999996833
 20
7.188019871753226
 30
0.0
 11
33.08199999996839
 21
8.628019871753281
 31
0.0
  0
LINE
  5
107FA
330
107F6
100
AcDbEntity
  8
0
  6
Continuous
100
AcDbLine
 10
31.64199999996833
 20
6.51450066267304
 30
0.0
 11
33.08199999996839
 21
7.954500662673094
 31
0.0
  0
LINE
  5
107FB
330
107F6
100
AcDbEntity
  8
0
  6
Continuous
100
AcDbLine
 10
31.64199999996833
 20
5.840981453592852
 30
0.0
 11
33.08199999996839
 21
7.280981453592906
 31
0.0
  0
LINE
  5
107FC
330
107F6
100
AcDbEntity
  8
0
  6
Continuous
100
AcDbLine
 10
31.64199999996833
 20
5.167462244512667
 30
0.0
 11
33.08199999996839
 21
6.607462244512721
 31
0.0
  0
LINE
  5
107FD
330
107F6
100
AcDbEntity
  8
0
  6
Continuous
100
AcDbLine
 10
31.64199999996833
 20
4.49394303543248
 30
0.0
 11
33.08199999996839
 21
5.933943035432535
 31
0.0
  0
LINE
  5
107FE
330
107F6
100
AcDbEntity
  8
0
  6
Continuous
100
AcDbLine
 10
31.64199999996833
 20
3.820423826352292
 30
0.0
 11
33.08199999996839
 21
5.260423826352347
 31
0.0
  0
LINE
  5
107FF
330
107F6
100
AcDbEntity
  8
0
  6
Continuous
100
AcDbLine
 10
31.64199999996833
 20
3.146904617272106
 30
0.0
 11
33.08199999996839
 21
4.586904617272161
 31
0.0
  0
LINE
  5
10800
330
107F6
100
AcDbEntity
  8
0
  6
Continuous
100
AcDbLine
 10
36.23199999996837
 20
8.410423826352324
 30
0.0
 11
36.5846761736073
 21
8.763099999991254
 31
0.0
  0
LINE
  5
10801
330
107F6
100
AcDbEntity
  8
0
  6
Continuous
100
AcDbLine
 10
36.23199999996837
 20
7.73690461727214
 30
0.0
 11
37.25819538268748
 21
8.763099999991254
 31
0.0
  0
LINE
  5
10802
330
107F6
100
AcDbEntity
  8
0
  6
Continuous
100
AcDbLine
 10
31.64374005202358
 20
2.475125460247166
 30
0.0
 11
33.08199999996839
 21
3.913385408191973
 31
0.0
  0
LINE
  5
10803
330
107F6
100
AcDbEntity
  8
0
  6
Continuous
100
AcDbLine
 10
31.78607140823076
 20
1.94393760737416
 30
0.0
 11
33.08199999996839
 21
3.239866199111788
 31
0.0
  0
LINE
  5
10804
330
107F6
100
AcDbEntity
  8
0
  6
Continuous
100
AcDbLine
 10
31.92840276443794
 20
1.412749754501154
 30
0.0
 11
33.08199999996839
 21
2.566346990031601
 31
0.0
  0
LINE
  5
10805
330
107F6
100
AcDbEntity
  8
0
  6
Continuous
100
AcDbLine
 10
36.23199999996837
 20
7.063385408191952
 30
0.0
 11
37.67199999996832
 21
8.503385408191892
 31
0.0
  0
LINE
  5
10806
330
107F6
100
AcDbEntity
  8
0
  6
Continuous
100
AcDbLine
 10
36.23199999996837
 20
6.389866199111767
 30
0.0
 11
37.67199999996832
 21
7.829866199111707
 31
0.0
  0
LINE
  5
10807
330
107F6
100
AcDbEntity
  8
0
  6
Continuous
100
AcDbLine
 10
36.23199999996837
 20
5.716346990031579
 30
0.0
 11
37.67199999996832
 21
7.156346990031521
 31
0.0
  0
LINE
  5
10808
330
107F6
100
AcDbEntity
  8
0
  6
Continuous
100
AcDbLine
 10
32.1787326690177
 20
0.9895604500007255
 30
0.0
 11
33.20642631446081
 21
2.017254095443837
 31
0.0
  0
LINE
  5
10809
330
107F6
100
AcDbEntity
  8
0
  6
Continuous
100
AcDbLine
 10
36.23199999996837
 20
5.042827780951394
 30
0.0
 11
37.67199999996832
 21
6.482827780951334
 31
0.0
  0
LINE
  5
1080A
330
107F6
100
AcDbEntity
  8
0
  6
Continuous
100
AcDbLine
 10
32.51549227355815
 20
0.652800845460991
 30
0.0
 11
33.49903056428258
 21
1.636339136185418
 31
0.0
  0
LINE
  5
1080B
330
107F6
100
AcDbEntity
  8
0
  6
Continuous
100
AcDbLine
 10
36.23199999996837
 20
4.369308571871206
 30
0.0
 11
37.67199999996832
 21
5.809308571871147
 31
0.0
  0
LINE
  5
1080C
330
107F6
100
AcDbEntity
  8
0
  6
Continuous
100
AcDbLine
 10
32.8522518780986
 20
0.3160412409212565
 30
0.0
 11
33.93324121824649
 21
1.397030581069147
 31
0.0
  0
LINE
  5
1080D
330
107F6
100
AcDbEntity
  8
0
  6
Continuous
100
AcDbLine
 10
36.23199999996837
 20
3.69578936279102
 30
0.0
 11
37.67199999996832
 21
5.135789362790961
 31
0.0
  0
LINE
  5
1080E
330
107F6
100
AcDbEntity
  8
0
  6
Continuous
100
AcDbLine
 10
33.32873687730419
 20
0.1190070310466638
 30
0.0
 11
34.46442907112041
 21
1.254699224862874
 31
0.0
  0
LINE
  5
1080F
330
107F6
100
AcDbEntity
  8
0
  6
Continuous
100
AcDbLine
 10
36.23199999996837
 20
3.022270153710833
 30
0.0
 11
37.67199999996832
 21
4.462270153710774
 31
0.0
  0
LINE
  5
10810
330
107F6
100
AcDbEntity
  8
0
  6
Continuous
100
AcDbLine
 10
33.85992473017767
 20
-0.0233243251600488
 30
0.0
 11
35.24350171668285
 21
1.360252661345124
 31
0.0
  0
LINE
  5
10811
330
107F6
100
AcDbEntity
  8
0
  6
Continuous
100
AcDbLine
 10
36.18336676155003
 20
2.300117706212306
 30
0.0
 11
37.67199999996832
 21
3.788750944630587
 31
0.0
  0
LINE
  5
10812
330
107F6
100
AcDbEntity
  8
0
  6
Continuous
100
AcDbLine
 10
34.39111258305115
 20
-0.1656556813667613
 30
0.0
 11
37.67199999996832
 21
3.115231735550401
 31
0.0
  0
LINE
  5
10813
330
107F6
100
AcDbEntity
  8
0
  6
Continuous
100
AcDbLine
 10
35.11651383431612
 20
-0.1137736391819715
 30
0.0
 11
37.65739306207836
 21
2.427105588580266
 31
0.0
  0
LINE
  5
10814
330
107F6
100
AcDbEntity
  8
0
  6
Continuous
100
AcDbLine
 10
36.03655818385387
 20
0.1327515012755951
 30
0.0
 11
37.41086792161699
 21
1.507061239038711
 31
0.0
  0
LINE
  5
10815
330
107F6
100
AcDbEntity
  8
0
  6
Continuous
100
AcDbLine
 10
33.71988657648365
 20
0.0141987850318213
 30
0.0
 11
31.78457936207464
 21
1.949505999440825
 31
0.0
  0
LINE
  5
10816
330
107F6
100
AcDbEntity
  8
0
  6
Continuous
100
AcDbLine
 10
34.63993092602409
 20
-0.2323263554284312
 30
0.0
 11
31.64199999996833
 21
2.765604570627321
 31
0.0
  0
LINE
  5
10817
330
107F6
100
AcDbEntity
  8
0
  6
Continuous
100
AcDbLine
 10
35.17833301840466
 20
-0.0972092387288228
 30
0.0
 11
31.64199999996833
 21
3.439123779707508
 31
0.0
  0
LINE
  5
10818
330
107F6
100
AcDbEntity
  8
0
  6
Continuous
100
AcDbLine
 10
35.70952087127903
 20
0.0451221174769945
 30
0.0
 11
34.51294304365551
 21
1.241699945100515
 31
0.0
  0
LINE
  5
10819
330
107F6
100
AcDbEntity
  8
0
  6
Continuous
100
AcDbLine
 10
33.08199999996839
 20
2.672642988787639
 30
0.0
 11
31.64199999996833
 21
4.112642988787694
 31
0.0
  0
LINE
  5
1081A
330
107F6
100
AcDbEntity
  8
0
  6
Continuous
100
AcDbLine
 10
36.2407087241534
 20
0.1874534736828117
 30
0.0
 11
35.10501653033629
 21
1.323145667499924
 31
0.0
  0
LINE
  5
1081B
330
107F6
100
AcDbEntity
  8
0
  6
Continuous
100
AcDbLine
 10
33.08199999996839
 20
3.346162197867826
 30
0.0
 11
31.64199999996833
 21
4.786162197867881
 31
0.0
  0
LINE
  5
1081C
330
107F6
100
AcDbEntity
  8
0
  6
Continuous
100
AcDbLine
 10
36.62369414391586
 20
0.4779872630005553
 30
0.0
 11
35.63620438320989
 21
1.465477023706504
 31
0.0
  0
LINE
  5
1081D
330
107F6
100
AcDbEntity
  8
0
  6
Continuous
100
AcDbLine
 10
33.08199999996839
 20
4.019681406948011
 30
0.0
 11
31.64199999996833
 21
5.459681406948067
 31
0.0
  0
LINE
  5
1081E
330
107F6
100
AcDbEntity
  8
0
  6
Continuous
100
AcDbLine
 10
36.96045374845689
 20
0.8147468675397027
 30
0.0
 11
35.97691545773309
 21
1.798285158263504
 31
0.0
  0
LINE
  5
1081F
330
107F6
100
AcDbEntity
  8
0
  6
Continuous
100
AcDbLine
 10
33.08199999996839
 20
4.693200616028199
 30
0.0
 11
31.64199999996833
 21
6.133200616028255
 31
0.0
  0
LINE
  5
10820
330
107F6
100
AcDbEntity
  8
0
  6
Continuous
100
AcDbLine
 10
37.29721335299792
 20
1.15150647207885
 30
0.0
 11
36.17602012811361
 21
2.272699696963167
 31
0.0
  0
LINE
  5
10821
330
107F6
100
AcDbEntity
  8
0
  6
Continuous
100
AcDbLine
 10
33.08199999996839
 20
5.366719825108386
 30
0.0
 11
31.64199999996833
 21
6.806719825108439
 31
0.0
  0
LINE
  5
10822
330
107F6
100
AcDbEntity
  8
0
  6
Continuous
100
AcDbLine
 10
37.45404367813572
 20
1.668195356021243
 30
0.0
 11
36.23199999996837
 21
2.890239034188593
 31
0.0
  0
LINE
  5
10823
330
107F6
100
AcDbEntity
  8
0
  6
Continuous
100
AcDbLine
 10
37.5963750343428
 20
2.199383208894345
 30
0.0
 11
36.23199999996837
 21
3.563758243268779
 31
0.0
  0
LINE
  5
10824
330
107F6
100
AcDbEntity
  8
0
  6
Continuous
100
AcDbLine
 10
33.08199999996839
 20
6.040239034188572
 30
0.0
 11
31.64199999996833
 21
7.480239034188628
 31
0.0
  0
LINE
  5
10825
330
107F6
100
AcDbEntity
  8
0
  6
Continuous
100
AcDbLine
 10
33.08199999996839
 20
6.713758243268758
 30
0.0
 11
31.64199999996833
 21
8.153758243268814
 31
0.0
  0
LINE
  5
10826
330
107F6
100
AcDbEntity
  8
0
  6
Continuous
100
AcDbLine
 10
37.67199999996832
 20
2.797277452349025
 30
0.0
 11
36.23199999996837
 21
4.237277452348966
 31
0.0
  0
LINE
  5
10827
330
107F6
100
AcDbEntity
  8
0
  6
Continuous
100
AcDbLine
 10
37.67199999996832
 20
3.470796661429212
 30
0.0
 11
36.23199999996837
 21
4.910796661429152
 31
0.0
  0
LINE
  5
10828
330
107F6
100
AcDbEntity
  8
0
  6
Continuous
100
AcDbLine
 10
37.67199999996832
 20
4.144315870509399
 30
0.0
 11
36.23199999996837
 21
5.584315870509339
 31
0.0
  0
LINE
  5
10829
330
107F6
100
AcDbEntity
  8
0
  6
Continuous
100
AcDbLine
 10
33.08199999996839
 20
7.387277452348945
 30
0.0
 11
31.70617745232608
 21
8.763099999991254
 31
0.0
  0
LINE
  5
1082A
330
107F6
100
AcDbEntity
  8
0
  6
Continuous
100
AcDbLine
 10
33.08199999996839
 20
8.060796661429131
 30
0.0
 11
32.37969666140626
 21
8.763099999991254
 31
0.0
  0
LINE
  5
1082B
330
107F6
100
AcDbEntity
  8
0
  6
Continuous
100
AcDbLine
 10
33.08199999996839
 20
8.734315870509316
 30
0.0
 11
33.05321587048645
 21
8.763099999991254
 31
0.0
  0
LINE
  5
1082C
330
107F6
100
AcDbEntity
  8
0
  6
Continuous
100
AcDbLine
 10
37.67199999996832
 20
4.817835079589585
 30
0.0
 11
36.23199999996837
 21
6.257835079589527
 31
0.0
  0
LINE
  5
1082D
330
107F6
100
AcDbEntity
  8
0
  6
Continuous
100
AcDbLine
 10
37.67199999996832
 20
5.491354288669771
 30
0.0
 11
36.23199999996837
 21
6.931354288669712
 31
0.0
  0
LINE
  5
1082E
330
107F6
100
AcDbEntity
  8
0
  6
Continuous
100
AcDbLine
 10
37.67199999996832
 20
6.164873497749956
 30
0.0
 11
36.23199999996837
 21
7.6048734977499
 31
0.0
  0
LINE
  5
1082F
330
107F6
100
AcDbEntity
  8
0
  6
Continuous
100
AcDbLine
 10
37.67199999996832
 20
6.838392706830143
 30
0.0
 11
36.23199999996837
 21
8.278392706830086
 31
0.0
  0
LINE
  5
10830
330
107F6
100
AcDbEntity
  8
0
  6
Continuous
100
AcDbLine
 10
37.67199999996832
 20
7.511911915910332
 30
0.0
 11
36.42081191588739
 21
8.763099999991254
 31
0.0
  0
LINE
  5
10831
330
107F6
100
AcDbEntity
  8
0
  6
Continuous
100
AcDbLine
 10
37.67199999996832
 20
8.185431124990518
 30
0.0
 11
37.09433112496757
 21
8.763099999991254
 31
0.0
  0
ENDBLK
  5
10899
330
107F6
100
AcDbEntity
  8
0
100
AcDbBlockEnd
  0
BLOCK
  5
1089A
330
10832
100
AcDbEntity
  8
0
100
AcDbBlockBegin
  2
*X6
 70
     1
 10
0.0
 20
0.0
 30
0.0
  3
*X6
  1

  0
LINE
  5
10833
330
10832
100
AcDbEntity
  8
0
  6
Continuous
100
AcDbLine
 10
38.60499999996136
 20
8.762866199104763
 30
0.0
 11
38.71672554182345
 21
8.874591740966854
 31
0.0
  0
LINE
  5
10834
330
10832
100
AcDbEntity
  8
0
  6
Continuous
100
AcDbLine
 10
38.60499999996136
 20
8.089346990024576
 30
0.0
 11
39.03418785440364
 21
8.518534844466847
 31
0.0
  0
LINE
  5
10835
330
10832
100
AcDbEntity
  8
0
  6
Continuous
100
AcDbLine
 10
38.60499999996136
 20
7.415827780944389
 30
0.0
 11
39.35165016698382
 21
8.16247794796684
 31
0.0
  0
LINE
  5
10836
330
10832
100
AcDbEntity
  8
0
  6
Continuous
100
AcDbLine
 10
38.60499999996136
 20
6.742308571864204
 30
0.0
 11
39.66911247956399
 21
7.806421051466834
 31
0.0
  0
LINE
  5
10837
330
10832
100
AcDbEntity
  8
0
  6
Continuous
100
AcDbLine
 10
38.60499999996136
 20
6.068789362784017
 30
0.0
 11
39.98657479214418
 21
7.450364154966827
 31
0.0
  0
LINE
  5
10838
330
10832
100
AcDbEntity
  8
0
  6
Continuous
100
AcDbLine
 10
38.60499999996136
 20
5.395270153703832
 30
0.0
 11
40.30403710472435
 21
7.09430725846682
 31
0.0
  0
LINE
  5
10839
330
10832
100
AcDbEntity
  8
0
  6
Continuous
100
AcDbLine
 10
38.60499999996136
 20
4.721750944623644
 30
0.0
 11
40.62149941730452
 21
6.738250361966812
 31
0.0
  0
LINE
  5
1083A
330
10832
100
AcDbEntity
  8
0
  6
Continuous
100
AcDbLine
 10
38.60499999996136
 20
4.048231735543457
 30
0.0
 11
40.93896172988471
 21
6.382193465466807
 31
0.0
  0
LINE
  5
1083B
330
10832
100
AcDbEntity
  8
0
  6
Continuous
100
AcDbLine
 10
38.60499999996136
 20
3.374712526463271
 30
0.0
 11
40.02599999995993
 21
4.795712526461842
 31
0.0
  0
LINE
  5
1083C
330
10832
100
AcDbEntity
  8
0
  6
Continuous
100
AcDbLine
 10
38.60499999996136
 20
2.701193317383085
 30
0.0
 11
40.02599999995993
 21
4.122193317381657
 31
0.0
  0
LINE
  5
1083D
330
10832
100
AcDbEntity
  8
0
  6
Continuous
100
AcDbLine
 10
40.28339754687704
 20
5.053110073378947
 30
0.0
 11
41.25642404246489
 21
6.026136568966799
 31
0.0
  0
LINE
  5
1083E
330
10832
100
AcDbEntity
  8
0
  6
Continuous
100
AcDbLine
 10
40.60085985945722
 20
4.697053176878938
 30
0.0
 11
41.57388635504506
 21
5.670079672466792
 31
0.0
  0
LINE
  5
1083F
330
10832
100
AcDbEntity
  8
0
  6
Continuous
100
AcDbLine
 10
43.5789999999564
 20
8.348712526458317
 30
0.0
 11
43.99338747348934
 21
8.763099999991254
 31
0.0
  0
LINE
  5
10840
330
10832
100
AcDbEntity
  8
0
  6
Continuous
100
AcDbLine
 10
43.5789999999564
 20
7.675193317378131
 30
0.0
 11
44.66690668256953
 21
8.763099999991254
 31
0.0
  0
LINE
  5
10841
330
10832
100
AcDbEntity
  8
0
  6
Continuous
100
AcDbLine
 10
38.60499999996136
 20
2.027674108302897
 30
0.0
 11
40.02599999995993
 21
3.44867410830147
 31
0.0
  0
LINE
  5
10842
330
10832
100
AcDbEntity
  8
0
  6
Continuous
100
AcDbLine
 10
38.60499999996136
 20
1.354154899222711
 30
0.0
 11
40.02599999995993
 21
2.775154899221284
 31
0.0
  0
LINE
  5
10843
330
10832
100
AcDbEntity
  8
0
  6
Continuous
100
AcDbLine
 10
38.60499999996136
 20
0.6806356901425255
 30
0.0
 11
40.02599999995993
 21
2.101635690141098
 31
0.0
  0
LINE
  5
10844
330
10832
100
AcDbEntity
  8
0
  6
Continuous
100
AcDbLine
 10
38.60499999996136
 20
0.0071164810623383
 30
0.0
 11
40.02599999995993
 21
1.42811648106091
 31
0.0
  0
LINE
  5
10845
330
10832
100
AcDbEntity
  8
0
  6
Continuous
100
AcDbLine
 10
40.9183221720374
 20
4.340996280378933
 30
0.0
 11
41.89134866762525
 21
5.314022775966786
 31
0.0
  0
LINE
  5
10846
330
10832
100
AcDbEntity
  8
0
  6
Continuous
100
AcDbLine
 10
41.23578448461757
 20
3.984939383878926
 30
0.0
 11
42.20881098020543
 21
4.957965879466778
 31
0.0
  0
LINE
  5
10847
330
10832
100
AcDbEntity
  8
0
  6
Continuous
100
AcDbLine
 10
41.55324679719775
 20
3.628882487378918
 30
0.0
 11
42.52627329278561
 21
4.601908982966771
 31
0.0
  0
LINE
  5
10848
330
10832
100
AcDbEntity
  8
0
  6
Continuous
100
AcDbLine
 10
41.87070910977793
 20
3.272825590878912
 30
0.0
 11
42.84373560536579
 21
4.245852086466765
 31
0.0
  0
LINE
  5
10849
330
10832
100
AcDbEntity
  8
0
  6
Continuous
100
AcDbLine
 10
43.5789999999564
 20
7.001674108297942
 30
0.0
 11
44.99999999995497
 21
8.422674108296517
 31
0.0
  0
LINE
  5
1084A
330
10832
100
AcDbEntity
  8
0
  6
Continuous
100
AcDbLine
 10
43.5789999999564
 20
6.328154899217758
 30
0.0
 11
44.99999999995497
 21
7.749154899216328
 31
0.0
  0
LINE
  5
1084B
330
10832
100
AcDbEntity
  8
0
  6
Continuous
100
AcDbLine
 10
43.5789999999564
 20
5.65463569013757
 30
0.0
 11
44.99999999995497
 21
7.075635690136143
 31
0.0
  0
LINE
  5
1084C
330
10832
100
AcDbEntity
  8
0
  6
Continuous
100
AcDbLine
 10
43.5789999999564
 20
4.981116481057384
 30
0.0
 11
44.99999999995497
 21
6.402116481055954
 31
0.0
  0
LINE
  5
1084D
330
10832
100
AcDbEntity
  8
0
  6
Continuous
100
AcDbLine
 10
39.27140272797922
 20
-0.0000000000000009
 30
0.0
 11
40.02599999995993
 21
0.7545972719807246
 31
0.0
  0
LINE
  5
1084E
330
10832
100
AcDbEntity
  8
0
  6
Continuous
100
AcDbLine
 10
39.9449219370594
 20
-0.0000000000000009
 30
0.0
 11
40.02599999995993
 21
0.0810780629005379
 31
0.0
  0
LINE
  5
1084F
330
10832
100
AcDbEntity
  8
0
  6
Continuous
100
AcDbLine
 10
42.18817142235812
 20
2.916768694378904
 30
0.0
 11
43.16119791794597
 21
3.889795189966758
 31
0.0
  0
LINE
  5
10850
330
10832
100
AcDbEntity
  8
0
  6
Continuous
100
AcDbLine
 10
42.50563373493828
 20
2.560711797878898
 30
0.0
 11
43.47866023052615
 21
3.533738293466751
 31
0.0
  0
LINE
  5
10851
330
10832
100
AcDbEntity
  8
0
  6
Continuous
100
AcDbLine
 10
43.5789999999564
 20
4.307597271977198
 30
0.0
 11
44.99999999995497
 21
5.728597271975768
 31
0.0
  0
LINE
  5
10852
330
10832
100
AcDbEntity
  8
0
  6
Continuous
100
AcDbLine
 10
43.5789999999564
 20
3.63407806289701
 30
0.0
 11
44.99999999995497
 21
5.055078062895582
 31
0.0
  0
LINE
  5
10853
330
10832
100
AcDbEntity
  8
0
  6
Continuous
100
AcDbLine
 10
42.82309604751847
 20
2.204654901378891
 30
0.0
 11
44.99999999995497
 21
4.381558853815395
 31
0.0
  0
LINE
  5
10854
330
10832
100
AcDbEntity
  8
0
  6
Continuous
100
AcDbLine
 10
43.14055836009864
 20
1.848598004878885
 30
0.0
 11
44.99999999995497
 21
3.708039644735209
 31
0.0
  0
LINE
  5
10855
330
10832
100
AcDbEntity
  8
0
  6
Continuous
100
AcDbLine
 10
43.45802067267881
 20
1.492541108378878
 30
0.0
 11
44.99999999995497
 21
3.034520435655022
 31
0.0
  0
LINE
  5
10856
330
10832
100
AcDbEntity
  8
0
  6
Continuous
100
AcDbLine
 10
43.77548298525902
 20
1.13648421187887
 30
0.0
 11
44.99999999995497
 21
2.361001226574837
 31
0.0
  0
LINE
  5
10857
330
10832
100
AcDbEntity
  8
0
  6
Continuous
100
AcDbLine
 10
44.09294529783919
 20
0.7804273153788639
 30
0.0
 11
44.99999999995497
 21
1.687482017494649
 31
0.0
  0
LINE
  5
10858
330
10832
100
AcDbEntity
  8
0
  6
Continuous
100
AcDbLine
 10
44.41040761041938
 20
0.4243704188788567
 30
0.0
 11
44.99999999995497
 21
1.013962808414462
 31
0.0
  0
LINE
  5
10859
330
10832
100
AcDbEntity
  8
0
  6
Continuous
100
AcDbLine
 10
44.72786992299954
 20
0.0683135223788494
 30
0.0
 11
44.99999999995497
 21
0.340443599334276
 31
0.0
  0
LINE
  5
1085A
330
10832
100
AcDbEntity
  8
0
  6
Continuous
100
AcDbLine
 10
39.12223903415696
 20
-0.0000000000000009
 30
0.0
 11
38.60499999996136
 21
0.5172390341955962
 31
0.0
  0
LINE
  5
1085B
330
10832
100
AcDbEntity
  8
0
  6
Continuous
100
AcDbLine
 10
39.79575824323715
 20
-0.0000000000000009
 30
0.0
 11
38.60499999996136
 21
1.190758243275782
 31
0.0
  0
LINE
  5
1085C
330
10832
100
AcDbEntity
  8
0
  6
Continuous
100
AcDbLine
 10
40.02599999995993
 20
0.4432774523573971
 30
0.0
 11
38.60499999996136
 21
1.864277452355968
 31
0.0
  0
LINE
  5
1085D
330
10832
100
AcDbEntity
  8
0
  6
Continuous
100
AcDbLine
 10
40.02599999995993
 20
1.116796661437583
 30
0.0
 11
38.60499999996136
 21
2.537796661436154
 31
0.0
  0
LINE
  5
1085E
330
10832
100
AcDbEntity
  8
0
  6
Continuous
100
AcDbLine
 10
40.02599999995993
 20
1.790315870517769
 30
0.0
 11
38.60499999996136
 21
3.211315870516341
 31
0.0
  0
LINE
  5
1085F
330
10832
100
AcDbEntity
  8
0
  6
Continuous
100
AcDbLine
 10
40.02599999995993
 20
2.463835079597955
 30
0.0
 11
38.60499999996136
 21
3.884835079596526
 31
0.0
  0
LINE
  5
10860
330
10832
100
AcDbEntity
  8
0
  6
Continuous
100
AcDbLine
 10
40.02599999995993
 20
3.137354288678142
 30
0.0
 11
38.60499999996136
 21
4.558354288676714
 31
0.0
  0
LINE
  5
10861
330
10832
100
AcDbEntity
  8
0
  6
Continuous
100
AcDbLine
 10
40.02599999995993
 20
3.810873497758328
 30
0.0
 11
38.60499999996136
 21
5.231873497756899
 31
0.0
  0
LINE
  5
10862
330
10832
100
AcDbEntity
  8
0
  6
Continuous
100
AcDbLine
 10
40.02599999995993
 20
4.484392706838514
 30
0.0
 11
38.60499999996136
 21
5.905392706837085
 31
0.0
  0
LINE
  5
10863
330
10832
100
AcDbEntity
  8
0
  6
Continuous
100
AcDbLine
 10
44.99999999995497
 20
0.183911915923658
 30
0.0
 11
41.53858364506287
 21
3.645328270815759
 31
0.0
  0
LINE
  5
10864
330
10832
100
AcDbEntity
  8
0
  6
Continuous
100
AcDbLine
 10
40.02599999995993
 20
5.157911915918703
 30
0.0
 11
38.60499999996136
 21
6.578911915917274
 31
0.0
  0
LINE
  5
10865
330
10832
100
AcDbEntity
  8
0
  6
Continuous
100
AcDbLine
 10
44.99999999995497
 20
0.8574311250038446
 30
0.0
 11
38.60499999996136
 21
7.25243112499746
 31
0.0
  0
LINE
  5
10866
330
10832
100
AcDbEntity
  8
0
  6
Continuous
100
AcDbLine
 10
44.99999999995497
 20
1.53095033408403
 30
0.0
 11
38.60499999996136
 21
7.925950334077647
 31
0.0
  0
LINE
  5
10867
330
10832
100
AcDbEntity
  8
0
  6
Continuous
100
AcDbLine
 10
44.99999999995497
 20
2.204469543164218
 30
0.0
 11
43.5789999999564
 21
3.625469543162788
 31
0.0
  0
LINE
  5
10868
330
10832
100
AcDbEntity
  8
0
  6
Continuous
100
AcDbLine
 10
41.89876730984766
 20
5.305702233271528
 30
0.0
 11
38.60499999996136
 21
8.599469543157834
 31
0.0
  0
LINE
  5
10869
330
10832
100
AcDbEntity
  8
0
  6
Continuous
100
AcDbLine
 10
44.99999999995497
 20
2.877988752244404
 30
0.0
 11
43.5789999999564
 21
4.298988752242975
 31
0.0
  0
LINE
  5
1086A
330
10832
100
AcDbEntity
  8
0
  6
Continuous
100
AcDbLine
 10
44.99999999995497
 20
3.551507961324591
 30
0.0
 11
43.5789999999564
 21
4.972507961323162
 31
0.0
  0
LINE
  5
1086B
330
10832
100
AcDbEntity
  8
0
  6
Continuous
100
AcDbLine
 10
44.99999999995497
 20
4.225027170404777
 30
0.0
 11
43.5789999999564
 21
5.646027170403348
 31
0.0
  0
LINE
  5
1086C
330
10832
100
AcDbEntity
  8
0
  6
Continuous
100
AcDbLine
 10
44.99999999995497
 20
4.898546379484963
 30
0.0
 11
43.5789999999564
 21
6.319546379483535
 31
0.0
  0
LINE
  5
1086D
330
10832
100
AcDbEntity
  8
0
  6
Continuous
100
AcDbLine
 10
44.99999999995497
 20
5.572065588565151
 30
0.0
 11
43.5789999999564
 21
6.993065588563722
 31
0.0
  0
LINE
  5
1086E
330
10832
100
AcDbEntity
  8
0
  6
Continuous
100
AcDbLine
 10
44.99999999995497
 20
6.245584797645336
 30
0.0
 11
43.5789999999564
 21
7.666584797643906
 31
0.0
  0
LINE
  5
1086F
330
10832
100
AcDbEntity
  8
0
  6
Continuous
100
AcDbLine
 10
44.99999999995497
 20
6.919104006725522
 30
0.0
 11
43.5789999999564
 21
8.340104006724093
 31
0.0
  0
LINE
  5
10870
330
10832
100
AcDbEntity
  8
0
  6
Continuous
100
AcDbLine
 10
44.99999999995497
 20
7.592623215805708
 30
0.0
 11
43.82952321576943
 21
8.763099999991254
 31
0.0
  0
LINE
  5
10871
330
10832
100
AcDbEntity
  8
0
  6
Continuous
100
AcDbLine
 10
44.99999999995497
 20
8.266142424885895
 30
0.0
 11
44.50304242484961
 21
8.763099999991254
 31
0.0
  0
ENDBLK
  5
1089B
330
10832
100
AcDbEntity
  8
0
100
AcDbBlockEnd
  0
BLOCK
  5
1089C
330
10872
100
AcDbEntity
  8
0
100
AcDbBlockBegin
  2
*X7
 70
     1
 10
0.0
 20
0.0
 30
0.0
  3
*X7
  1

  0
LINE
  5
10873
330
10872
100
AcDbEntity
  8
0
  6
Continuous
100
AcDbLine
 10
0.0
 20
8.548461116714022
 30
0.0
 11
0.2146388832772324
 21
8.763099999991254
 31
0.0
  0
LINE
  5
10874
330
10872
100
AcDbEntity
  8
0
  6
Continuous
100
AcDbLine
 10
-0.0000000000000002
 20
7.874941907633837
 30
0.0
 11
0.8881580923574183
 21
8.763099999991254
 31
0.0
  0
LINE
  5
10875
330
10872
100
AcDbEntity
  8
0
  6
Continuous
100
AcDbLine
 10
0.0
 20
7.20142269855365
 30
0.0
 11
1.420999999998571
 21
8.622422698552222
 31
0.0
  0
LINE
  5
10876
330
10872
100
AcDbEntity
  8
0
  6
Continuous
100
AcDbLine
 10
-0.0000000000000001
 20
6.527903489473464
 30
0.0
 11
1.420999999998571
 21
7.948903489472036
 31
0.0
  0
LINE
  5
10877
330
10872
100
AcDbEntity
  8
0
  6
Continuous
100
AcDbLine
 10
-0.0000000000000002
 20
5.854384280393277
 30
0.0
 11
1.420999999998571
 21
7.275384280391848
 31
0.0
  0
LINE
  5
10878
330
10872
100
AcDbEntity
  8
0
  6
Continuous
100
AcDbLine
 10
-0.0000000000000002
 20
5.180865071313091
 30
0.0
 11
1.420999999998571
 21
6.601865071311662
 31
0.0
  0
LINE
  5
10879
330
10872
100
AcDbEntity
  8
0
  6
Continuous
100
AcDbLine
 10
0.0
 20
4.507345862232905
 30
0.0
 11
1.420999999998571
 21
5.928345862231477
 31
0.0
  0
LINE
  5
1087A
330
10872
100
AcDbEntity
  8
0
  6
Continuous
100
AcDbLine
 10
-0.0000000000000003
 20
3.833826653152718
 30
0.0
 11
1.420999999998571
 21
5.254826653151289
 31
0.0
  0
LINE
  5
1087B
330
10872
100
AcDbEntity
  8
0
  6
Continuous
100
AcDbLine
 10
-0.0000000000000002
 20
3.160307444072531
 30
0.0
 11
1.420999999998571
 21
4.581307444071103
 31
0.0
  0
LINE
  5
1087C
330
10872
100
AcDbEntity
  8
0
  6
Continuous
100
AcDbLine
 10
-0.0000000000000001
 20
2.486788234992345
 30
0.0
 11
1.420999999998571
 21
3.907788234990917
 31
0.0
  0
LINE
  5
1087D
330
10872
100
AcDbEntity
  8
0
  6
Continuous
100
AcDbLine
 10
-0.0000000000000006
 20
1.813269025912159
 30
0.0
 11
1.420999999998571
 21
3.234269025910731
 31
0.0
  0
LINE
  5
1087E
330
10872
100
AcDbEntity
  8
0
  6
Continuous
100
AcDbLine
 10
0.0
 20
1.139749816831972
 30
0.0
 11
1.420999999998571
 21
2.560749816830544
 31
0.0
  0
LINE
  5
1087F
330
10872
100
AcDbEntity
  8
0
  6
Continuous
100
AcDbLine
 10
0.0000000000000002
 20
0.4662306077517872
 30
0.0
 11
1.420999999998571
 21
1.887230607750358
 31
0.0
  0
LINE
  5
10880
330
10872
100
AcDbEntity
  8
0
  6
Continuous
100
AcDbLine
 10
0.2072886013284003
 20
-0.0000000000000009
 30
0.0
 11
1.420999999998571
 21
1.21371139867017
 31
0.0
  0
LINE
  5
10881
330
10872
100
AcDbEntity
  8
0
  6
Continuous
100
AcDbLine
 10
0.8808078104085863
 20
-0.0000000000000009
 30
0.0
 11
1.420999999998571
 21
0.540192189589984
 31
0.0
  0
LINE
  5
10882
330
10872
100
AcDbEntity
  8
0
  6
Continuous
100
AcDbLine
 10
0.0581249075061505
 20
-0.0000000000000009
 30
0.0
 11
-0.0000000000000002
 21
0.0581249075061496
 31
0.0
  0
LINE
  5
10883
330
10872
100
AcDbEntity
  8
0
  6
Continuous
100
AcDbLine
 10
0.7316441165863373
 20
-0.0000000000000009
 30
0.0
 11
-0.0000000000000002
 21
0.7316441165863364
 31
0.0
  0
LINE
  5
10884
330
10872
100
AcDbEntity
  8
0
  6
Continuous
100
AcDbLine
 10
1.405163325666523
 20
-0.0000000000000009
 30
0.0
 11
-0.0000000000000002
 21
1.405163325666523
 31
0.0
  0
LINE
  5
10885
330
10872
100
AcDbEntity
  8
0
  6
Continuous
100
AcDbLine
 10
1.420999999998571
 20
0.6576825347481381
 30
0.0
 11
-0.0000000000000001
 21
2.07868253474671
 31
0.0
  0
LINE
  5
10886
330
10872
100
AcDbEntity
  8
0
  6
Continuous
100
AcDbLine
 10
1.420999999998571
 20
1.331201743828323
 30
0.0
 11
-0.0000000000000001
 21
2.752201743826895
 31
0.0
  0
LINE
  5
10887
330
10872
100
AcDbEntity
  8
0
  6
Continuous
100
AcDbLine
 10
1.420999999998571
 20
2.004720952908511
 30
0.0
 11
-0.0000000000000002
 21
3.425720952907081
 31
0.0
  0
LINE
  5
10888
330
10872
100
AcDbEntity
  8
0
  6
Continuous
100
AcDbLine
 10
1.420999999998571
 20
2.678240161988696
 30
0.0
 11
-0.0000000000000001
 21
4.099240161987268
 31
0.0
  0
LINE
  5
10889
330
10872
100
AcDbEntity
  8
0
  6
Continuous
100
AcDbLine
 10
1.420999999998571
 20
3.351759371068883
 30
0.0
 11
0.0
 21
4.772759371067454
 31
0.0
  0
LINE
  5
1088A
330
10872
100
AcDbEntity
  8
0
  6
Continuous
100
AcDbLine
 10
1.420999999998571
 20
4.02527858014907
 30
0.0
 11
-0.0000000000000003
 21
5.446278580147642
 31
0.0
  0
LINE
  5
1088B
330
10872
100
AcDbEntity
  8
0
  6
Continuous
100
AcDbLine
 10
1.420999999998571
 20
4.698797789229256
 30
0.0
 11
0.0
 21
6.119797789227826
 31
0.0
  0
LINE
  5
1088C
330
10872
100
AcDbEntity
  8
0
  6
Continuous
100
AcDbLine
 10
1.420999999998571
 20
5.372316998309442
 30
0.0
 11
-0.0000000000000001
 21
6.793316998308014
 31
0.0
  0
LINE
  5
1088D
330
10872
100
AcDbEntity
  8
0
  6
Continuous
100
AcDbLine
 10
1.420999999998571
 20
6.045836207389628
 30
0.0
 11
-0.0000000000000004
 21
7.466836207388201
 31
0.0
  0
LINE
  5
1088E
330
10872
100
AcDbEntity
  8
0
  6
Continuous
100
AcDbLine
 10
1.420999999998571
 20
6.719355416469816
 30
0.0
 11
0.0
 21
8.140355416468388
 31
0.0
  0
LINE
  5
1088F
330
10872
100
AcDbEntity
  8
0
  6
Continuous
100
AcDbLine
 10
1.420999999998571
 20
7.392874625550002
 30
0.0
 11
0.0507746255573185
 21
8.763099999991254
 31
0.0
  0
LINE
  5
10890
330
10872
100
AcDbEntity
  8
0
  6
Continuous
100
AcDbLine
 10
1.420999999998571
 20
8.06639383463019
 30
0.0
 11
0.7242938346375052
 21
8.763099999991254
 31
0.0
  0
LINE
  5
10891
330
10872
100
AcDbEntity
  8
0
  6
Continuous
100
AcDbLine
 10
1.420999999998571
 20
8.739913043710375
 30
0.0
 11
1.39781304371769
 21
8.763099999991254
 31
0.0
  0
ENDBLK
  5
1089D
330
10872
100
AcDbEntity
  8
0
100
AcDbBlockEnd
  0
ENDSEC
  0
SECTION
  2
ENTITIES
  0
TEXT
  5
E3BA
330
18
100
AcDbEntity
  8
1TEXT
100
AcDbText
 10
-135.8361889777151
 20
165.0062367118497
 30
0.0
 40
8.0
  1
PC-435-X
100
AcDbText
  0
TEXT
  5
E3E1
330
18
100
AcDbEntity
  8
1TEXT
100
AcDbText
 10
-125.8726113127881
 20
149.2906380986238
 30
0.0
 40
4.0
  1
Finish
 72
     1
 11
-117.2059446461215
 21
149.2906380986238
 31
0.0
100
AcDbText
  0
TEXT
  5
E3E2
330
18
100
AcDbEntity
  8
1TEXT
100
AcDbText
 10
-128.5392779794548
 20
142.4553494390995
 30
0.0
 40
4.0
  1
Chrome
 72
     1
 11
-117.2059446461215
 21
142.4553494390995
 31
0.0
100
AcDbText
  0
LINE
  5
E3E4
330
18
100
AcDbEntity
  8
1DIM
100
AcDbLine
 10
-134.6059446461211
 20
154.7906380986238
 30
0.0
 11
-64.60594464612109
 21
154.7906380986238
 31
0.0
  0
LINE
  5
E3E5
330
18
100
AcDbEntity
  8
1DIM
100
AcDbLine
 10
-134.6059446461211
 20
140.7906380986238
 30
0.0
 11
-64.60594464612109
 21
140.7906380986238
 31
0.0
  0
LINE
  5
E3E6
330
18
100
AcDbEntity
  8
1DIM
100
AcDbLine
 10
-134.6059446461211
 20
147.7906380986238
 30
0.0
 11
-64.60594464612109
 21
147.7906380986238
 31
0.0
  0
LINE
  5
E3E9
330
18
100
AcDbEntity
  8
1DIM
100
AcDbLine
 10
-99.60594464612109
 20
154.7906380986238
 30
0.0
 11
-99.60594464612109
 21
140.7906380986238
 31
0.0
  0
TEXT
  5
E3EA
330
18
100
AcDbEntity
  8
1TEXT
100
AcDbText
 10
-96.0726113127872
 20
142.0762811149744
 30
0.0
 40
4.0
  1
PC-435-XC
 41
0.8
 72
     1
 11
-82.20594464612053
 21
142.0762811149744
 31
0.0
100
AcDbText
  0
TEXT
  5
E3EC
330
18
100
AcDbEntity
  8
1TEXT
100
AcDbText
 10
-89.53927797945478
 20
149.2906380986238
 30
0.0
 40
4.0
  1
Code
 72
     1
 11
-82.20594464612146
 21
149.2906380986238
 31
0.0
100
AcDbText
  0
LINE
  5
E3ED
330
18
100
AcDbEntity
  8
1DIM
100
AcDbLine
 10
-134.6059446461211
 20
140.7906380986238
 30
0.0
 11
-134.6059446461211
 21
154.7906380986238
 31
0.0
  0
LINE
  5
E3EE
330
18
100
AcDbEntity
  8
1DIM
100
AcDbLine
 10
-64.60594464612109
 20
140.7906380986238
 30
0.0
 11
-64.60594464612109
 21
154.7906380986238
 31
0.0
  0
LINE
  5
E401
330
18
100
AcDbEntity
  8
1CENTER
100
AcDbLine
 10
86.5
 20
10.00000000000842
 30
0.0
 11
86.5
 21
-1.999999999991579
 31
0.0
  0
LINE
  5
E404
330
18
100
AcDbEntity
  8
1CENTER
100
AcDbLine
 10
0.0
 20
96.99998100000795
 30
0.0
 11
0.0
 21
102.9999810000079
 31
0.0
  0
LINE
  5
E405
330
18
100
AcDbEntity
  8
1CENTER
100
AcDbLine
 10
-3.0
 20
99.99998100000794
 30
0.0
 11
3.0
 21
99.99998100000794
 31
0.0
  0
LINE
  5
E868
330
18
100
AcDbEntity
  8
1CENTER
100
AcDbLine
 10
0.0
 20
10.00000000000801
 30
0.0
 11
0.0
 21
-1.999999999991984
 31
0.0
  0
LINE
  5
FF3E
330
18
100
AcDbEntity
  8
01
100
AcDbLine
 10
-53.49999999999989
 20
69.99998100000794
 30
0.0
 11
0.5000000000001137
 21
69.99998100000818
 31
0.0
  0
ARC
  5
FF3F
330
18
100
AcDbEntity
  8
01
100
AcDbCircle
 10
0.5000000000001137
 20
72.99998100000795
 30
0.0
 40
3.0
100
AcDbArc
 50
270.0
 51
0.0
  0
LINE
  5
FF40
330
18
100
AcDbEntity
  8
01
100
AcDbLine
 10
3.500000000000113
 20
72.99998100000795
 30
0.0
 11
3.500000000000113
 21
126.9999810000079
 31
0.0
  0
ARC
  5
FF41
330
18
100
AcDbEntity
  8
01
100
AcDbCircle
 10
0.5000000000001137
 20
126.9999810000079
 30
0.0
 40
3.0
100
AcDbArc
 50
0.0
 51
90.0
  0
LINE
  5
FF42
330
18
100
AcDbEntity
  8
01
100
AcDbLine
 10
0.5000000000001137
 20
129.9999810000082
 30
0.0
 11
-53.49999999999989
 21
129.9999810000079
 31
0.0
  0
ARC
  5
FF43
330
18
100
AcDbEntity
  8
01
100
AcDbCircle
 10
-53.49999999999989
 20
126.9999810000079
 30
0.0
 40
3.0
100
AcDbArc
 50
90.0
 51
180.0
  0
LINE
  5
FF44
330
18
100
AcDbEntity
  8
01
100
AcDbLine
 10
-56.49999999999989
 20
126.9999810000079
 30
0.0
 11
-56.49999999999989
 21
72.99998100000795
 31
0.0
  0
ARC
  5
FF45
330
18
100
AcDbEntity
  8
01
100
AcDbCircle
 10
-53.49999999999989
 20
72.99998100000795
 30
0.0
 40
3.0
100
AcDbArc
 50
180.0
 51
270.0
  0
ARC
  5
FF46
330
18
100
AcDbEntity
  8
01
100
AcDbCircle
 10
-6.499999999999886
 20
79.99998100000794
 30
0.0
 40
3.0
100
AcDbArc
 50
270.0
 51
0.0
  0
ARC
  5
FF47
330
18
100
AcDbEntity
  8
01
100
AcDbCircle
 10
-6.499999999999886
 20
119.9999810000079
 30
0.0
 40
3.0
100
AcDbArc
 50
0.0
 51
90.0
  0
LINE
  5
FF48
330
18
100
AcDbEntity
  8
01
100
AcDbLine
 10
-6.499999999999886
 20
122.9999810000079
 30
0.0
 11
-46.49999999999989
 21
122.9999810000079
 31
0.0
  0
ARC
  5
FF49
330
18
100
AcDbEntity
  8
01
100
AcDbCircle
 10
-46.49999999999989
 20
119.9999810000079
 30
0.0
 40
3.0
100
AcDbArc
 50
90.0
 51
180.0
  0
LINE
  5
FF4A
330
18
100
AcDbEntity
  8
01
100
AcDbLine
 10
-49.49999999999989
 20
119.9999810000079
 30
0.0
 11
-49.49999999999989
 21
79.99998100000794
 31
0.0
  0
ARC
  5
FF4B
330
18
100
AcDbEntity
  8
01
100
AcDbCircle
 10
-46.49999999999989
 20
79.99998100000794
 30
0.0
 40
3.0
100
AcDbArc
 50
180.0
 51
270.0
  0
LINE
  5
FF4D
330
18
100
AcDbEntity
  8
01
100
AcDbLine
 10
2.500000000000114
 20
21.99999999999886
 30
0.0
 11
-55.4999999999999
 21
21.9999999999991
 31
0.0
  0
ARC
  5
FF4E
330
18
100
AcDbEntity
  8
01
100
AcDbCircle
 10
-55.4999999999999
 20
20.99999999999888
 30
0.0
 40
1.0
100
AcDbArc
 50
90.0
 51
180.0
  0
LINE
  5
FF4F
330
18
100
AcDbEntity
  8
01
100
AcDbLine
 10
-56.49999999999989
 20
20.99999999999888
 30
0.0
 11
-56.49999999999989
 21
15.99999999999888
 31
0.0
  0
ARC
  5
FF50
330
18
100
AcDbEntity
  8
01
100
AcDbCircle
 10
-55.4999999999999
 20
15.99999999999888
 30
0.0
 40
1.0
100
AcDbArc
 50
180.0
 51
270.0
  0
LINE
  5
FF51
330
18
100
AcDbEntity
  8
01
100
AcDbLine
 10
-55.4999999999999
 20
14.99999999999888
 30
0.0
 11
2.500000000000114
 21
14.99999999999886
 31
0.0
  0
ARC
  5
FF52
330
18
100
AcDbEntity
  8
01
100
AcDbCircle
 10
2.500000000000114
 20
15.99999999999886
 30
0.0
 40
1.0
100
AcDbArc
 50
270.0
 51
0.0
  0
LINE
  5
FF53
330
18
100
AcDbEntity
  8
01
100
AcDbLine
 10
3.500000000000113
 20
15.99999999999886
 30
0.0
 11
3.500000000000113
 21
20.99999999999886
 31
0.0
  0
ARC
  5
FF54
330
18
100
AcDbEntity
  8
01
100
AcDbCircle
 10
2.500000000000114
 20
20.99999999999886
 30
0.0
 40
1.0
100
AcDbArc
 50
0.0
 51
90.0
  0
LINE
  5
FF55
330
18
100
AcDbEntity
  8
01
100
AcDbLine
 10
-3.499999999999886
 20
14.99999999999886
 30
0.0
 11
-3.499999999999886
 21
-0.0000000000011369
 31
0.0
  0
LINE
  5
FF56
330
18
100
AcDbEntity
  8
01
100
AcDbLine
 10
-3.500000000000113
 20
-0.0000000000011369
 30
0.0
 11
3.500000000000113
 21
-0.0000000000011369
 31
0.0
  0
LINE
  5
FF57
330
18
100
AcDbEntity
  8
01
100
AcDbLine
 10
3.500000000000113
 20
-0.0000000000011369
 30
0.0
 11
3.500000000000113
 21
15.99999999999886
 31
0.0
  0
LINE
  5
FF58
330
18
100
AcDbEntity
  8
01
100
AcDbLine
 10
-49.49999999999989
 20
14.99999999999888
 30
0.0
 11
-49.49999999999989
 21
-0.0000000000011227
 31
0.0
  0
LINE
  5
FF59
330
18
100
AcDbEntity
  8
01
100
AcDbLine
 10
-49.5000000000001
 20
-0.0000000000011227
 30
0.0
 11
-56.49999999999989
 21
-0.0000000000011227
 31
0.0
  0
LINE
  5
FF5A
330
18
100
AcDbEntity
  8
01
100
AcDbLine
 10
-56.49999999999989
 20
-0.0000000000011227
 30
0.0
 11
-56.49999999999989
 21
15.99999999999888
 31
0.0
  0
LINE
  5
FF5C
330
18
100
AcDbEntity
  8
01
100
AcDbLine
 10
-6.499999999999886
 20
76.99998100000795
 30
0.0
 11
-46.49999999999989
 21
76.99998100000795
 31
0.0
  0
LINE
  5
FF5D
330
18
100
AcDbEntity
  8
01
100
AcDbLine
 10
-3.499999999999886
 20
119.9999810000079
 30
0.0
 11
-3.499999999999886
 21
79.99998100000794
 31
0.0
  0
LINE
  5
FF5F
330
18
100
AcDbEntity
  8
01
100
AcDbLine
 10
77.38213016724618
 20
14.99999999999745
 30
0.0
 11
57.49999999999997
 21
14.99999999999768
 31
0.0
  0
ARC
  5
FF60
330
18
100
AcDbEntity
  8
01
100
AcDbCircle
 10
57.49999999999997
 20
15.99999999999745
 30
0.0
 40
1.0
100
AcDbArc
 50
180.0
 51
270.0
  0
LINE
  5
FF61
330
18
100
AcDbEntity
  8
01
100
AcDbLine
 10
56.49999999999997
 20
15.99999999999745
 30
0.0
 11
56.49999999999997
 21
20.99999999999745
 31
0.0
  0
ARC
  5
FF62
330
18
100
AcDbEntity
  8
01
100
AcDbCircle
 10
57.49999999999997
 20
20.99999999999745
 30
0.0
 40
1.0
100
AcDbArc
 50
90.0
 51
180.0
  0
LINE
  5
FF63
330
18
100
AcDbEntity
  8
01
100
AcDbLine
 10
110.5000000000001
 20
21.99999999999745
 30
0.0
 11
115.5
 21
21.99999999999745
 31
0.0
  0
ARC
  5
FF64
330
18
100
AcDbEntity
  8
01
100
AcDbCircle
 10
115.5
 20
20.99999999999745
 30
0.0
 40
1.0
100
AcDbArc
 50
0.0
 51
90.0
  0
LINE
  5
FF65
330
18
100
AcDbEntity
  8
01
100
AcDbLine
 10
116.5
 20
20.99999999999745
 30
0.0
 11
116.5
 21
15.99999999999768
 31
0.0
  0
ARC
  5
FF66
330
18
100
AcDbEntity
  8
01
100
AcDbCircle
 10
115.5
 20
15.99999999999745
 30
0.0
 40
1.0
100
AcDbArc
 50
270.0
 51
0.0
  0
LINE
  5
FF67
330
18
100
AcDbEntity
  8
01
100
AcDbLine
 10
115.5
 20
14.99999999999745
 30
0.0
 11
110.5000000000001
 21
14.99999999999756
 31
0.0
  0
LINE
  5
FF68
330
18
100
AcDbEntity
  8
01
100
AcDbLine
 10
94.1179258506712
 20
13.51308980324502
 30
0.0
 11
94.00000109744459
 21
0.00025151417851
 31
0.0
  0
ARC
  5
FF69
330
18
100
AcDbEntity
  8
01
100
AcDbCircle
 10
95.61786873526749
 20
13.49999999999745
 30
0.0
 40
1.5
100
AcDbArc
 50
90.0
 51
179.5000000000019
  0
LINE
  5
FF6A
330
18
100
AcDbEntity
  8
01
100
AcDbLine
 10
93.99999999999996
 20
-0.0000000000025491
 30
0.0
 11
78.99999999999997
 21
-0.0000000000025491
 31
0.0
  0
LINE
  5
FF6B
330
18
100
AcDbEntity
  8
01
100
AcDbLine
 10
78.99999999999997
 20
-0.0000000000025491
 30
0.0
 11
78.8820730518424
 21
13.51308980324502
 31
0.0
  0
ARC
  5
FF6C
330
18
100
AcDbEntity
  8
01
100
AcDbCircle
 10
77.38213016724611
 20
13.49999999999745
 30
0.0
 40
1.5
100
AcDbArc
 50
0.4999999999980602
 51
90.0
  0
LINE
  5
FF6E
330
18
100
AcDbEntity
  8
01
100
AcDbLine
 10
110.5000000000001
 20
14.99999999999745
 30
0.0
 11
95.61786873526749
 21
14.99999999999745
 31
0.0
  0
LINE
  5
FF6F
330
18
100
AcDbEntity
  8
01
100
AcDbLine
 10
110.5000000000001
 20
21.99999999999745
 30
0.0
 11
62.49999999999939
 21
21.99999999999745
 31
0.0
  0
LINE
  5
FF70
330
18
100
AcDbEntity
  8
01
100
AcDbLine
 10
62.49999999999939
 20
21.99999999999745
 30
0.0
 11
57.49999999999997
 21
21.99999999999745
 31
0.0
  0
LINE
  5
FF7A
330
18
100
AcDbEntity
  8
1CENTER
100
AcDbLine
 10
-52.99999999999977
 20
96.99998100000795
 30
0.0
 11
-52.99999999999977
 21
102.9999810000079
 31
0.0
  0
LINE
  5
FF7B
330
18
100
AcDbEntity
  8
1CENTER
100
AcDbLine
 10
-55.99999999999977
 20
99.99998100000794
 30
0.0
 11
-49.99999999999977
 21
99.99998100000794
 31
0.0
  0
LINE
  5
10104
330
18
100
AcDbEntity
  8
1CENTER
100
AcDbLine
 10
-52.99999999999977
 20
10.00000000000801
 30
0.0
 11
-52.99999999999977
 21
-1.999999999991984
 31
0.0
  0
LINE
  5
10665
330
18
100
AcDbEntity
  8
01
100
AcDbLine
 10
-53.0
 20
-0.0000000000011227
 30
0.0
 11
-53.0
 21
-30.99999999999199
 31
0.0
1001
ACAD
1000
DSTYLE
1002
{
1070
    45
1040
0.5
1002
}
  0
LINE
  5
10666
330
18
100
AcDbEntity
  8
01
100
AcDbLine
 10
0.0
 20
-1.999999999991984
 30
0.0
 11
-0.0000000000000018
 21
-30.99999999999199
 31
0.0
1001
ACAD
1000
DSTYLE
1002
{
1070
    45
1040
0.5
1002
}
  0
LINE
  5
10667
330
18
100
AcDbEntity
  8
01
100
AcDbLine
 10
-51.0
 20
-29.99999999999199
 30
0.0
 11
-2.000000000000002
 21
-29.99999999999199
 31
0.0
1001
ACAD
1000
DSTYLE
1002
{
1070
    45
1040
0.5
1002
}
  0
LINE
  5
1066B
330
18
100
AcDbEntity
  8
01
100
AcDbLine
 10
-49.49999999999989
 20
0.0000000000080398
 30
0.0
 11
-49.49999999999989
 21
-20.99999999999153
 31
0.0
1001
ACAD
1000
DSTYLE
1002
{
1070
    45
1040
0.5
1002
}
  0
LINE
  5
1066C
330
18
100
AcDbEntity
  8
01
100
AcDbLine
 10
-3.500000000000113
 20
-0.0000000000011369
 30
0.0
 11
-3.500000000000115
 21
-20.99999999999153
 31
0.0
1001
ACAD
1000
DSTYLE
1002
{
1070
    45
1040
0.5
1002
}
  0
LINE
  5
1066D
330
18
100
AcDbEntity
  8
01
100
AcDbLine
 10
-47.49999999999989
 20
-19.99999999999153
 30
0.0
 11
-5.500000000000115
 21
-19.99999999999153
 31
0.0
1001
ACAD
1000
DSTYLE
1002
{
1070
    45
1040
0.5
1002
}
  0
LINE
  5
10671
330
18
100
AcDbEntity
  8
01
100
AcDbLine
 10
0.000000000000004
 20
0.1731975220634467
 30
0.0
 11
0.0000000000000021
 21
-30.99999999999199
 31
0.0
1001
ACAD
1000
DSTYLE
1002
{
1070
    45
1040
0.5
1002
}
  0
LINE
  5
10672
330
18
100
AcDbEntity
  8
01
100
AcDbLine
 10
3.500000000000113
 20
-0.0000000000012107
 30
0.0
 11
3.500000000000111
 21
-30.99999999999199
 31
0.0
1001
ACAD
1000
DSTYLE
1002
{
1070
    45
1040
0.5
1002
}
  0
LINE
  5
10673
330
18
100
AcDbEntity
  8
01
100
AcDbLine
 10
-1.999999999999998
 20
-29.99999999999199
 30
0.0
 11
-3.999999999999998
 21
-29.99999999999199
 31
0.0
1001
ACAD
1000
DSTYLE
1002
{
1070
    45
1040
0.5
1002
}
  0
LINE
  5
10674
330
18
100
AcDbEntity
  8
01
100
AcDbLine
 10
5.500000000000111
 20
-29.99999999999199
 30
0.0
 11
16.23333333333344
 21
-29.99999999999199
 31
0.0
1001
ACAD
1000
DSTYLE
1002
{
1070
    45
1040
0.5
1002
}
  0
LINE
  5
10675
330
18
100
AcDbEntity
  8
01
100
AcDbLine
 10
0.0000000000000021
 20
-29.99999999999199
 30
0.0
 11
3.500000000000111
 21
-29.99999999999199
 31
0.0
1001
ACAD
1000
DSTYLE
1002
{
1070
    45
1040
0.5
1002
}
  0
LINE
  5
10679
330
18
100
AcDbEntity
  8
01
100
AcDbLine
 10
-52.99999999999978
 20
0.1731975220634467
 30
0.0
 11
-52.99999999999978
 21
-30.99999999999199
 31
0.0
1001
ACAD
1000
DSTYLE
1002
{
1070
    45
1040
0.5
1002
}
  0
LINE
  5
1067A
330
18
100
AcDbEntity
  8
01
100
AcDbLine
 10
-56.49999999999989
 20
-0.0000000000012107
 30
0.0
 11
-56.49999999999989
 21
-30.99999999999199
 31
0.0
1001
ACAD
1000
DSTYLE
1002
{
1070
    45
1040
0.5
1002
}
  0
LINE
  5
1067B
330
18
100
AcDbEntity
  8
01
100
AcDbLine
 10
-50.99999999999978
 20
-29.99999999999199
 30
0.0
 11
-48.99999999999978
 21
-29.99999999999199
 31
0.0
1001
ACAD
1000
DSTYLE
1002
{
1070
    45
1040
0.5
1002
}
  0
LINE
  5
1067C
330
18
100
AcDbEntity
  8
01
100
AcDbLine
 10
-58.49999999999989
 20
-29.99999999999199
 30
0.0
 11
-69.23333333333322
 21
-29.99999999999199
 31
0.0
1001
ACAD
1000
DSTYLE
1002
{
1070
    45
1040
0.5
1002
}
  0
LINE
  5
1067D
330
18
100
AcDbEntity
  8
01
100
AcDbLine
 10
-52.99999999999978
 20
-29.99999999999199
 30
0.0
 11
-56.49999999999989
 21
-29.99999999999199
 31
0.0
1001
ACAD
1000
DSTYLE
1002
{
1070
    45
1040
0.5
1002
}
  0
LINE
  5
10681
330
18
100
AcDbEntity
  8
01
  6
ByBlock
100
AcDbLine
 10
-51.0
 20
-30.53589837999198
 30
0.0
 11
-53.0
 21
-29.99999999999199
 31
0.0
  0
LINE
  5
10682
330
18
100
AcDbEntity
  8
01
  6
ByBlock
100
AcDbLine
 10
-53.0
 20
-29.99999999999199
 30
0.0
 11
-51.0
 21
-29.46410161999199
 31
0.0
  0
LINE
  5
10683
330
18
100
AcDbEntity
  8
01
  6
ByBlock
100
AcDbLine
 10
-53.0
 20
-29.99999999999199
 30
0.0
 11
-51.0
 21
-29.99999999999199
 31
0.0
  0
LINE
  5
10684
330
18
100
AcDbEntity
  8
01
  6
ByBlock
100
AcDbLine
 10
-2.000000000000002
 20
-29.46410161999199
 30
0.0
 11
-0.0000000000000017
 21
-29.99999999999199
 31
0.0
  0
LINE
  5
10685
330
18
100
AcDbEntity
  8
01
  6
ByBlock
100
AcDbLine
 10
-0.0000000000000017
 20
-29.99999999999199
 30
0.0
 11
-2.000000000000002
 21
-30.53589837999198
 31
0.0
  0
LINE
  5
10686
330
18
100
AcDbEntity
  8
01
  6
ByBlock
100
AcDbLine
 10
-0.0000000000000017
 20
-29.99999999999199
 30
0.0
 11
-2.000000000000002
 21
-29.99999999999199
 31
0.0
  0
TEXT
  5
10687
330
18
100
AcDbEntity
  8
01
  6
Continuous
100
AcDbText
 10
-31.17881944444444
 20
-29.29999999999199
 30
0.0
 40
3.5
  1
P53
100
AcDbText
1001
ACAD
1000
DSTYLE
1002
{
1070
    45
1040
0.5
1002
}
  0
LINE
  5
10688
330
18
100
AcDbEntity
  8
01
  6
ByBlock
100
AcDbLine
 10
-47.49999999999989
 20
-20.53589837999153
 30
0.0
 11
-49.49999999999989
 21
-19.99999999999153
 31
0.0
  0
LINE
  5
10689
330
18
100
AcDbEntity
  8
01
  6
ByBlock
100
AcDbLine
 10
-49.49999999999989
 20
-19.99999999999153
 30
0.0
 11
-47.49999999999989
 21
-19.46410161999153
 31
0.0
  0
LINE
  5
1068A
330
18
100
AcDbEntity
  8
01
  6
ByBlock
100
AcDbLine
 10
-49.49999999999989
 20
-19.99999999999153
 30
0.0
 11
-47.49999999999989
 21
-19.99999999999153
 31
0.0
  0
LINE
  5
1068B
330
18
100
AcDbEntity
  8
01
  6
ByBlock
100
AcDbLine
 10
-5.500000000000115
 20
-19.46410161999153
 30
0.0
 11
-3.500000000000115
 21
-19.99999999999153
 31
0.0
  0
LINE
  5
1068C
330
18
100
AcDbEntity
  8
01
  6
ByBlock
100
AcDbLine
 10
-3.500000000000115
 20
-19.99999999999153
 30
0.0
 11
-5.500000000000115
 21
-20.53589837999153
 31
0.0
  0
LINE
  5
1068D
330
18
100
AcDbEntity
  8
01
  6
ByBlock
100
AcDbLine
 10
-3.500000000000115
 20
-19.99999999999153
 30
0.0
 11
-5.500000000000115
 21
-19.99999999999153
 31
0.0
  0
TEXT
  5
1068E
330
18
100
AcDbEntity
  8
01
  6
Continuous
100
AcDbText
 10
-29.41666666666667
 20
-19.29999999999153
 30
0.0
 40
3.5
  1
46
100
AcDbText
1001
ACAD
1000
DSTYLE
1002
{
1070
    45
1040
0.5
1002
}
  0
LINE
  5
1068F
330
18
100
AcDbEntity
  8
01
  6
ByBlock
100
AcDbLine
 10
-1.999999999999998
 20
-29.46410161999199
 30
0.0
 11
0.0000000000000021
 21
-29.99999999999199
 31
0.0
  0
LINE
  5
10690
330
18
100
AcDbEntity
  8
01
  6
ByBlock
100
AcDbLine
 10
0.0000000000000021
 20
-29.99999999999199
 30
0.0
 11
-1.999999999999998
 21
-30.53589837999198
 31
0.0
  0
LINE
  5
10691
330
18
100
AcDbEntity
  8
01
  6
ByBlock
100
AcDbLine
 10
0.0000000000000021
 20
-29.99999999999199
 30
0.0
 11
-1.999999999999998
 21
-29.99999999999199
 31
0.0
  0
LINE
  5
10692
330
18
100
AcDbEntity
  8
01
  6
ByBlock
100
AcDbLine
 10
5.500000000000111
 20
-30.53589837999198
 30
0.0
 11
3.500000000000111
 21
-29.99999999999199
 31
0.0
  0
LINE
  5
10693
330
18
100
AcDbEntity
  8
01
  6
ByBlock
100
AcDbLine
 10
3.500000000000111
 20
-29.99999999999199
 30
0.0
 11
5.500000000000111
 21
-29.46410161999199
 31
0.0
  0
LINE
  5
10694
330
18
100
AcDbEntity
  8
01
  6
ByBlock
100
AcDbLine
 10
3.500000000000111
 20
-29.99999999999199
 30
0.0
 11
5.500000000000111
 21
-29.99999999999199
 31
0.0
  0
TEXT
  5
10695
330
18
100
AcDbEntity
  8
01
  6
Continuous
100
AcDbText
 10
8.366666666666779
 20
-29.29999999999199
 30
0.0
 40
3.5
  1
3.5
100
AcDbText
1001
ACAD
1000
DSTYLE
1002
{
1070
    45
1040
0.5
1002
}
  0
LINE
  5
10696
330
18
100
AcDbEntity
  8
01
  6
ByBlock
100
AcDbLine
 10
-50.99999999999978
 20
-30.53589837999198
 30
0.0
 11
-52.99999999999978
 21
-29.99999999999199
 31
0.0
  0
LINE
  5
10697
330
18
100
AcDbEntity
  8
01
  6
ByBlock
100
AcDbLine
 10
-52.99999999999978
 20
-29.99999999999199
 30
0.0
 11
-50.99999999999978
 21
-29.46410161999199
 31
0.0
  0
LINE
  5
10698
330
18
100
AcDbEntity
  8
01
  6
ByBlock
100
AcDbLine
 10
-52.99999999999978
 20
-29.99999999999199
 30
0.0
 11
-50.99999999999978
 21
-29.99999999999199
 31
0.0
  0
LINE
  5
10699
330
18
100
AcDbEntity
  8
01
  6
ByBlock
100
AcDbLine
 10
-58.49999999999989
 20
-29.46410161999199
 30
0.0
 11
-56.49999999999989
 21
-29.99999999999199
 31
0.0
  0
LINE
  5
1069A
330
18
100
AcDbEntity
  8
01
  6
ByBlock
100
AcDbLine
 10
-56.49999999999989
 20
-29.99999999999199
 30
0.0
 11
-58.49999999999989
 21
-30.53589837999198
 31
0.0
  0
LINE
  5
1069B
330
18
100
AcDbEntity
  8
01
  6
ByBlock
100
AcDbLine
 10
-56.49999999999989
 20
-29.99999999999199
 30
0.0
 11
-58.49999999999989
 21
-29.99999999999199
 31
0.0
  0
TEXT
  5
1069C
330
18
100
AcDbEntity
  8
01
  6
Continuous
100
AcDbText
 10
-68.36666666666656
 20
-29.29999999999199
 30
0.0
 40
3.5
  1
3.5
100
AcDbText
1001
ACAD
1000
DSTYLE
1002
{
1070
    45
1040
0.5
1002
}
  0
LINE
  5
1069D
330
18
100
AcDbEntity
  8
1DIM
100
AcDbLine
 10
-56.49999999999989
 20
74.99998100000794
 30
0.0
 11
-56.49999999999989
 21
61.12419733271327
 31
0.0
1001
ACAD
1000
DSTYLE
1002
{
1070
    45
1040
0.5
1002
}
  0
LINE
  5
1069E
330
18
100
AcDbEntity
  8
1DIM
100
AcDbLine
 10
3.500000000000113
 20
72.99998100000795
 30
0.0
 11
3.500000000000113
 21
61.12419733271327
 31
0.0
1001
ACAD
1000
DSTYLE
1002
{
1070
    45
1040
0.5
1002
}
  0
LINE
  5
1069F
330
18
100
AcDbEntity
  8
1DIM
100
AcDbLine
 10
-54.49999999999989
 20
62.12419733271327
 30
0.0
 11
1.500000000000112
 21
62.12419733271327
 31
0.0
1001
ACAD
1000
DSTYLE
1002
{
1070
    45
1040
0.5
1002
}
  0
LINE
  5
106A3
330
18
100
AcDbEntity
  8
1DIM
100
AcDbLine
 10
0.5000000000001129
 20
69.99998100000798
 30
0.0
 11
37.50000000000003
 21
69.99998100000799
 31
0.0
1001
ACAD
1000
DSTYLE
1002
{
1070
    45
1040
0.5
1002
}
  0
LINE
  5
106A4
330
18
100
AcDbEntity
  8
1DIM
100
AcDbLine
 10
0.5000000000001139
 20
129.999981000008
 30
0.0
 11
37.50000000000002
 21
129.999981000008
 31
0.0
1001
ACAD
1000
DSTYLE
1002
{
1070
    45
1040
0.5
1002
}
  0
LINE
  5
106A5
330
18
100
AcDbEntity
  8
1DIM
100
AcDbLine
 10
36.50000000000004
 20
71.99998100000797
 30
0.0
 11
36.50000000000002
 21
127.999981000008
 31
0.0
1001
ACAD
1000
DSTYLE
1002
{
1070
    45
1040
0.5
1002
}
  0
LINE
  5
106A9
330
18
100
AcDbEntity
  8
1DIM
100
AcDbLine
 10
6.5
 20
0.0000000000080149
 30
0.0
 11
37.50000000000003
 21
0.000000000008013
 31
0.0
1001
ACAD
1000
DSTYLE
1002
{
1070
    45
1040
0.5
1002
}
  0
LINE
  5
106AA
330
18
100
AcDbEntity
  8
1DIM
100
AcDbLine
 10
-2.689657698230349
 20
21.99999999999889
 30
0.0
 11
37.50000000000003
 21
21.99999999999888
 31
0.0
1001
ACAD
1000
DSTYLE
1002
{
1070
    45
1040
0.5
1002
}
  0
LINE
  5
106AB
330
18
100
AcDbEntity
  8
1DIM
100
AcDbLine
 10
36.50000000000004
 20
2.000000000008013
 30
0.0
 11
36.50000000000004
 21
19.99999999999888
 31
0.0
1001
ACAD
1000
DSTYLE
1002
{
1070
    45
1040
0.5
1002
}
  0
LINE
  5
106AF
330
18
100
AcDbEntity
  8
1DIM
100
AcDbLine
 10
3.500000000000113
 20
-0.0000000000012107
 30
0.0
 11
27.49999999999998
 21
0.0000000000080136
 31
0.0
1001
ACAD
1000
DSTYLE
1002
{
1070
    45
1040
0.5
1002
}
  0
LINE
  5
106B0
330
18
100
AcDbEntity
  8
1DIM
100
AcDbLine
 10
-9.999999999999998
 20
14.99999999999887
 30
0.0
 11
27.49999999999998
 21
14.99999999999886
 31
0.0
1001
ACAD
1000
DSTYLE
1002
{
1070
    45
1040
0.5
1002
}
  0
LINE
  5
106B1
330
18
100
AcDbEntity
  8
1DIM
100
AcDbLine
 10
26.49999999999999
 20
2.000000000008014
 30
0.0
 11
26.49999999999999
 21
12.99999999999886
 31
0.0
1001
ACAD
1000
DSTYLE
1002
{
1070
    45
1040
0.5
1002
}
  0
LINE
  5
106B5
330
18
100
AcDbEntity
  8
1DIM
100
AcDbLine
 10
-55.4999999999999
 20
21.99999999999911
 30
0.0
 11
-62.51488882994411
 21
21.99999999999911
 31
0.0
1001
ACAD
1000
DSTYLE
1002
{
1070
    45
1040
0.5
1002
}
  0
LINE
  5
106B6
330
18
100
AcDbEntity
  8
1DIM
100
AcDbLine
 10
-55.4999999999999
 20
14.99999999999888
 30
0.0
 11
-62.51488882994411
 21
14.99999999999888
 31
0.0
1001
ACAD
1000
DSTYLE
1002
{
1070
    45
1040
0.5
1002
}
  0
LINE
  5
106B7
330
18
100
AcDbEntity
  8
1DIM
100
AcDbLine
 10
-61.5148888299441
 20
19.99999999999911
 30
0.0
 11
-61.5148888299441
 21
16.99999999999888
 31
0.0
1001
ACAD
1000
DSTYLE
1002
{
1070
    45
1040
0.5
1002
}
  0
SOLID
  5
106BB
330
18
100
AcDbEntity
  8
1DIM
100
AcDbTrace
 10
87.29374666316578
 20
-1.865762002132351
 30
0.0
 11
86.49999845175443
 21
0.0000018864645952
 31
0.0
 12
87.8559539669588
 22
-1.507478047696404
 32
0.0
 13
87.8559539669588
 23
-1.507478047696404
 33
0.0
1001
ACAD
1000
DSTYLE
1002
{
1070
    45
1040
0.5
1002
}
  0
LINE
  5
106BC
330
18
100
AcDbEntity
  8
1DIM
100
AcDbLine
 10
87.57485031506227
 20
-1.686620024914378
 30
0.0
 11
99.69171346981815
 21
-20.69999999999158
 31
0.0
1001
ACAD
1000
DSTYLE
1002
{
1070
    45
1040
0.5
1002
}
  0
LINE
  5
106BD
330
18
100
AcDbEntity
  8
1DIM
100
AcDbLine
 10
99.69171346981815
 20
-20.69999999999158
 30
0.0
 11
119.5583801364848
 21
-20.69999999999158
 31
0.0
1001
ACAD
1000
DSTYLE
1002
{
1070
    45
1040
0.5
1002
}
  0
TEXT
  5
106BE
330
18
100
AcDbEntity
  8
1DIM
  6
Continuous
100
AcDbText
 10
102.3917134698181
 20
-19.99999999999158
 30
0.0
 40
3.5
  1
M4-10
100
AcDbText
  0
SOLID
  5
106BF
330
18
100
AcDbEntity
  8
1DIM
100
AcDbTrace
 10
1.175245351770018
 20
16.81023026731157
 30
0.0
 11
0.2163015403464215
 21
15.02374268615029
 31
0.0
 12
0.5440091734785966
 22
17.02467217473753
 32
0.0
 13
0.5440091734785966
 23
17.02467217473753
 33
0.0
1001
ACAD
1000
DSTYLE
1002
{
1070
    45
1040
0.5
1002
}
  0
LINE
  5
106C0
330
18
100
AcDbEntity
  8
1DIM
100
AcDbLine
 10
0.8596272626243065
 20
16.91745122102455
 30
0.0
 11
7.53408545225584
 21
36.56454133676385
 31
0.0
1001
ACAD
1000
DSTYLE
1002
{
1070
    45
1040
0.5
1002
}
  0
LINE
  5
106C1
330
18
100
AcDbEntity
  8
1DIM
100
AcDbLine
 10
7.53408545225584
 20
36.56454133676385
 30
0.0
 11
51.86075211892249
 21
36.56454133676385
 31
0.0
1001
ACAD
1000
DSTYLE
1002
{
1070
    45
1040
0.5
1002
}
  0
TEXT
  5
106C2
330
18
100
AcDbEntity
  8
1TEXT
  6
Continuous
100
AcDbText
 10
10.23408545225584
 20
43.09787467009718
 30
0.0
 40
3.5
  1
Material\U+FF1AZinc Die-cast
 41
0.7
100
AcDbText
1001
ACADANNOTATIVE
1000
AnnotativeData
1002
{
1070
     1
1070
     0
1002
}
  0
TEXT
  5
106C3
330
18
100
AcDbEntity
  8
1TEXT
  6
Continuous
100
AcDbText
 10
10.23408545225584
 20
37.26454133676384
 30
0.0
 40
3.5
  1
Finish\U+FF1AChrome
 41
0.7
100
AcDbText
1001
ACADANNOTATIVE
1000
AnnotativeData
1002
{
1070
     1
1070
     0
1002
}
  0
LINE
  5
106C4
330
18
100
AcDbEntity
  8
1DIM
100
AcDbLine
 10
0.5000000000001137
 20
129.9999810000079
 30
0.0
 11
27.49999999999998
 21
129.9999810000079
 31
0.0
1001
ACAD
1000
DSTYLE
1002
{
1070
    45
1040
0.5
1002
}
  0
LINE
  5
106C5
330
18
100
AcDbEntity
  8
1DIM
100
AcDbLine
 10
3.0
 20
99.99998100000794
 30
0.0
 11
27.49999999999997
 21
99.99998100000794
 31
0.0
1001
ACAD
1000
DSTYLE
1002
{
1070
    45
1040
0.5
1002
}
  0
LINE
  5
106C6
330
18
100
AcDbEntity
  8
1DIM
100
AcDbLine
 10
26.49999999999999
 20
127.9999810000079
 30
0.0
 11
26.49999999999997
 21
101.9999810000079
 31
0.0
1001
ACAD
1000
DSTYLE
1002
{
1070
    45
1040
0.5
1002
}
  0
LINE
  5
106CA
330
18
100
AcDbEntity
  8
1DIM
100
AcDbLine
 10
79.00019038105448
 20
-0.021815508048638
 30
0.0
 11
79.00019038105448
 21
-20.99999999999158
 31
0.0
1001
ACAD
1000
DSTYLE
1002
{
1070
    45
1040
0.5
1002
}
  0
LINE
  5
106CB
330
18
100
AcDbEntity
  8
1DIM
100
AcDbLine
 10
93.9998085215427
 20
-0.0218154984699358
 30
0.0
 11
93.9998085215427
 21
-20.99999999999158
 31
0.0
1001
ACAD
1000
DSTYLE
1002
{
1070
    45
1040
0.5
1002
}
  0
LINE
  5
106CC
330
18
100
AcDbEntity
  8
1DIM
100
AcDbLine
 10
81.00019038105449
 20
-19.99999999999158
 30
0.0
 11
91.99980852154268
 21
-19.99999999999158
 31
0.0
1001
ACAD
1000
DSTYLE
1002
{
1070
    45
1040
0.5
1002
}
  0
LINE
  5
106D0
330
18
100
AcDbEntity
  8
0
  6
ByBlock
100
AcDbLine
 10
-54.49999999999989
 20
61.58829895271328
 30
0.0
 11
-56.49999999999989
 21
62.12419733271327
 31
0.0
  0
LINE
  5
106D1
330
18
100
AcDbEntity
  8
0
  6
ByBlock
100
AcDbLine
 10
-56.49999999999989
 20
62.12419733271327
 30
0.0
 11
-54.49999999999989
 21
62.66009571271325
 31
0.0
  0
LINE
  5
106D2
330
18
100
AcDbEntity
  8
0
  6
ByBlock
100
AcDbLine
 10
-56.49999999999989
 20
62.12419733271327
 30
0.0
 11
-54.49999999999989
 21
62.12419733271327
 31
0.0
  0
LINE
  5
106D3
330
18
100
AcDbEntity
  8
0
  6
ByBlock
100
AcDbLine
 10
1.500000000000112
 20
62.66009571271325
 30
0.0
 11
3.500000000000113
 21
62.12419733271327
 31
0.0
  0
LINE
  5
106D4
330
18
100
AcDbEntity
  8
0
  6
ByBlock
100
AcDbLine
 10
3.500000000000113
 20
62.12419733271327
 30
0.0
 11
1.500000000000112
 21
61.58829895271328
 31
0.0
  0
LINE
  5
106D5
330
18
100
AcDbEntity
  8
0
  6
ByBlock
100
AcDbLine
 10
3.500000000000113
 20
62.12419733271327
 30
0.0
 11
1.500000000000112
 21
62.12419733271327
 31
0.0
  0
TEXT
  5
106D6
330
18
100
AcDbEntity
  8
1DIM
  6
Continuous
100
AcDbText
 10
-28.3772043562136
 20
62.82419733271327
 30
0.0
 40
3.5
  1
60
100
AcDbText
1001
ACAD
1000
DSTYLE
1002
{
1070
    45
1040
0.5
1002
}
  0
LINE
  5
106D7
330
18
100
AcDbEntity
  8
0
  6
ByBlock
100
AcDbLine
 10
37.03589838000004
 20
71.99998100000797
 30
0.0
 11
36.50000000000004
 21
69.99998100000799
 31
0.0
  0
LINE
  5
106D8
330
18
100
AcDbEntity
  8
0
  6
ByBlock
100
AcDbLine
 10
36.50000000000004
 20
69.99998100000799
 30
0.0
 11
35.96410162000004
 21
71.99998100000797
 31
0.0
  0
LINE
  5
106D9
330
18
100
AcDbEntity
  8
0
  6
ByBlock
100
AcDbLine
 10
36.50000000000004
 20
69.99998100000799
 30
0.0
 11
36.50000000000004
 21
71.99998100000797
 31
0.0
  0
LINE
  5
106DA
330
18
100
AcDbEntity
  8
0
  6
ByBlock
100
AcDbLine
 10
35.96410162000002
 20
127.999981000008
 30
0.0
 11
36.50000000000002
 21
129.999981000008
 31
0.0
  0
LINE
  5
106DB
330
18
100
AcDbEntity
  8
0
  6
ByBlock
100
AcDbLine
 10
36.50000000000002
 20
129.999981000008
 30
0.0
 11
37.03589838000002
 21
127.999981000008
 31
0.0
  0
LINE
  5
106DC
330
18
100
AcDbEntity
  8
0
  6
ByBlock
100
AcDbLine
 10
36.50000000000002
 20
129.999981000008
 30
0.0
 11
36.50000000000002
 21
127.999981000008
 31
0.0
  0
TEXT
  5
106DD
330
18
100
AcDbEntity
  8
1DIM
  6
Continuous
100
AcDbText
 10
35.80000000000004
 20
97.2899115555635
 30
0.0
 40
3.5
  1
60
 50
90.0
100
AcDbText
1001
ACAD
1000
DSTYLE
1002
{
1070
    45
1040
0.5
1002
}
  0
LINE
  5
106DE
330
18
100
AcDbEntity
  8
0
  6
ByBlock
100
AcDbLine
 10
37.03589838000004
 20
2.000000000008013
 30
0.0
 11
36.50000000000004
 21
0.0000000000080131
 31
0.0
  0
LINE
  5
106DF
330
18
100
AcDbEntity
  8
0
  6
ByBlock
100
AcDbLine
 10
36.50000000000004
 20
0.0000000000080131
 30
0.0
 11
35.96410162000004
 21
2.000000000008013
 31
0.0
  0
LINE
  5
106E0
330
18
100
AcDbEntity
  8
0
  6
ByBlock
100
AcDbLine
 10
36.50000000000004
 20
0.0000000000080131
 30
0.0
 11
36.50000000000004
 21
2.000000000008013
 31
0.0
  0
LINE
  5
106E1
330
18
100
AcDbEntity
  8
0
  6
ByBlock
100
AcDbLine
 10
35.96410162000004
 20
19.99999999999888
 30
0.0
 11
36.50000000000004
 21
21.99999999999888
 31
0.0
  0
LINE
  5
106E2
330
18
100
AcDbEntity
  8
0
  6
ByBlock
100
AcDbLine
 10
36.50000000000004
 20
21.99999999999888
 30
0.0
 11
37.03589838000004
 21
19.99999999999888
 31
0.0
  0
LINE
  5
106E3
330
18
100
AcDbEntity
  8
0
  6
ByBlock
100
AcDbLine
 10
36.50000000000004
 20
21.99999999999888
 30
0.0
 11
36.50000000000004
 21
19.99999999999888
 31
0.0
  0
TEXT
  5
106E4
330
18
100
AcDbEntity
  8
1DIM
  6
Continuous
100
AcDbText
 10
35.80000000000004
 20
8.083333333336778
 30
0.0
 40
3.5
  1
22
 50
90.0
100
AcDbText
1001
ACAD
1000
DSTYLE
1002
{
1070
    45
1040
0.5
1002
}
  0
LINE
  5
106E5
330
18
100
AcDbEntity
  8
0
  6
ByBlock
100
AcDbLine
 10
27.03589837999998
 20
2.000000000008014
 30
0.0
 11
26.49999999999999
 21
0.0000000000080137
 31
0.0
  0
LINE
  5
106E6
330
18
100
AcDbEntity
  8
0
  6
ByBlock
100
AcDbLine
 10
26.49999999999999
 20
0.0000000000080137
 30
0.0
 11
25.96410161999998
 21
2.000000000008014
 31
0.0
  0
LINE
  5
106E7
330
18
100
AcDbEntity
  8
0
  6
ByBlock
100
AcDbLine
 10
26.49999999999999
 20
0.0000000000080137
 30
0.0
 11
26.49999999999999
 21
2.000000000008014
 31
0.0
  0
LINE
  5
106E8
330
18
100
AcDbEntity
  8
0
  6
ByBlock
100
AcDbLine
 10
25.96410161999998
 20
12.99999999999886
 30
0.0
 11
26.49999999999999
 21
14.99999999999886
 31
0.0
  0
LINE
  5
106E9
330
18
100
AcDbEntity
  8
0
  6
ByBlock
100
AcDbLine
 10
26.49999999999999
 20
14.99999999999886
 30
0.0
 11
27.03589837999998
 21
12.99999999999886
 31
0.0
  0
LINE
  5
106EA
330
18
100
AcDbEntity
  8
0
  6
ByBlock
100
AcDbLine
 10
26.49999999999999
 20
14.99999999999886
 30
0.0
 11
26.49999999999999
 21
12.99999999999886
 31
0.0
  0
TEXT
  5
106EB
330
18
100
AcDbEntity
  8
1DIM
  6
Continuous
100
AcDbText
 10
25.79999999999998
 20
5.166666666670106
 30
0.0
 40
3.5
  1
15
 50
90.0
100
AcDbText
1001
ACAD
1000
DSTYLE
1002
{
1070
    45
1040
0.5
1002
}
  0
LINE
  5
106EC
330
18
100
AcDbEntity
  8
0
  6
ByBlock
100
AcDbLine
 10
-62.05078720994411
 20
19.99999999999911
 30
0.0
 11
-61.5148888299441
 21
21.99999999999911
 31
0.0
  0
LINE
  5
106ED
330
18
100
AcDbEntity
  8
0
  6
ByBlock
100
AcDbLine
 10
-61.5148888299441
 20
21.99999999999911
 30
0.0
 11
-60.9789904499441
 21
19.99999999999911
 31
0.0
  0
LINE
  5
106EE
330
18
100
AcDbEntity
  8
0
  6
ByBlock
100
AcDbLine
 10
-61.5148888299441
 20
21.99999999999911
 30
0.0
 11
-61.5148888299441
 21
19.99999999999911
 31
0.0
  0
LINE
  5
106EF
330
18
100
AcDbEntity
  8
0
  6
ByBlock
100
AcDbLine
 10
-60.9789904499441
 20
16.99999999999888
 30
0.0
 11
-61.5148888299441
 21
14.99999999999888
 31
0.0
  0
LINE
  5
106F0
330
18
100
AcDbEntity
  8
0
  6
ByBlock
100
AcDbLine
 10
-61.5148888299441
 20
14.99999999999888
 30
0.0
 11
-62.05078720994411
 21
16.99999999999888
 31
0.0
  0
LINE
  5
106F1
330
18
100
AcDbEntity
  8
0
  6
ByBlock
100
AcDbLine
 10
-61.5148888299441
 20
14.99999999999888
 30
0.0
 11
-61.5148888299441
 21
16.99999999999888
 31
0.0
  0
TEXT
  5
106F2
330
18
100
AcDbEntity
  8
1DIM
  6
Continuous
100
AcDbText
 10
-62.21488882994409
 20
17.48128941881721
 30
0.0
 40
3.5
  1
7
 50
90.0
100
AcDbText
1001
ACAD
1000
DSTYLE
1002
{
1070
    45
1040
0.5
1002
}
  0
LINE
  5
106F3
330
18
100
AcDbEntity
  8
0
  6
ByBlock
100
AcDbLine
 10
25.96410161999998
 20
127.9999810000079
 30
0.0
 11
26.49999999999999
 21
129.9999810000079
 31
0.0
  0
LINE
  5
106F4
330
18
100
AcDbEntity
  8
0
  6
ByBlock
100
AcDbLine
 10
26.49999999999999
 20
129.9999810000079
 30
0.0
 11
27.03589837999997
 21
127.9999810000079
 31
0.0
  0
LINE
  5
106F5
330
18
100
AcDbEntity
  8
0
  6
ByBlock
100
AcDbLine
 10
26.49999999999999
 20
129.9999810000079
 30
0.0
 11
26.49999999999999
 21
127.9999810000079
 31
0.0
  0
LINE
  5
106F6
330
18
100
AcDbEntity
  8
0
  6
ByBlock
100
AcDbLine
 10
27.03589837999997
 20
101.9999810000079
 30
0.0
 11
26.49999999999997
 21
99.99998100000794
 31
0.0
  0
LINE
  5
106F7
330
18
100
AcDbEntity
  8
0
  6
ByBlock
100
AcDbLine
 10
26.49999999999997
 20
99.99998100000794
 30
0.0
 11
25.96410161999997
 21
101.9999810000079
 31
0.0
  0
LINE
  5
106F8
330
18
100
AcDbEntity
  8
0
  6
ByBlock
100
AcDbLine
 10
26.49999999999997
 20
99.99998100000794
 30
0.0
 11
26.49999999999997
 21
101.9999810000079
 31
0.0
  0
TEXT
  5
106F9
330
18
100
AcDbEntity
  8
1DIM
  6
Continuous
100
AcDbText
 10
25.79999999999998
 20
112.3020643333413
 30
0.0
 40
3.5
  1
30
 50
90.0
100
AcDbText
1001
ACAD
1000
DSTYLE
1002
{
1070
    45
1040
0.5
1002
}
  0
LINE
  5
106FA
330
18
100
AcDbEntity
  8
0
  6
ByBlock
100
AcDbLine
 10
81.00019038105449
 20
-20.53589837999158
 30
0.0
 11
79.00019038105448
 21
-19.99999999999158
 31
0.0
  0
LINE
  5
106FB
330
18
100
AcDbEntity
  8
0
  6
ByBlock
100
AcDbLine
 10
79.00019038105448
 20
-19.99999999999158
 30
0.0
 11
81.00019038105449
 21
-19.46410161999158
 31
0.0
  0
LINE
  5
106FC
330
18
100
AcDbEntity
  8
0
  6
ByBlock
100
AcDbLine
 10
79.00019038105448
 20
-19.99999999999158
 30
0.0
 11
81.00019038105449
 21
-19.99999999999158
 31
0.0
  0
LINE
  5
106FD
330
18
100
AcDbEntity
  8
0
  6
ByBlock
100
AcDbLine
 10
91.99980852154268
 20
-19.46410161999158
 30
0.0
 11
93.9998085215427
 21
-19.99999999999158
 31
0.0
  0
LINE
  5
106FE
330
18
100
AcDbEntity
  8
0
  6
ByBlock
100
AcDbLine
 10
93.9998085215427
 20
-19.99999999999158
 30
0.0
 11
91.99980852154268
 21
-20.53589837999158
 31
0.0
  0
LINE
  5
106FF
330
18
100
AcDbEntity
  8
0
  6
ByBlock
100
AcDbLine
 10
93.9998085215427
 20
-19.99999999999158
 30
0.0
 11
91.99980852154268
 21
-19.99999999999158
 31
0.0
  0
TEXT
  5
10700
330
18
100
AcDbEntity
  8
1DIM
  6
Continuous
100
AcDbText
 10
84.16666611796525
 20
-19.29999999999158
 30
0.0
 40
3.5
  1
15
100
AcDbText
1001
ACAD
1000
DSTYLE
1002
{
1070
    45
1040
0.5
1002
}
  0
VIEWPORT
  5
57
330
15
100
AcDbEntity
 67
     1
  8
0
100
AcDbViewport
 10
0.0
 20
0.0
 30
0.0
 40
626.6993613861387
 41
292.026
 68
     1
 69
     1
 12
-8.92199999992539
 22
7.489032109769567
 13
0.0
 23
0.0
 14
10.0
 24
10.0
 15
10.0
 25
10.0
 16
0.0
 26
0.0
 36
1.0
 17
0.0
 27
0.0
 37
0.0
 42
50.0
 43
0.0
 44
0.0
 45
292.026
 50
0.0
 51
0.0
 72
   100
 90
    32816
  1

281
     0
 71
     1
 74
     0
110
0.0
120
0.0
130
0.0
111
1.0
121
0.0
131
0.0
112
0.0
122
1.0
132
0.0
 79
     0
146
0.0
170
     0
  0
ENDSEC
  0
SECTION
  2
OBJECTS
  0
DICTIONARY
  5
C
330
0
100
AcDbDictionary
281
     1
  3
ACAD_CIP_PREVIOUS_PRODUCT_INFO
350
FE5A
  3
ACAD_COLOR
350
18D
  3
ACAD_DETAILVIEWSTYLE
350
F287
  3
ACAD_GROUP
350
D
  3
ACAD_LAYOUT
350
18E
  3
ACAD_MATERIAL
350
18C
  3
ACAD_MLEADERSTYLE
350
D09D
  3
ACAD_MLINESTYLE
350
1B
  3
ACAD_PLOTSETTINGS
350
18F
  3
ACAD_PLOTSTYLENAME
350
108AA
  3
ACAD_SCALELIST
350
D07B
  3
ACAD_SECTIONVIEWSTYLE
350
F288
  3
ACAD_TABLESTYLE
350
108AE
  3
ACAD_VISUALSTYLE
350
D06A
  3
ACDB_RECOMPOSE_DATA
350
108C7
  3
ACDBVARIABLEDICTIONARY
350
37
  3
AcDsDecomposeData
350
108CD
  3
AEC_PROPERTY_SET_DEFS
350
FF2C
  3
CONTENTDICTIONARY
350
D8
  3
DRAWINGVARIABLESDICT
350
20
  0
DICTIONARY
  5
D16C
330
2
100
AcDbDictionary
281
     1
  3
ACAD_LAYERSTATES
350
D16D
  0
DICTIONARY
  5
D0B5
330
E
100
AcDbDictionary
281
     1
  3
ADSK_XREC_LAYER_RECONCILED
350
D0B6
  0
DICTIONARY
  5
D0B7
330
29
100
AcDbDictionary
281
     1
  3
ADSK_XREC_LAYER_RECONCILED
350
D0B8
  0
DICTIONARY
  5
D0B9
330
31
100
AcDbDictionary
281
     1
  3
ADSK_XREC_LAYER_RECONCILED
350
D0BA
  0
DICTIONARY
  5
D0BF
330
243
100
AcDbDictionary
281
     1
  3
ADSK_XREC_LAYER_RECONCILED
350
D0C0
  0
DICTIONARY
  5
D0C5
330
24E
100
AcDbDictionary
281
     1
  3
ADSK_XREC_LAYER_RECONCILED
350
D0C6
  0
DICTIONARY
  5
88F
330
18
100
AcDbDictionary
281
     1
  3
ACAD_SORTENTS
350
890
  0
XRECORD
  5
FE5A
102
{ACAD_REACTORS
330
C
102
}
330
C
100
AcDbXrecord
280
     1
300
ACDLT
300
2019
300
ACDLT_F_S
  0
DICTIONARY
  5
18D
102
{ACAD_REACTORS
330
C
102
}
330
C
100
AcDbDictionary
281
     1
  0
DICTIONARY
  5
F287
102
{ACAD_REACTORS
330
C
102
}
330
C
100
AcDbDictionary
281
     1
  3
Imperial24
350
108B1
  3
METRIC50
350
FE50
  0
DICTIONARY
  5
D
102
{ACAD_REACTORS
330
C
102
}
330
C
100
AcDbDictionary
281
     1
  0
DICTIONARY
  5
18E
102
{ACAD_REACTORS
330
C
102
}
330
C
100
AcDbDictionary
281
     1
  3
Layout1
350
108B3
  3
Model
350
108B2
1001
ACADSTRINGINFO
1000
MIFCodePage
1070
     1
  0
DICTIONARY
  5
18C
102
{ACAD_REACTORS
330
C
102
}
330
C
100
AcDbDictionary
281
     1
  3
BYBLOCK
350
D05A
  3
BYLAYER
350
D052
  3
GLOBAL
350
D062
  0
DICTIONARY
  5
D09D
102
{ACAD_REACTORS
330
C
102
}
330
C
100
AcDbDictionary
281
     1
  3
STANDARD
350
D09E
  0
DICTIONARY
  5
1B
102
{ACAD_REACTORS
330
C
102
}
330
C
100
AcDbDictionary
281
     1
  3
STANDARD
350
1C
  0
DICTIONARY
  5
18F
102
{ACAD_REACTORS
330
C
102
}
330
C
100
AcDbDictionary
281
     1
  0
ACDBDICTIONARYWDFLT
  5
108AA
102
{ACAD_REACTORS
330
C
102
}
330
C
100
AcDbDictionary
281
     1
  3
Normal
350
108AB
100
AcDbDictionaryWithDefault
340
108AB
  0
DICTIONARY
  5
D07B
102
{ACAD_REACTORS
330
C
102
}
330
C
100
AcDbDictionary
281
     1
  3
A0
350
D07C
  3
A1
350
D07D
  3
A2
350
D07E
  3
A3
350
D07F
  3
A4
350
D080
  3
A5
350
D081
  3
A6
350
D082
  3
A7
350
D083
  3
A8
350
D084
  3
A9
350
D085
  3
B0
350
D086
  3
B1
350
D087
  3
B2
350
D088
  3
B3
350
D089
  3
B4
350
D08A
  3
B5
350
D08B
  3
B6
350
D08C
  3
B7
350
D08D
  3
B8
350
D08E
  3
B9
350
D08F
  3
C0
350
D090
  3
C1
350
D091
  3
C2
350
D092
  3
C3
350
D093
  3
C4
350
D094
  3
C5
350
D095
  3
C6
350
D096
  3
C7
350
D097
  3
C8
350
D098
  3
C9
350
D099
  3
D0
350
D09A
  3
D1
350
D09B
  3
D2
350
D09C
  0
DICTIONARY
  5
F288
102
{ACAD_REACTORS
330
C
102
}
330
C
100
AcDbDictionary
281
     1
  3
Imperial24
350
108B0
  3
METRIC50
350
FE4F
  0
DICTIONARY
  5
108AE
102
{ACAD_REACTORS
330
C
102
}
330
C
100
AcDbDictionary
281
     1
  3
Standard
350
108AF
  0
DICTIONARY
  5
D06A
102
{ACAD_REACTORS
330
C
102
}
330
C
100
AcDbDictionary
281
     1
  3
2DWIREFRAME
350
D070
  3
3D_HIDDEN
350
D072
  3
3DWIREFRAME
350
D071
  3
BASIC
350
D06F
  3
BRIGHTEN
350
D076
  3
COLORCHANGE
350
D07A
  3
CONCEPTUAL
350
D073
  3
DIM
350
D075
  3
EDGECOLOROFF
350
D29F
  3
FACEPATTERN
350
D079
  3
FLAT
350
D06B
  3
FLATWITHEDGES
350
D06C
  3
GOURAUD
350
D06D
  3
GOURAUDWITHEDGES
350
D06E
  3
HIDDEN
350
F225
  3
JITTEROFF
350
D29D
  3
LINEPATTERN
350
D078
  3
MODELING
350
F22B
  3
OVERHANGOFF
350
D29E
  3
REALISTIC
350
D074
  3
SHADED
350
F22A
  3
Shaded with edges
350
108AD
  3
SHADED_WITH_EDGES
350
F229
  3
Shades of Gray
350
108AC
  3
SHADES_OF_GRAY
350
F226
  3
SKETCHY
350
F227
  3
THICKEN
350
D077
  3
WIREFRAME
350
F224
  3
X-RAY
350
F228
  0
XRECORD
  5
108C7
102
{ACAD_REACTORS
330
C
102
}
330
C
100
AcDbXrecord
280
     1
 90
        1
330
108AF
  0
DICTIONARY
  5
37
102
{ACAD_REACTORS
330
C
102
}
330
C
100
AcDbDictionary
281
     1
  3
CANNOSCALE
350
F285
  3
CMLEADERSTYLE
350
D117
  3
CTABLESTYLE
350
29E
  3
CVIEWDETAILSTYLE
350
1031A
  3
CVIEWSECTIONSTYLE
350
1031B
  3
DIMADEC
350
38
  3
DIMASSOC
350
1CE
  3
HIDETEXT
350
704E
  3
INDEXCTL
350
D11A
  3
INTERSECTIONCOLOR
350
7052
  3
INTERSECTIONDISPLAY
350
7051
  3
MSLTSCALE
350
F286
  3
OBSCOLOR
350
704F
  3
OBSLTYPE
350
7050
  3
PROJECTNAME
350
1CF
  3
SORTENTS
350
D119
  3
XCLIPFRAME
350
108C4
  0
DICTIONARY
  5
108CD
102
{ACAD_REACTORS
330
C
102
}
330
C
100
AcDbDictionary
281
     1
  3
AcDsRecords
350
108CF
  3
AcDsSchemas
350
108CE
1001
ACAD
1070
     2
  0
DICTIONARY
  5
FF2C
102
{ACAD_REACTORS
330
C
102
}
330
C
100
AcDbDictionary
281
     1
  0
DICTIONARY
  5
D8
102
{ACAD_REACTORS
330
C
102
}
330
C
100
AcDbDictionary
281
     1
  0
DICTIONARY
  5
20
102
{ACAD_REACTORS
330
C
102
}
330
C
100
AcDbDictionary
281
     1
1001
DRAWINGVARIABLESXDATA
1000
POLARANG
1000
0.261799387799149410000000
1000
POLARMODE
1000
1
1000
POLARSTYLE
1000
1
  0
DICTIONARY
  5
D16D
102
{ACAD_REACTORS
330
D16C
102
}
330
D16C
100
AcDbDictionary
281
     1
  0
XRECORD
  5
D0B6
102
{ACAD_REACTORS
330
D0B5
102
}
330
D0B5
100
AcDbXrecord
280
     1
290
     1
  0
XRECORD
  5
D0B8
102
{ACAD_REACTORS
330
D0B7
102
}
330
D0B7
100
AcDbXrecord
280
     1
290
     1
  0
XRECORD
  5
D0BA
102
{ACAD_REACTORS
330
D0B9
102
}
330
D0B9
100
AcDbXrecord
280
     1
290
     1
  0
XRECORD
  5
D0C0
102
{ACAD_REACTORS
330
D0BF
102
}
330
D0BF
100
AcDbXrecord
280
     1
290
     1
  0
XRECORD
  5
D0C6
102
{ACAD_REACTORS
330
D0C5
102
}
330
D0C5
100
AcDbXrecord
280
     1
290
     1
  0
SORTENTSTABLE
  5
890
102
{ACAD_REACTORS
330
88F
102
}
330
88F
100
AcDbSortentsTable
330
18
331
E401
  5
10698
331
E404
  5
10699
331
E405
  5
1069A
331
E868
  5
106A9
331
FF3E
  5
106C3
331
FF3F
  5
106C4
331
FF40
  5
106C5
331
FF41
  5
106C6
331
FF42
  5
106C7
331
FF43
  5
106C8
331
FF44
  5
106C9
331
FF45
  5
106CA
331
FF46
  5
106CB
331
FF47
  5
106CC
331
FF48
  5
106CD
331
FF49
  5
106CE
331
FF4A
  5
106CF
331
FF4B
  5
106D0
331
FF4D
  5
106D1
331
FF4E
  5
106D2
331
FF4F
  5
106D3
331
FF50
  5
106D4
331
FF51
  5
106D5
331
FF52
  5
106D6
331
FF53
  5
106D7
331
FF54
  5
106D8
331
FF55
  5
106D9
331
FF56
  5
106DA
331
FF57
  5
106DB
331
FF58
  5
106DC
331
FF59
  5
106DD
331
FF5A
  5
106DE
331
FF5C
  5
106DF
331
FF5D
  5
106E0
331
FF5F
  5
106E1
331
FF60
  5
106E2
331
FF61
  5
106E3
331
FF62
  5
106E4
331
FF63
  5
106E5
331
FF64
  5
106E6
331
FF65
  5
106E7
331
FF66
  5
106E8
331
FF67
  5
106E9
331
FF68
  5
106EA
331
FF69
  5
106EB
331
FF6A
  5
106EC
331
FF6B
  5
106ED
331
FF6C
  5
106EE
331
FF6E
  5
106EF
331
FF6F
  5
106F0
331
FF70
  5
106F1
331
FF7A
  5
106F2
331
FF7B
  5
106F3
331
10104
  5
106F4
331
10665
  5
E3F0
331
10666
  5
E3F1
331
10667
  5
E3F2
331
1066B
  5
10679
331
1066C
  5
1067A
331
1066D
  5
1067B
331
10671
  5
10686
331
10672
  5
10687
331
10673
  5
10688
331
10674
  5
1068C
331
10675
  5
1068D
331
10679
  5
106F5
331
1067A
  5
106F6
331
1067B
  5
106F7
331
1067C
  5
106F8
331
1067D
  5
106F9
331
10681
  5
E405
331
10682
  5
E84E
331
10683
  5
E863
331
10684
  5
E868
331
10685
  5
E869
331
10686
  5
E886
331
10687
  5
E887
331
10688
  5
1067C
331
10689
  5
1067D
331
1068A
  5
10681
331
1068B
  5
10682
331
1068C
  5
10683
331
1068D
  5
10684
331
1068E
  5
10685
331
1068F
  5
1068E
331
10690
  5
10692
331
10691
  5
10693
331
10692
  5
10694
331
10693
  5
10695
331
10694
  5
10696
331
10695
  5
10697
331
10696
  5
106FA
331
10697
  5
106FB
331
10698
  5
106FC
331
10699
  5
106FD
331
1069A
  5
106FE
331
1069B
  5
106FF
331
1069C
  5
10700
331
1069D
  5
FF43
331
1069E
  5
FF47
331
1069F
  5
FF48
331
106A3
  5
FF5A
331
106A4
  5
FF5C
331
106A5
  5
FF61
331
106A9
  5
FF7A
331
106AA
  5
FF7B
331
106AB
  5
10104
331
106AF
  5
1066C
331
106B0
  5
1066D
331
106B1
  5
1066E
331
106B5
  5
1069B
331
106B6
  5
1069C
331
106B7
  5
1069D
331
106BB
  5
106A5
331
106BC
  5
106A6
331
106BD
  5
106A7
331
106BE
  5
106A8
331
106BF
  5
106AA
331
106C0
  5
106AB
331
106C1
  5
106AC
331
106C2
  5
106AD
331
106C3
  5
106AE
331
106C4
  5
106AF
331
106C5
  5
106B0
331
106C6
  5
106B1
331
106CA
  5
106B9
331
106CB
  5
106BA
331
106CC
  5
106BB
331
106D0
  5
FF4D
331
106D1
  5
FF4E
331
106D2
  5
FF4F
331
106D3
  5
FF53
331
106D4
  5
FF54
331
106D5
  5
FF55
331
106D6
  5
FF59
331
106D7
  5
FF65
331
106D8
  5
FF6A
331
106D9
  5
FF6B
331
106DA
  5
FF6C
331
106DB
  5
FF6E
331
106DC
  5
FF6F
331
106DD
  5
FF70
331
106DE
  5
10665
331
106DF
  5
10666
331
106E0
  5
10667
331
106E1
  5
10668
331
106E2
  5
10669
331
106E3
  5
1066A
331
106E4
  5
1066B
331
106E5
  5
1066F
331
106E6
  5
10670
331
106E7
  5
10671
331
106E8
  5
10672
331
106E9
  5
10673
331
106EA
  5
10674
331
106EB
  5
10675
331
106EC
  5
1069E
331
106ED
  5
1069F
331
106EE
  5
106A0
331
106EF
  5
106A1
331
106F0
  5
106A2
331
106F1
  5
106A3
331
106F2
  5
106A4
331
106F3
  5
106B2
331
106F4
  5
106B3
331
106F5
  5
106B4
331
106F6
  5
106B5
331
106F7
  5
106B6
331
106F8
  5
106B7
331
106F9
  5
106B8
331
106FA
  5
106BC
331
106FB
  5
106BD
331
106FC
  5
106BE
331
106FD
  5
106BF
331
106FE
  5
106C0
331
106FF
  5
106C1
331
10700
  5
106C2
  0
ACDBDETAILVIEWSTYLE
  5
108B1
102
{ACAD_XDICTIONARY
360
1090F
102
}
102
{ACAD_REACTORS
330
F287
102
}
330
F287
100
AcDbModelDocViewStyle
 70
     0
  3
Imperial24
290
     0
100
AcDbDetailViewStyle
 70
     0
 71
     0
 90
        3
 71
     1
340
F
 62
   256
 40
0.24
340
0
 62
   256
 40
0.24
300

 40
0.36
280
     3
 71
     2
340
14
 90
       25
 62
   256
 71
     3
340
F
 62
   256
 40
0.24
 90
        1
 40
0.75
 90
        1
300
%<\AcVar ViewType \f "%tc1">% %<\AcVar ViewDetailId>%\PSCALE %<\AcVar ViewScale \f "%sn">%
 71
     4
340
14
 90
       25
 62
   256
340
14
 90
       25
 62
   256
280
     0
  0
ACDBDETAILVIEWSTYLE
  5
FE50
102
{ACAD_XDICTIONARY
360
10314
102
}
102
{ACAD_REACTORS
330
F287
102
}
330
F287
100
AcDbModelDocViewStyle
 70
     0
  3
Metric50
290
     0
100
AcDbDetailViewStyle
 70
     0
 71
     0
 90
        3
 71
     1
340
F
 62
   256
 40
5.0
340
0
 62
   256
 40
5.0
300

 40
0.0
280
     1
 71
     2
340
14
 90
       25
 62
   256
 71
     3
340
F
 62
   256
 40
5.0
 90
        0
 40
15.0
 90
        1
300
%<\AcVar ViewDetailId>% (%<\AcVar ViewScale \f "%sn">%)
 71
     4
340
14
 90
       25
 62
   256
340
14
 90
       25
 62
   256
280
     0
  0
LAYOUT
  5
108B3
102
{ACAD_REACTORS
330
18E
102
}
330
18E
100
AcDbPlotSettings
  1

  2
Canon iR2030
  4

  6

 40
0.0
 41
0.0
 42
0.0
 43
0.0
 44
0.0
 45
0.0
 46
0.0
 47
0.0
 48
0.0
 49
0.0
140
0.0
141
0.0
142
1.0
143
1.0
 70
   688
 72
     0
 73
     0
 74
     5
  7

 75
    16
147
1.0
 76
     0
 77
     2
 78
   300
148
0.0
149
0.0
100
AcDbLayout
  1
Layout1
 70
     1
 71
     1
 10
0.0
 20
0.0
 11
420.0
 21
297.0
 12
0.0
 22
0.0
 32
0.0
 14
1.000000000000000E+20
 24
1.000000000000000E+20
 34
1.000000000000000E+20
 15
-1.000000000000000E+20
 25
-1.000000000000000E+20
 35
-1.000000000000000E+20
146
0.0
 13
0.0
 23
0.0
 33
0.0
 16
1.0
 26
0.0
 36
0.0
 17
0.0
 27
1.0
 37
0.0
 76
     0
330
15
331
57
  0
LAYOUT
  5
108B2
102
{ACAD_REACTORS
330
18E
102
}
330
18E
100
AcDbPlotSettings
  1

  2
Canon iR2030
  4

  6

 40
0.0
 41
0.0
 42
0.0
 43
0.0
 44
0.0
 45
0.0
 46
0.0
 47
0.0
 48
0.0
 49
0.0
140
0.0
141
0.0
142
1.0
143
1.0
 70
  1712
 72
     0
 73
     0
 74
     0
  7

 75
     0
147
1.0
 76
     0
 77
     2
 78
   300
148
0.0
149
0.0
100
AcDbLayout
  1
Model
 70
     1
 71
     0
 10
0.0
 20
0.0
 11
12.0
 21
9.0
 12
0.0
 22
0.0
 32
0.0
 14
0.0
 24
0.0
 34
0.0
 15
0.0
 25
0.0
 35
0.0
146
0.0
 13
0.0
 23
0.0
 33
0.0
 16
1.0
 26
0.0
 36
0.0
 17
0.0
 27
1.0
 37
0.0
 76
     0
330
18
331
CFAB
  0
MATERIAL
  5
D05A
102
{ACAD_XDICTIONARY
360
1089E
102
}
102
{ACAD_REACTORS
330
18C
102
}
330
18C
100
AcDbMaterial
  1
BYBLOCK
 72
     0
 43
0.0208333333333333
 43
0.0
 43
0.0
 43
0.0
 43
0.0
 43
0.0208333333333333
 43
0.0
 43
0.0
 43
0.0
 43
0.0
 43
1.0
 43
0.0
 43
0.0
 43
0.0
 43
0.0
 43
1.0
 77
     0
 47
0.0208333333333333
 47
0.0
 47
0.0
 47
0.0
 47
0.0
 47
0.0208333333333333
 47
0.0
 47
0.0
 47
0.0
 47
0.0
 47
1.0
 47
0.0
 47
0.0
 47
0.0
 47
0.0
 47
1.0
171
     0
 49
0.0208333333333333
 49
0.0
 49
0.0
 49
0.0
 49
0.0
 49
0.0208333333333333
 49
0.0
 49
0.0
 49
0.0
 49
0.0
 49
1.0
 49
0.0
 49
0.0
 49
0.0
 49
0.0
 49
1.0
175
     0
142
0.0208333333333333
142
0.0
142
0.0
142
0.0
142
0.0
142
0.0208333333333333
142
0.0
142
0.0
142
0.0
142
0.0
142
1.0
142
0.0
142
0.0
142
0.0
142
0.0
142
1.0
179
     0
144
0.0208333333333333
144
0.0
144
0.0
144
0.0
144
0.0
144
0.0208333333333333
144
0.0
144
0.0
144
0.0
144
0.0
144
1.0
144
0.0
144
0.0
144
0.0
144
0.0
144
1.0
147
0.0208333333333333
147
0.0
147
0.0
147
0.0
147
0.0
147
0.0208333333333333
147
0.0
147
0.0
147
0.0
147
0.0
147
1.0
147
0.0
147
0.0
147
0.0
147
0.0
147
1.0
  0
MATERIAL
  5
D052
102
{ACAD_XDICTIONARY
360
108A0
102
}
102
{ACAD_REACTORS
330
18C
102
}
330
18C
100
AcDbMaterial
  1
BYLAYER
 72
     0
 43
0.0208333333333333
 43
0.0
 43
0.0
 43
0.0
 43
0.0
 43
0.0208333333333333
 43
0.0
 43
0.0
 43
0.0
 43
0.0
 43
1.0
 43
0.0
 43
0.0
 43
0.0
 43
0.0
 43
1.0
 77
     0
 47
0.0208333333333333
 47
0.0
 47
0.0
 47
0.0
 47
0.0
 47
0.0208333333333333
 47
0.0
 47
0.0
 47
0.0
 47
0.0
 47
1.0
 47
0.0
 47
0.0
 47
0.0
 47
0.0
 47
1.0
171
     0
 49
0.0208333333333333
 49
0.0
 49
0.0
 49
0.0
 49
0.0
 49
0.0208333333333333
 49
0.0
 49
0.0
 49
0.0
 49
0.0
 49
1.0
 49
0.0
 49
0.0
 49
0.0
 49
0.0
 49
1.0
175
     0
142
0.0208333333333333
142
0.0
142
0.0
142
0.0
142
0.0
142
0.0208333333333333
142
0.0
142
0.0
142
0.0
142
0.0
142
1.0
142
0.0
142
0.0
142
0.0
142
0.0
142
1.0
179
     0
144
0.0208333333333333
144
0.0
144
0.0
144
0.0
144
0.0
144
0.0208333333333333
144
0.0
144
0.0
144
0.0
144
0.0
144
1.0
144
0.0
144
0.0
144
0.0
144
0.0
144
1.0
147
0.0208333333333333
147
0.0
147
0.0
147
0.0
147
0.0
147
0.0208333333333333
147
0.0
147
0.0
147
0.0
147
0.0
147
1.0
147
0.0
147
0.0
147
0.0
147
0.0
147
1.0
  0
MATERIAL
  5
D062
102
{ACAD_XDICTIONARY
360
108A2
102
}
102
{ACAD_REACTORS
330
18C
102
}
330
18C
100
AcDbMaterial
  1
GLOBAL
 72
     0
 43
0.0208333333333333
 43
0.0
 43
0.0
 43
0.0
 43
0.0
 43
0.0208333333333333
 43
0.0
 43
0.0
 43
0.0
 43
0.0
 43
1.0
 43
0.0
 43
0.0
 43
0.0
 43
0.0
 43
1.0
 77
     0
 47
0.0208333333333333
 47
0.0
 47
0.0
 47
0.0
 47
0.0
 47
0.0208333333333333
 47
0.0
 47
0.0
 47
0.0
 47
0.0
 47
1.0
 47
0.0
 47
0.0
 47
0.0
 47
0.0
 47
1.0
171
     0
 49
0.0208333333333333
 49
0.0
 49
0.0
 49
0.0
 49
0.0
 49
0.0208333333333333
 49
0.0
 49
0.0
 49
0.0
 49
0.0
 49
1.0
 49
0.0
 49
0.0
 49
0.0
 49
0.0
 49
1.0
175
     0
142
0.0208333333333333
142
0.0
142
0.0
142
0.0
142
0.0
142
0.0208333333333333
142
0.0
142
0.0
142
0.0
142
0.0
142
1.0
142
0.0
142
0.0
142
0.0
142
0.0
142
1.0
179
     0
144
0.0208333333333333
144
0.0
144
0.0
144
0.0
144
0.0
144
0.0208333333333333
144
0.0
144
0.0
144
0.0
144
0.0
144
1.0
144
0.0
144
0.0
144
0.0
144
0.0
144
1.0
147
0.0208333333333333
147
0.0
147
0.0
147
0.0
147
0.0
147
0.0208333333333333
147
0.0
147
0.0
147
0.0
147
0.0
147
1.0
147
0.0
147
0.0
147
0.0
147
0.0
147
1.0
  0
MLEADERSTYLE
  5
D09E
102
{ACAD_REACTORS
330
D09D
102
}
330
D09D
100
AcDbMLeaderStyle
170
     2
171
     1
172
     0
 90
        2
 40
0.0
 41
0.0
173
     1
 91
-1056964608
340
12
 92
       -2
290
     1
 42
2.0
291
     1
 43
0.36
  3
Standard
 44
4.0
300

342
F
174
     1
178
     6
175
     1
176
     0
 93
-1056964608
 45
4.0
292
     0
297
     0
 46
4.0
 94
-1056964608
 47
1.0
 49
1.0
140
1.0
293
     1
141
0.0
294
     1
177
     0
142
1.0
295
     0
296
     0
143
0.125
1001
ACAD_MLEADERVER
1070
     2
  0
MLINESTYLE
  5
1C
102
{ACAD_REACTORS
330
1B
102
}
330
1B
100
AcDbMlineStyle
  2
STANDARD
 70
     0
  3

 62
   256
 51
90.0
 52
90.0
 71
     2
 49
0.5
 62
   256
  6
BYLAYER
 49
-0.5
 62
   256
  6
BYLAYER
  0
ACDBPLACEHOLDER
  5
108AB
102
{ACAD_REACTORS
330
108AA
102
}
330
108AA
  0
SCALE
  5
D07C
102
{ACAD_REACTORS
330
D07B
102
}
330
D07B
100
AcDbScale
 70
     0
300
1:1
140
1.0
141
1.0
290
     1
  0
SCALE
  5
D07D
102
{ACAD_REACTORS
330
D07B
102
}
330
D07B
100
AcDbScale
 70
     0
300
1:2
140
1.0
141
2.0
290
     0
  0
SCALE
  5
D07E
102
{ACAD_REACTORS
330
D07B
102
}
330
D07B
100
AcDbScale
 70
     0
300
1:4
140
1.0
141
4.0
290
     0
  0
SCALE
  5
D07F
102
{ACAD_REACTORS
330
D07B
102
}
330
D07B
100
AcDbScale
 70
     0
300
1:5
140
1.0
141
5.0
290
     0
  0
SCALE
  5
D080
102
{ACAD_REACTORS
330
D07B
102
}
330
D07B
100
AcDbScale
 70
     0
300
1:8
140
1.0
141
8.0
290
     0
  0
SCALE
  5
D081
102
{ACAD_REACTORS
330
D07B
102
}
330
D07B
100
AcDbScale
 70
     0
300
1:10
140
1.0
141
10.0
290
     0
  0
SCALE
  5
D082
102
{ACAD_REACTORS
330
D07B
102
}
330
D07B
100
AcDbScale
 70
     0
300
1:16
140
1.0
141
16.0
290
     0
  0
SCALE
  5
D083
102
{ACAD_REACTORS
330
D07B
102
}
330
D07B
100
AcDbScale
 70
     0
300
1:20
140
1.0
141
20.0
290
     0
  0
SCALE
  5
D084
102
{ACAD_REACTORS
330
D07B
102
}
330
D07B
100
AcDbScale
 70
     0
300
1:30
140
1.0
141
30.0
290
     0
  0
SCALE
  5
D085
102
{ACAD_REACTORS
330
D07B
102
}
330
D07B
100
AcDbScale
 70
     0
300
1:40
140
1.0
141
40.0
290
     0
  0
SCALE
  5
D086
102
{ACAD_REACTORS
330
D07B
102
}
330
D07B
100
AcDbScale
 70
     0
300
1:50
140
1.0
141
50.0
290
     0
  0
SCALE
  5
D087
102
{ACAD_REACTORS
330
D07B
102
}
330
D07B
100
AcDbScale
 70
     0
300
1:100
140
1.0
141
100.0
290
     0
  0
SCALE
  5
D088
102
{ACAD_REACTORS
330
D07B
102
}
330
D07B
100
AcDbScale
 70
     0
300
2:1
140
2.0
141
1.0
290
     0
  0
SCALE
  5
D089
102
{ACAD_REACTORS
330
D07B
102
}
330
D07B
100
AcDbScale
 70
     0
300
4:1
140
4.0
141
1.0
290
     0
  0
SCALE
  5
D08A
102
{ACAD_REACTORS
330
D07B
102
}
330
D07B
100
AcDbScale
 70
     0
300
8:1
140
8.0
141
1.0
290
     0
  0
SCALE
  5
D08B
102
{ACAD_REACTORS
330
D07B
102
}
330
D07B
100
AcDbScale
 70
     0
300
10:1
140
10.0
141
1.0
290
     0
  0
SCALE
  5
D08C
102
{ACAD_REACTORS
330
D07B
102
}
330
D07B
100
AcDbScale
 70
     0
300
100:1
140
100.0
141
1.0
290
     0
  0
SCALE
  5
D08D
102
{ACAD_REACTORS
330
D07B
102
}
330
D07B
100
AcDbScale
 70
     0
300
1/128" = 1'-0"
140
0.0078125
141
12.0
290
     0
  0
SCALE
  5
D08E
102
{ACAD_REACTORS
330
D07B
102
}
330
D07B
100
AcDbScale
 70
     0
300
1/64" = 1'-0"
140
0.015625
141
12.0
290
     0
  0
SCALE
  5
D08F
102
{ACAD_REACTORS
330
D07B
102
}
330
D07B
100
AcDbScale
 70
     0
300
1/32" = 1'-0"
140
0.03125
141
12.0
290
     0
  0
SCALE
  5
D090
102
{ACAD_REACTORS
330
D07B
102
}
330
D07B
100
AcDbScale
 70
     0
300
1/16" = 1'-0"
140
0.0625
141
12.0
290
     0
  0
SCALE
  5
D091
102
{ACAD_REACTORS
330
D07B
102
}
330
D07B
100
AcDbScale
 70
     0
300
3/32" = 1'-0"
140
0.09375
141
12.0
290
     0
  0
SCALE
  5
D092
102
{ACAD_REACTORS
330
D07B
102
}
330
D07B
100
AcDbScale
 70
     0
300
1/8" = 1'-0"
140
0.125
141
12.0
290
     0
  0
SCALE
  5
D093
102
{ACAD_REACTORS
330
D07B
102
}
330
D07B
100
AcDbScale
 70
     0
300
3/16" = 1'-0"
140
0.1875
141
12.0
290
     0
  0
SCALE
  5
D094
102
{ACAD_REACTORS
330
D07B
102
}
330
D07B
100
AcDbScale
 70
     0
300
1/4" = 1'-0"
140
0.25
141
12.0
290
     0
  0
SCALE
  5
D095
102
{ACAD_REACTORS
330
D07B
102
}
330
D07B
100
AcDbScale
 70
     0
300
3/8" = 1'-0"
140
0.375
141
12.0
290
     0
  0
SCALE
  5
D096
102
{ACAD_REACTORS
330
D07B
102
}
330
D07B
100
AcDbScale
 70
     0
300
1/2" = 1'-0"
140
0.5
141
12.0
290
     0
  0
SCALE
  5
D097
102
{ACAD_REACTORS
330
D07B
102
}
330
D07B
100
AcDbScale
 70
     0
300
3/4" = 1'-0"
140
0.75
141
12.0
290
     0
  0
SCALE
  5
D098
102
{ACAD_REACTORS
330
D07B
102
}
330
D07B
100
AcDbScale
 70
     0
300
1" = 1'-0"
140
1.0
141
12.0
290
     0
  0
SCALE
  5
D099
102
{ACAD_REACTORS
330
D07B
102
}
330
D07B
100
AcDbScale
 70
     0
300
1-1/2" = 1'-0"
140
1.5
141
12.0
290
     0
  0
SCALE
  5
D09A
102
{ACAD_REACTORS
330
D07B
102
}
330
D07B
100
AcDbScale
 70
     0
300
3" = 1'-0"
140
3.0
141
12.0
290
     0
  0
SCALE
  5
D09B
102
{ACAD_REACTORS
330
D07B
102
}
330
D07B
100
AcDbScale
 70
     0
300
6" = 1'-0"
140
6.0
141
12.0
290
     0
  0
SCALE
  5
D09C
102
{ACAD_REACTORS
330
D07B
102
}
330
D07B
100
AcDbScale
 70
     0
300
1'-0" = 1'-0"
140
12.0
141
12.0
290
     0
  0
ACDBSECTIONVIEWSTYLE
  5
108B0
102
{ACAD_XDICTIONARY
360
1090D
102
}
102
{ACAD_REACTORS
330
F288
102
}
330
F288
100
AcDbModelDocViewStyle
 70
     0
  3
Imperial24
290
     0
100
AcDbSectionViewStyle
 70
     0
 71
     0
 90
       78
 71
     1
340
F
 62
   256
 40
0.24
340
0
340
0
 62
   256
 40
0.24
300
I, O, Q, S, X, Z
 40
0.48
 90
        3
 40
0.18
 90
        1
 71
     2
340
14
 90
       25
 62
   256
340
14
 90
       50
 62
   256
 40
0.24
 40
0.0
 40
0.24
 71
     3
340
F
 62
   256
 40
0.24
 90
        1
 40
0.75
 90
        1
300
%<\AcVar ViewType \f "%tc1">% %<\AcVar ViewSectionStartId>%-%<\AcVar ViewSectionEndId>%\PSCALE %<\AcVar ViewScale \f "%sn">%
 71
     4
 62
   256
 62
   257
300
ANSI31
 40
1.0
 90
        0
290
     0
290
     0
 90
        6
 40
0.0
 40
1.570796326794896
 40
0.2617993877991494
 40
1.308996938995747
 40
-0.2617993877991494
 40
1.832595714594046
  0
ACDBSECTIONVIEWSTYLE
  5
FE4F
102
{ACAD_XDICTIONARY
360
10312
102
}
102
{ACAD_REACTORS
330
F288
102
}
330
F288
100
AcDbModelDocViewStyle
 70
     0
  3
Metric50
290
     0
100
AcDbSectionViewStyle
 70
     0
 71
     0
 90
      102
 71
     1
340
F
 62
   256
 40
5.0
340
0
340
0
 62
   256
 40
5.0
300
I, O, Q, S, X, Z
 40
10.0
 90
        0
 40
2.5
 90
        0
 71
     2
340
14
 90
       25
 62
   256
340
14
 90
       50
 62
   256
 40
5.0
 40
2.5
 40
5.0
 71
     3
340
F
 62
   256
 40
5.0
 90
        0
 40
15.0
 90
        1
300
%<\AcVar ViewSectionStartId>%-%<\AcVar ViewSectionEndId>% (%<\AcVar ViewScale \f "%sn">%)
 71
     4
 62
   256
 62
   257
300
ANSI31
 40
1.0
 90
        0
290
     0
290
     0
 90
        6
 40
0.0
 40
1.570796326794896
 40
0.2617993877991494
 40
1.308996938995747
 40
-0.2617993877991494
 40
1.832595714594046
  0
TABLESTYLE
  5
108AF
102
{ACAD_XDICTIONARY
360
108C5
102
}
102
{ACAD_REACTORS
330
108AE
102
}
330
108AE
100
AcDbTableStyle
  3
Standard
 70
     0
 71
     0
 40
0.06
 41
0.06
280
     0
281
     0
  7
STANDARD
140
0.18
170
     2
 62
     0
 63
     7
283
     0
274
    -2
284
     1
 64
     0
275
    -2
285
     1
 65
     0
276
    -2
286
     1
 66
     0
277
    -2
287
     1
 67
     0
278
    -2
288
     1
 68
     0
279
    -2
289
     1
 69
     0
  7
STANDARD
140
0.25
170
     5
 62
     0
 63
     7
283
     0
274
    -2
284
     1
 64
     0
275
    -2
285
     1
 65
     0
276
    -2
286
     1
 66
     0
277
    -2
287
     1
 67
     0
278
    -2
288
     1
 68
     0
279
    -2
289
     1
 69
     0
  7
STANDARD
140
0.18
170
     5
 62
     0
 63
     7
283
     0
274
    -2
284
     1
 64
     0
275
    -2
285
     1
 65
     0
276
    -2
286
     1
 66
     0
277
    -2
287
     1
 67
     0
278
    -2
288
     1
 68
     0
279
    -2
289
     1
 69
     0
  0
VISUALSTYLE
  5
D070
102
{ACAD_XDICTIONARY
360
108DA
102
}
102
{ACAD_REACTORS
330
D06A
102
}
330
D06A
100
AcDbVisualStyle
  2
2dWireframe
 70
     4
 71
     0
 72
     2
 73
     0
 90
        0
 40
-0.6
 41
-30.0
 62
     5
 63
     7
 74
     1
 91
        4
 64
     7
 65
   257
 75
     1
175
     1
 42
1.0
 92
        0
 66
   257
 43
1.0
 76
     1
 77
     6
 78
     2
 67
     7
 79
     5
170
     0
171
     0
290
     0
174
     0
 93
        1
 44
0.0
173
     0
291
     0
 45
0.0
1001
ACAD
1000
AcDbSavedByObjectVersion
1070
     0
  0
VISUALSTYLE
  5
D072
102
{ACAD_XDICTIONARY
360
108DE
102
}
102
{ACAD_REACTORS
330
D06A
102
}
330
D06A
100
AcDbVisualStyle
  2
3D Hidden
 70
     6
 71
     1
 72
     2
 73
     2
 90
        0
 40
-0.6
 41
-30.0
 62
     5
 63
     7
 74
     2
 91
        2
 64
     7
 65
   257
 75
     2
175
     1
 42
40.0
 92
        0
 66
   257
 43
1.0
 76
     1
 77
     6
 78
     2
 67
     7
 79
     3
170
     0
171
     0
290
     0
174
     0
 93
        1
 44
0.0
173
     0
291
     0
 45
0.0
1001
ACAD
1000
AcDbSavedByObjectVersion
1070
     0
  0
VISUALSTYLE
  5
D071
102
{ACAD_XDICTIONARY
360
108DC
102
}
102
{ACAD_REACTORS
330
D06A
102
}
330
D06A
100
AcDbVisualStyle
  2
3dWireframe
 70
     5
 71
     0
 72
     2
 73
     0
 90
        0
 40
-0.6
 41
-30.0
 62
     5
 63
     7
 74
     1
 91
        4
 64
     7
 65
   257
 75
     1
175
     1
 42
1.0
 92
        0
 66
   257
 43
1.0
 76
     1
 77
     6
 78
     2
 67
     7
 79
     5
170
     0
171
     0
290
     0
174
     0
 93
        1
 44
0.0
173
     0
291
     0
 45
0.0
1001
ACAD
1000
AcDbSavedByObjectVersion
1070
     0
  0
VISUALSTYLE
  5
D06F
102
{ACAD_XDICTIONARY
360
108D8
102
}
102
{ACAD_REACTORS
330
D06A
102
}
330
D06A
100
AcDbVisualStyle
  2
Basic
 70
     7
 71
     1
 72
     0
 73
     1
 90
        0
 40
-0.6
 41
-30.0
 62
     5
 63
     7
 74
     0
 91
        4
 64
     7
 65
   257
 75
     1
175
     1
 42
1.0
 92
        8
 66
     7
 43
1.0
 76
     1
 77
     6
 78
     2
 67
     7
 79
     5
170
     0
171
     0
290
     0
174
     0
 93
        1
 44
0.0
173
     0
291
     1
 45
0.0
1001
ACAD
1000
AcDbSavedByObjectVersion
1070
     0
  0
VISUALSTYLE
  5
D076
102
{ACAD_XDICTIONARY
360
108E6
102
}
102
{ACAD_REACTORS
330
D06A
102
}
330
D06A
100
AcDbVisualStyle
  2
Brighten
 70
    12
 71
     2
 72
     2
 73
     0
 90
        0
 40
-0.6
 41
-30.0
 62
     5
 63
     7
 74
     1
 91
        4
 64
     7
 65
   257
 75
     1
175
     1
 42
1.0
 92
        8
 66
     7
 43
1.0
 76
     1
 77
     6
 78
     2
 67
     7
 79
     5
170
     0
171
     0
290
     0
174
     0
 93
        1
 44
50.0
173
     0
291
     1
 45
0.0
1001
ACAD
1000
AcDbSavedByObjectVersion
1070
     0
  0
VISUALSTYLE
  5
D07A
102
{ACAD_XDICTIONARY
360
108EE
102
}
102
{ACAD_REACTORS
330
D06A
102
}
330
D06A
100
AcDbVisualStyle
  2
ColorChange
 70
    16
 71
     2
 72
     2
 73
     3
 90
        0
 40
-0.6
 41
-30.0
 62
     5
 63
     8
 74
     1
 91
        4
 64
     7
 65
   257
 75
     1
175
     1
 42
1.0
 92
        8
 66
     8
 43
1.0
 76
     1
 77
     6
 78
     2
 67
     7
 79
     5
170
     0
171
     0
290
     0
174
     0
 93
        1
 44
0.0
173
     0
291
     1
 45
0.0
1001
ACAD
1000
AcDbSavedByObjectVersion
1070
     0
  0
VISUALSTYLE
  5
D073
102
{ACAD_XDICTIONARY
360
108E0
102
}
102
{ACAD_REACTORS
330
D06A
102
}
330
D06A
100
AcDbVisualStyle
  2
Conceptual
 70
     9
 71
     3
 72
     2
 73
     0
 90
        0
 40
-0.6
 41
-30.0
 62
     5
 63
     7
 74
     2
 91
        2
 64
     7
 65
   257
 75
     1
175
     1
 42
40.0
 92
        8
 66
     7
 43
1.0
 76
     1
 77
     6
 78
     2
 67
     7
 79
     3
170
     0
171
     0
290
     0
174
     0
 93
        1
 44
0.0
173
     0
291
     0
 45
0.0
1001
ACAD
1000
AcDbSavedByObjectVersion
1070
     0
  0
VISUALSTYLE
  5
D075
102
{ACAD_XDICTIONARY
360
108E4
102
}
102
{ACAD_REACTORS
330
D06A
102
}
330
D06A
100
AcDbVisualStyle
  2
Dim
 70
    11
 71
     2
 72
     2
 73
     0
 90
        0
 40
-0.6
 41
-30.0
 62
     5
 63
     7
 74
     1
 91
        4
 64
     7
 65
   257
 75
     1
175
     1
 42
1.0
 92
        8
 66
     7
 43
1.0
 76
     1
 77
     6
 78
     2
 67
     7
 79
     5
170
     0
171
     0
290
     0
174
     0
 93
        1
 44
-50.0
173
     0
291
     1
 45
0.0
1001
ACAD
1000
AcDbSavedByObjectVersion
1070
     0
  0
VISUALSTYLE
  5
D29F
102
{ACAD_XDICTIONARY
360
108F4
102
}
102
{ACAD_REACTORS
330
D06A
102
}
330
D06A
100
AcDbVisualStyle
  2
EdgeColorOff
 70
    22
 71
     2
 72
     2
 73
     0
 90
        0
 40
-0.6
 41
-30.0
 62
     5
 63
     7
 74
     1
 91
        4
 64
     7
 65
   257
 75
     1
175
     1
 42
1.0
 92
        8
 66
     7
 43
1.0
 76
     1
 77
     6
 78
     2
 67
     7
 79
     5
170
     0
171
     0
290
     0
174
     0
 93
        1
 44
0.0
173
     0
291
     1
 45
0.0
1001
ACAD
1000
AcDbSavedByObjectVersion
1070
     0
  0
VISUALSTYLE
  5
D079
102
{ACAD_XDICTIONARY
360
108EC
102
}
102
{ACAD_REACTORS
330
D06A
102
}
330
D06A
100
AcDbVisualStyle
  2
Facepattern
 70
    15
 71
     2
 72
     2
 73
     0
 90
        0
 40
-0.6
 41
-30.0
 62
     5
 63
     7
 74
     1
 91
        4
 64
     7
 65
   257
 75
     1
175
     1
 42
1.0
 92
        8
 66
     7
 43
1.0
 76
     1
 77
     6
 78
     2
 67
     7
 79
     5
170
     0
171
     0
290
     0
174
     0
 93
        1
 44
0.0
173
     0
291
     1
 45
0.0
1001
ACAD
1000
AcDbSavedByObjectVersion
1070
     0
  0
VISUALSTYLE
  5
D06B
102
{ACAD_XDICTIONARY
360
108D0
102
}
102
{ACAD_REACTORS
330
D06A
102
}
330
D06A
100
AcDbVisualStyle
  2
Flat
 70
     0
 71
     2
 72
     1
 73
     1
 90
        2
 40
-0.6
 41
30.0
 62
     5
 63
     7
 74
     0
 91
        4
 64
     7
 65
   257
 75
     1
175
     1
 42
1.0
 92
        8
 66
     7
 43
1.0
 76
     1
 77
     6
 78
     2
 67
     7
 79
     5
170
     0
171
     0
290
     0
174
     0
 93
       13
 44
0.0
173
     0
291
     1
 45
0.0
1001
ACAD
1000
AcDbSavedByObjectVersion
1070
     0
  0
VISUALSTYLE
  5
D06C
102
{ACAD_XDICTIONARY
360
108D2
102
}
102
{ACAD_REACTORS
330
D06A
102
}
330
D06A
100
AcDbVisualStyle
  2
FlatWithEdges
 70
     1
 71
     2
 72
     1
 73
     1
 90
        2
 40
-0.6
 41
30.0
 62
     5
 63
     7
 74
     1
 91
        4
 64
     7
 65
   257
 75
     1
175
     1
 42
1.0
 92
        0
 66
   257
 43
1.0
 76
     1
 77
     6
 78
     2
 67
     7
 79
     5
170
     0
171
     0
290
     0
174
     0
 93
       13
 44
0.0
173
     0
291
     1
 45
0.0
1001
ACAD
1000
AcDbSavedByObjectVersion
1070
     0
  0
VISUALSTYLE
  5
D06D
102
{ACAD_XDICTIONARY
360
108D4
102
}
102
{ACAD_REACTORS
330
D06A
102
}
330
D06A
100
AcDbVisualStyle
  2
Gouraud
 70
     2
 71
     2
 72
     2
 73
     1
 90
        2
 40
-0.6
 41
30.0
 62
     5
 63
     7
 74
     0
 91
        4
 64
     7
 65
   257
 75
     1
175
     1
 42
1.0
 92
        0
 66
     7
 43
1.0
 76
     1
 77
     6
 78
     2
 67
     7
 79
     5
170
     0
171
     0
290
     0
174
     0
 93
       13
 44
0.0
173
     0
291
     1
 45
0.0
1001
ACAD
1000
AcDbSavedByObjectVersion
1070
     0
  0
VISUALSTYLE
  5
D06E
102
{ACAD_XDICTIONARY
360
108D6
102
}
102
{ACAD_REACTORS
330
D06A
102
}
330
D06A
100
AcDbVisualStyle
  2
GouraudWithEdges
 70
     3
 71
     2
 72
     2
 73
     1
 90
        2
 40
-0.6
 41
30.0
 62
     5
 63
     7
 74
     1
 91
        4
 64
     7
 65
   257
 75
     1
175
     1
 42
1.0
 92
        0
 66
   257
 43
1.0
 76
     1
 77
     6
 78
     2
 67
     7
 79
     5
170
     0
171
     0
290
     0
174
     0
 93
       13
 44
0.0
173
     0
291
     1
 45
0.0
1001
ACAD
1000
AcDbSavedByObjectVersion
1070
     0
  0
VISUALSTYLE
  5
F225
102
{ACAD_XDICTIONARY
360
108F8
102
}
102
{ACAD_REACTORS
330
D06A
102
}
330
D06A
100
AcDbVisualStyle
  2
Hidden
 70
     6
 71
     1
 72
     2
 73
     2
 90
        0
 40
-0.6
 41
-30.0
 62
     5
 63
     7
 74
     2
 91
        2
 64
     7
 65
   257
 75
     2
175
     1
 42
40.0
 92
        0
 66
   257
 43
1.0
 76
     1
 77
     6
 78
     2
 67
     7
 79
     3
170
     0
171
     0
290
     0
174
     0
 93
        1
 44
0.0
173
     0
291
     0
 45
0.0
1001
ACAD
1000
AcDbSavedByObjectVersion
1070
     0
  0
VISUALSTYLE
  5
D29D
102
{ACAD_XDICTIONARY
360
108F0
102
}
102
{ACAD_REACTORS
330
D06A
102
}
330
D06A
100
AcDbVisualStyle
  2
JitterOff
 70
    20
 71
     2
 72
     2
 73
     0
 90
        0
 40
-0.6
 41
-30.0
 62
     5
 63
     7
 74
     1
 91
        4
 64
     7
 65
   257
 75
     1
175
     1
 42
1.0
 92
       10
 66
     7
 43
1.0
 76
     1
 77
     6
 78
     2
 67
     7
 79
     5
170
     0
171
     0
290
     0
174
     0
 93
        1
 44
0.0
173
     0
291
     1
 45
0.0
1001
ACAD
1000
AcDbSavedByObjectVersion
1070
     0
  0
VISUALSTYLE
  5
D078
102
{ACAD_XDICTIONARY
360
108EA
102
}
102
{ACAD_REACTORS
330
D06A
102
}
330
D06A
100
AcDbVisualStyle
  2
Linepattern
 70
    14
 71
     2
 72
     2
 73
     0
 90
        0
 40
-0.6
 41
-30.0
 62
     5
 63
     7
 74
     1
 91
        4
 64
     7
 65
   257
 75
     7
175
     7
 42
1.0
 92
        8
 66
     7
 43
1.0
 76
     1
 77
     6
 78
     2
 67
     7
 79
     5
170
     0
171
     0
290
     0
174
     0
 93
        1
 44
0.0
173
     0
291
     1
 45
0.0
1001
ACAD
1000
AcDbSavedByObjectVersion
1070
     0
  0
VISUALSTYLE
  5
F22B
102
{ACAD_XDICTIONARY
360
10904
102
}
102
{ACAD_REACTORS
330
D06A
102
}
330
D06A
100
AcDbVisualStyle
  2
Modeling
 70
    10
 71
     2
 72
     2
 73
     0
 90
        2
 40
-0.6
 41
30.0
 62
     5
 63
     7
 74
     2
 91
        0
 64
     7
 65
   257
 75
     1
175
     1
 42
180.0
 92
        8
 66
     8
 43
1.0
 76
     1
 77
     6
 78
     2
 67
     7
 79
     5
170
     0
171
     0
290
     0
174
     0
 93
       13
 44
0.0
173
     0
291
     0
 45
0.0
1001
ACAD
1000
AcDbSavedByObjectVersion
1070
     0
  0
VISUALSTYLE
  5
D29E
102
{ACAD_XDICTIONARY
360
108F2
102
}
102
{ACAD_REACTORS
330
D06A
102
}
330
D06A
100
AcDbVisualStyle
  2
OverhangOff
 70
    21
 71
     2
 72
     2
 73
     0
 90
        0
 40
-0.6
 41
-30.0
 62
     5
 63
     7
 74
     1
 91
        4
 64
     7
 65
   257
 75
     1
175
     1
 42
1.0
 92
        9
 66
     7
 43
1.0
 76
     1
 77
     6
 78
     2
 67
     7
 79
     5
170
     0
171
     0
290
     0
174
     0
 93
        1
 44
0.0
173
     0
291
     1
 45
0.0
1001
ACAD
1000
AcDbSavedByObjectVersion
1070
     0
  0
VISUALSTYLE
  5
D074
102
{ACAD_XDICTIONARY
360
108E2
102
}
102
{ACAD_REACTORS
330
D06A
102
}
330
D06A
100
AcDbVisualStyle
  2
Realistic
 70
     8
 71
     2
 72
     2
 73
     0
 90
        0
 40
-0.6
 41
-30.0
 62
     5
 63
     7
 74
     1
 91
        0
 64
     7
 65
   257
 75
     1
175
     1
 42
1.0
 92
        8
 66
     8
 43
1.0
 76
     1
 77
     6
 78
     2
 67
     7
 79
     5
170
     0
171
     0
290
     0
174
     0
 93
       13
 44
0.0
173
     0
291
     0
 45
0.0
1001
ACAD
1000
AcDbSavedByObjectVersion
1070
     0
  0
VISUALSTYLE
  5
F22A
102
{ACAD_XDICTIONARY
360
10902
102
}
102
{ACAD_REACTORS
330
D06A
102
}
330
D06A
100
AcDbVisualStyle
  2
Shaded
 70
    27
 71
     2
 72
     2
 73
     1
 90
        2
 40
-0.6
 41
30.0
 62
     5
 63
     7
 74
     0
 91
        4
 64
     7
 65
   257
 75
     1
175
     1
 42
1.0
 92
        8
 66
   257
 43
1.0
 76
     1
 77
     6
 78
     2
 67
     8
 79
     3
170
     0
171
     0
290
     0
174
     0
 93
        5
 44
0.0
173
     0
291
     0
 45
0.0
1001
ACAD
1000
AcDbSavedByObjectVersion
1070
     0
  0
VISUALSTYLE
  5
108AD
102
{ACAD_XDICTIONARY
360
1090A
102
}
102
{ACAD_REACTORS
330
D06A
102
}
330
D06A
100
AcDbVisualStyle
  2
Shaded with edges
 70
    26
 71
     2
 72
     2
 73
     1
 90
        2
 40
-0.6
 41
30.0
 62
     5
 63
     7
421
 16777215
 74
     1
 91
        2
 64
     7
 65
   257
 75
     2
175
     1
 42
1.0
 92
        8
 66
   257
 43
1.0
 76
     1
 77
     6
 78
     2
 67
     7
 79
     3
170
     0
171
     0
290
     0
174
     0
 93
        5
 44
0.0
173
     0
291
     0
 45
0.0
1001
ACAD
1000
AcDbSavedByObjectVersion
1070
     0
  0
VISUALSTYLE
  5
F229
102
{ACAD_XDICTIONARY
360
10900
102
}
102
{ACAD_REACTORS
330
D06A
102
}
330
D06A
100
AcDbVisualStyle
  2
Shaded with edges
 70
    26
 71
     2
 72
     2
 73
     1
 90
        2
 40
-0.6
 41
30.0
 62
     5
 63
     7
 74
     1
 91
        2
 64
     7
 65
   257
 75
     2
175
     1
 42
1.0
 92
        8
 66
   257
 43
1.0
 76
     1
 77
     6
 78
     2
 67
     7
 79
     3
170
     0
171
     0
290
     0
174
     0
 93
        5
 44
0.0
173
     0
291
     0
 45
0.0
1001
ACAD
1000
AcDbSavedByObjectVersion
1070
     0
  0
VISUALSTYLE
  5
108AC
102
{ACAD_XDICTIONARY
360
10908
102
}
102
{ACAD_REACTORS
330
D06A
102
}
330
D06A
100
AcDbVisualStyle
  2
Shades of Gray
 70
    23
 71
     2
 72
     2
 73
     3
 90
        0
 40
-0.6
 41
-30.0
 62
     5
 63
     7
421
 16777215
 74
     2
 91
        2
 64
     7
 65
     7
 75
     1
175
     1
 42
40.0
 92
        8
 66
     7
 43
1.0
 76
     1
 77
     6
 78
     2
 67
     7
 79
     3
170
     0
171
     0
290
     0
174
     0
 93
        1
 44
0.0
173
     0
291
     0
 45
0.0
1001
ACAD
1000
AcDbSavedByObjectVersion
1070
     0
  0
VISUALSTYLE
  5
F226
102
{ACAD_XDICTIONARY
360
108FA
102
}
102
{ACAD_REACTORS
330
D06A
102
}
330
D06A
100
AcDbVisualStyle
  2
Shades of Gray
 70
    23
 71
     2
 72
     2
 73
     3
 90
        0
 40
-0.6
 41
-30.0
 62
     5
 63
     7
 74
     2
 91
        2
 64
     7
 65
     7
 75
     1
175
     1
 42
40.0
 92
        8
 66
     7
 43
1.0
 76
     1
 77
     6
 78
     2
 67
     7
 79
     3
170
     0
171
     0
290
     0
174
     0
 93
        1
 44
0.0
173
     0
291
     0
 45
0.0
1001
ACAD
1000
AcDbSavedByObjectVersion
1070
     0
  0
VISUALSTYLE
  5
F227
102
{ACAD_XDICTIONARY
360
108FC
102
}
102
{ACAD_REACTORS
330
D06A
102
}
330
D06A
100
AcDbVisualStyle
  2
Sketchy
 70
    24
 71
     1
 72
     2
 73
     2
 90
        0
 40
-0.6
 41
-30.0
 62
     5
 63
     7
 74
     2
 91
        2
 64
     7
 65
     7
 75
     1
175
     1
 42
40.0
 92
       11
 66
     7
 43
1.0
 76
     1
 77
     6
 78
     2
 67
     7
 79
     6
170
     0
171
     0
290
     0
174
     0
 93
        1
 44
0.0
173
     0
291
     0
 45
0.0
1001
ACAD
1000
AcDbSavedByObjectVersion
1070
     0
  0
VISUALSTYLE
  5
D077
102
{ACAD_XDICTIONARY
360
108E8
102
}
102
{ACAD_REACTORS
330
D06A
102
}
330
D06A
100
AcDbVisualStyle
  2
Thicken
 70
    13
 71
     2
 72
     2
 73
     0
 90
        0
 40
-0.6
 41
-30.0
 62
     5
 63
     7
 74
     1
 91
        4
 64
     7
 65
   257
 75
     1
175
     1
 42
1.0
 92
       12
 66
     7
 43
1.0
 76
     1
 77
     6
 78
     2
 67
     7
 79
     5
170
     0
171
     0
290
     0
174
     0
 93
        1
 44
0.0
173
     0
291
     1
 45
0.0
1001
ACAD
1000
AcDbSavedByObjectVersion
1070
     0
  0
VISUALSTYLE
  5
F224
102
{ACAD_XDICTIONARY
360
108F6
102
}
102
{ACAD_REACTORS
330
D06A
102
}
330
D06A
100
AcDbVisualStyle
  2
Wireframe
 70
     5
 71
     0
 72
     2
 73
     0
 90
        0
 40
-0.6
 41
-30.0
 62
     5
 63
     7
 74
     1
 91
        4
 64
     7
 65
   257
 75
     1
175
     1
 42
1.0
 92
        0
 66
   257
 43
1.0
 76
     1
 77
     6
 78
     2
 67
     7
 79
     3
170
     0
171
     0
290
     0
174
     0
 93
        1
 44
0.0
173
     0
291
     0
 45
0.0
1001
ACAD
1000
AcDbSavedByObjectVersion
1070
     0
  0
VISUALSTYLE
  5
F228
102
{ACAD_XDICTIONARY
360
108FE
102
}
102
{ACAD_REACTORS
330
D06A
102
}
330
D06A
100
AcDbVisualStyle
  2
X-Ray
 70
    25
 71
     2
 72
     2
 73
     1
 90
        1
 40
0.5
 41
-30.0
 62
     5
 63
     7
 74
     1
 91
        0
 64
     7
 65
   257
 75
     1
175
     1
 42
1.0
 92
        8
 66
     7
 43
1.0
 76
     1
 77
     6
 78
     2
 67
     7
 79
     3
170
     0
171
     0
290
     0
174
     0
 93
       13
 44
0.0
173
     0
291
     0
 45
0.0
1001
ACAD
1000
AcDbSavedByObjectVersion
1070
     0
  0
DICTIONARYVAR
  5
F285
102
{ACAD_REACTORS
330
37
102
}
330
37
100
DictionaryVariables
280
     0
  1
1:1
  0
DICTIONARYVAR
  5
D117
102
{ACAD_REACTORS
330
37
102
}
330
37
100
DictionaryVariables
280
     0
  1
STANDARD
  0
DICTIONARYVAR
  5
29E
102
{ACAD_REACTORS
330
37
102
}
330
37
100
DictionaryVariables
280
     0
  1
STANDARD
  0
DICTIONARYVAR
  5
1031A
102
{ACAD_REACTORS
330
37
102
}
330
37
100
DictionaryVariables
280
     0
  1
METRIC50
  0
DICTIONARYVAR
  5
1031B
102
{ACAD_REACTORS
330
37
102
}
330
37
100
DictionaryVariables
280
     0
  1
METRIC50
  0
DICTIONARYVAR
  5
38
102
{ACAD_REACTORS
330
37
102
}
330
37
100
DictionaryVariables
280
     0
  1
-1
  0
DICTIONARYVAR
  5
1CE
102
{ACAD_REACTORS
330
37
102
}
330
37
100
DictionaryVariables
280
     0
  1
2
  0
DICTIONARYVAR
  5
704E
102
{ACAD_REACTORS
330
37
102
}
330
37
100
DictionaryVariables
280
     0
  1
1
  0
DICTIONARYVAR
  5
D11A
102
{ACAD_REACTORS
330
37
102
}
330
37
100
DictionaryVariables
280
     0
  1
0
  0
DICTIONARYVAR
  5
7052
102
{ACAD_REACTORS
330
37
102
}
330
37
100
DictionaryVariables
280
     0
  1
8
  0
DICTIONARYVAR
  5
7051
102
{ACAD_REACTORS
330
37
102
}
330
37
100
DictionaryVariables
280
     0
  1
1
  0
DICTIONARYVAR
  5
F286
102
{ACAD_REACTORS
330
37
102
}
330
37
100
DictionaryVariables
280
     0
  1
0
  0
DICTIONARYVAR
  5
704F
102
{ACAD_REACTORS
330
37
102
}
330
37
100
DictionaryVariables
280
     0
  1
8
  0
DICTIONARYVAR
  5
7050
102
{ACAD_REACTORS
330
37
102
}
330
37
100
DictionaryVariables
280
     0
  1
2
  0
DICTIONARYVAR
  5
1CF
102
{ACAD_REACTORS
330
37
102
}
330
37
100
DictionaryVariables
280
     0
  1

  0
DICTIONARYVAR
  5
D119
102
{ACAD_REACTORS
330
37
102
}
330
37
100
DictionaryVariables
280
     0
  1
127
  0
DICTIONARYVAR
  5
108C4
102
{ACAD_REACTORS
330
37
102
}
330
37
100
DictionaryVariables
280
     0
  1
2
  0
DICTIONARY
  5
108CF
102
{ACAD_REACTORS
330
108CD
102
}
330
108CD
100
AcDbDictionary
281
     1
  0
DICTIONARY
  5
108CE
102
{ACAD_REACTORS
330
108CD
102
}
330
108CD
100
AcDbDictionary
281
     1
  3
1227492480
350
108C8
  3
1227492496
350
108C9
  3
1227492512
350
108CA
  3
1227492528
350
108CB
  3
1227492544
350
108CC
  0
DICTIONARY
  5
1090F
330
108B1
100
AcDbDictionary
280
     1
281
     1
  3
ACAD_XREC_ROUNDTRIP
360
10910
  0
DICTIONARY
  5
10314
330
FE50
100
AcDbDictionary
281
     1
  3
ACAD_XREC_ROUNDTRIP
350
10907
  0
DICTIONARY
  5
1089E
330
D05A
100
AcDbDictionary
281
     1
  3
ACAD_XREC_ROUNDTRIP
350
1089F
  0
DICTIONARY
  5
108A0
330
D052
100
AcDbDictionary
281
     1
  3
ACAD_XREC_ROUNDTRIP
350
108A1
  0
DICTIONARY
  5
108A2
330
D062
100
AcDbDictionary
281
     1
  3
ACAD_XREC_ROUNDTRIP
350
108A3
  0
DICTIONARY
  5
1090D
330
108B0
100
AcDbDictionary
280
     1
281
     1
  3
ACAD_XREC_ROUNDTRIP
360
1090E
  0
DICTIONARY
  5
10312
330
FE4F
100
AcDbDictionary
281
     1
  3
ACAD_XREC_ROUNDTRIP
350
10906
  0
DICTIONARY
  5
108C5
330
108AF
100
AcDbDictionary
280
     1
281
     1
  3
ACAD_ROUNDTRIP_2008_TABLESTYLE_CELLSTYLEMAP
360
108C6
  3
ACAD_XREC_ROUNDTRIP
360
1090C
  0
DICTIONARY
  5
108DA
330
D070
100
AcDbDictionary
280
     1
281
     1
  3
ACAD_XREC_ROUNDTRIP
360
108DB
  0
DICTIONARY
  5
108DE
330
D072
100
AcDbDictionary
280
     1
281
     1
  3
ACAD_XREC_ROUNDTRIP
360
108DF
  0
DICTIONARY
  5
108DC
330
D071
100
AcDbDictionary
280
     1
281
     1
  3
ACAD_XREC_ROUNDTRIP
360
108DD
  0
DICTIONARY
  5
108D8
330
D06F
100
AcDbDictionary
280
     1
281
     1
  3
ACAD_XREC_ROUNDTRIP
360
108D9
  0
DICTIONARY
  5
108E6
330
D076
100
AcDbDictionary
280
     1
281
     1
  3
ACAD_XREC_ROUNDTRIP
360
108E7
  0
DICTIONARY
  5
108EE
330
D07A
100
AcDbDictionary
280
     1
281
     1
  3
ACAD_XREC_ROUNDTRIP
360
108EF
  0
DICTIONARY
  5
108E0
330
D073
100
AcDbDictionary
280
     1
281
     1
  3
ACAD_XREC_ROUNDTRIP
360
108E1
  0
DICTIONARY
  5
108E4
330
D075
100
AcDbDictionary
280
     1
281
     1
  3
ACAD_XREC_ROUNDTRIP
360
108E5
  0
DICTIONARY
  5
108F4
330
D29F
100
AcDbDictionary
280
     1
281
     1
  3
ACAD_XREC_ROUNDTRIP
360
108F5
  0
DICTIONARY
  5
108EC
330
D079
100
AcDbDictionary
280
     1
281
     1
  3
ACAD_XREC_ROUNDTRIP
360
108ED
  0
DICTIONARY
  5
108D0
330
D06B
100
AcDbDictionary
280
     1
281
     1
  3
ACAD_XREC_ROUNDTRIP
360
108D1
  0
DICTIONARY
  5
108D2
330
D06C
100
AcDbDictionary
280
     1
281
     1
  3
ACAD_XREC_ROUNDTRIP
360
108D3
  0
DICTIONARY
  5
108D4
330
D06D
100
AcDbDictionary
280
     1
281
     1
  3
ACAD_XREC_ROUNDTRIP
360
108D5
  0
DICTIONARY
  5
108D6
330
D06E
100
AcDbDictionary
280
     1
281
     1
  3
ACAD_XREC_ROUNDTRIP
360
108D7
  0
DICTIONARY
  5
108F8
330
F225
100
AcDbDictionary
280
     1
281
     1
  3
ACAD_XREC_ROUNDTRIP
360
108F9
  0
DICTIONARY
  5
108F0
330
D29D
100
AcDbDictionary
280
     1
281
     1
  3
ACAD_XREC_ROUNDTRIP
360
108F1
  0
DICTIONARY
  5
108EA
330
D078
100
AcDbDictionary
280
     1
281
     1
  3
ACAD_XREC_ROUNDTRIP
360
108EB
  0
DICTIONARY
  5
10904
330
F22B
100
AcDbDictionary
280
     1
281
     1
  3
ACAD_XREC_ROUNDTRIP
360
10905
  0
DICTIONARY
  5
108F2
330
D29E
100
AcDbDictionary
280
     1
281
     1
  3
ACAD_XREC_ROUNDTRIP
360
108F3
  0
DICTIONARY
  5
108E2
330
D074
100
AcDbDictionary
280
     1
281
     1
  3
ACAD_XREC_ROUNDTRIP
360
108E3
  0
DICTIONARY
  5
10902
330
F22A
100
AcDbDictionary
280
     1
281
     1
  3
ACAD_XREC_ROUNDTRIP
360
10903
  0
DICTIONARY
  5
1090A
330
108AD
100
AcDbDictionary
280
     1
281
     1
  3
ACAD_XREC_ROUNDTRIP
360
1090B
  0
DICTIONARY
  5
10900
330
F229
100
AcDbDictionary
280
     1
281
     1
  3
ACAD_XREC_ROUNDTRIP
360
10901
  0
DICTIONARY
  5
10908
330
108AC
100
AcDbDictionary
280
     1
281
     1
  3
ACAD_XREC_ROUNDTRIP
360
10909
  0
DICTIONARY
  5
108FA
330
F226
100
AcDbDictionary
280
     1
281
     1
  3
ACAD_XREC_ROUNDTRIP
360
108FB
  0
DICTIONARY
  5
108FC
330
F227
100
AcDbDictionary
280
     1
281
     1
  3
ACAD_XREC_ROUNDTRIP
360
108FD
  0
DICTIONARY
  5
108E8
330
D077
100
AcDbDictionary
280
     1
281
     1
  3
ACAD_XREC_ROUNDTRIP
360
108E9
  0
DICTIONARY
  5
108F6
330
F224
100
AcDbDictionary
280
     1
281
     1
  3
ACAD_XREC_ROUNDTRIP
360
108F7
  0
DICTIONARY
  5
108FE
330
F228
100
AcDbDictionary
280
     1
281
     1
  3
ACAD_XREC_ROUNDTRIP
360
108FF
  0
XRECORD
  5
108C8
102
{ACAD_REACTORS
330
108CE
102
}
330
108CE
100
AcDbXrecord
280
     1
  1
AcDb_Thumbnail_Schema
102
{ATTRRECORD
341
108C9
  2
AcDbDs::TreatedAsObjectData
280
     1
291
     1
102
ATTRRECORD}
102
{ATTRRECORD
341
108CA
  2
AcDbDs::Legacy
280
     1
291
     1
102
ATTRRECORD}
  2
AcDbDs::ID
280
    10
 91
        8
102
{ATTRRECORD
341
108CB
  2
AcDs:Indexable
280
     1
291
     1
102
ATTRRECORD}
102
{ATTRRECORD
341
108CC
  2
AcDbDs::HandleAttribute
280
     7
282
     1
102
ATTRRECORD}
  2
Thumbnail_Data
280
    15
 91
        0
  0
XRECORD
  5
108C9
102
{ACAD_REACTORS
330
108CE
102
}
330
108CE
100
AcDbXrecord
280
     1
  1
AcDbDs::TreatedAsObjectDataSchema
  2
AcDbDs::TreatedAsObjectData
280
     1
 91
        0
  0
XRECORD
  5
108CA
102
{ACAD_REACTORS
330
108CE
102
}
330
108CE
100
AcDbXrecord
280
     1
  1
AcDbDs::LegacySchema
  2
AcDbDs::Legacy
280
     1
 91
        0
  0
XRECORD
  5
108CB
102
{ACAD_REACTORS
330
108CE
102
}
330
108CE
100
AcDbXrecord
280
     1
  1
AcDbDs::IndexedPropertySchema
  2
AcDs:Indexable
280
     1
 91
        0
  0
XRECORD
  5
108CC
102
{ACAD_REACTORS
330
108CE
102
}
330
108CE
100
AcDbXrecord
280
     1
  1
AcDbDs::HandleAttributeSchema
  2
AcDbDs::HandleAttribute
280
     7
 91
        1
284
     1
  0
XRECORD
  5
10910
102
{ACAD_REACTORS
330
1090F
102
}
330
1090F
100
AcDbXrecord
280
     1
102
DISPLAYNAME
  1
Imperial24
102
FLAGS
 90
        0
  0
XRECORD
  5
10907
102
{ACAD_REACTORS
330
10314
102
}
330
10314
100
AcDbXrecord
280
     1
102
DISPLAYNAME
  1
METRIC50
102
FLAGS
 90
        0
  0
XRECORD
  5
1089F
102
{ACAD_REACTORS
330
1089E
102
}
330
1089E
100
AcDbXrecord
280
     1
102
MATERIAL
148
0.0
149
0.0
149
0.0
 93
        0
 94
      127
282
     0
 72
     0
 77
     0
171
     0
175
     0
179
     0
273
     0
  0
XRECORD
  5
108A1
102
{ACAD_REACTORS
330
108A0
102
}
330
108A0
100
AcDbXrecord
280
     1
102
MATERIAL
148
0.0
149
0.0
149
0.0
 93
        0
 94
      127
282
     0
 72
     0
 77
     0
171
     0
175
     0
179
     0
273
     0
  0
XRECORD
  5
108A3
102
{ACAD_REACTORS
330
108A2
102
}
330
108A2
100
AcDbXrecord
280
     1
102
MATERIAL
148
0.0
149
0.0
149
0.0
 93
        0
 94
      127
282
     0
 72
     0
 77
     0
171
     0
175
     0
179
     0
273
     0
  0
XRECORD
  5
1090E
102
{ACAD_REACTORS
330
1090D
102
}
330
1090D
100
AcDbXrecord
280
     1
102
DISPLAYNAME
  1
Imperial24
102
FLAGS
 90
        0
  0
XRECORD
  5
10906
102
{ACAD_REACTORS
330
10312
102
}
330
10312
100
AcDbXrecord
280
     1
102
DISPLAYNAME
  1
METRIC50
102
FLAGS
 90
        0
  0
CELLSTYLEMAP
  5
108C6
102
{ACAD_REACTORS
330
108C5
102
}
330
108C5
100
AcDbCellStyleMap
 90
        3
300
CELLSTYLE
  1
TABLEFORMAT_BEGIN
 90
        5
170
     1
 91
        0
 92
    32768
 62
   257
 93
        1
300
CONTENTFORMAT
  1
CONTENTFORMAT_BEGIN
 90
        0
 91
        0
 92
      512
 93
        0
300

 40
0.0
140
1.0
 94
        5
 62
     0
340
F
144
0.25
309
CONTENTFORMAT_END
171
     0
 94
        0
309
TABLEFORMAT_END
  1
CELLSTYLE_BEGIN
 90
        1
 91
        1
300
_TITLE
309
CELLSTYLE_END
300
CELLSTYLE
  1
TABLEFORMAT_BEGIN
 90
        5
170
     1
 91
        0
 92
        0
 62
   257
 93
        1
300
CONTENTFORMAT
  1
CONTENTFORMAT_BEGIN
 90
        0
 91
        0
 92
      512
 93
        0
300

 40
0.0
140
1.0
 94
        5
 62
     0
340
F
144
0.18
309
CONTENTFORMAT_END
171
     0
 94
        0
309
TABLEFORMAT_END
  1
CELLSTYLE_BEGIN
 90
        2
 91
        1
300
_HEADER
309
CELLSTYLE_END
300
CELLSTYLE
  1
TABLEFORMAT_BEGIN
 90
        5
170
     1
 91
        0
 92
        0
 62
   257
 93
        1
300
CONTENTFORMAT
  1
CONTENTFORMAT_BEGIN
 90
        0
 91
        0
 92
      512
 93
        0
300

 40
0.0
140
1.0
 94
        2
 62
     0
340
F
144
0.18
309
CONTENTFORMAT_END
171
     0
 94
        0
309
TABLEFORMAT_END
  1
CELLSTYLE_BEGIN
 90
        3
 91
        2
300
_DATA
309
CELLSTYLE_END
  0
XRECORD
  5
1090C
102
{ACAD_REACTORS
330
108C5
102
}
330
108C5
100
AcDbXrecord
280
     1
102
ACAD_ROUNDTRIP_PRE2007_TABLESTYLE
 90
      512
 91
        0
  1

 92
      512
 93
        0
  2

 94
      512
 95
        0
  3

  0
XRECORD
  5
108DB
102
{ACAD_REACTORS
330
108DA
102
}
330
108DA
100
AcDbXrecord
280
     1
102
RTVSPost2010Prop28
280
     1
102
RTVSPost2010PropOp28
 70
     1
102
RTVSPost2010Prop29
280
     1
102
RTVSPost2010PropOp29
 70
     1
102
RTVSPost2010Prop30
280
     0
102
RTVSPost2010PropOp30
 70
     1
102
RTVSPost2010Prop31
280
     0
102
RTVSPost2010PropOp31
 70
     1
102
RTVSPost2010Prop32
280
     0
102
RTVSPost2010PropOp32
 70
     1
102
RTVSPost2010Prop33
280
     0
102
RTVSPost2010PropOp33
 70
     1
102
RTVSPost2010Prop34
280
     0
102
RTVSPost2010PropOp34
 70
     1
102
RTVSPost2010Prop35
280
     0
102
RTVSPost2010PropOp35
 70
     1
102
RTVSPost2010Prop36
280
     0
102
RTVSPost2010PropOp36
 70
     1
102
RTVSPost2010Prop37
 90
       50
102
RTVSPost2010PropOp37
 70
     1
102
RTVSPost2010Prop38
140
0.0
102
RTVSPost2010PropOp38
 70
     1
102
RTVSPost2010Prop39
140
1.0
102
RTVSPost2010PropOp39
 70
     1
102
RTVSPost2010Prop40
 90
        0
102
RTVSPost2010PropOp40
 70
     1
102
RTVSPost2010Prop41ColorIndex
 90
       18
102
RTVSPost2010Prop41ColorRGB
 90
        0
102
RTVSPost2010PropOp41
 70
     1
102
RTVSPost2010Prop42
 90
       50
102
RTVSPost2010PropOp42
 70
     1
102
RTVSPost2010Prop43
 90
        3
102
RTVSPost2010PropOp43
 70
     1
102
RTVSPost2010Prop44ColorIndex
 90
        5
102
RTVSPost2010Prop44ColorRGB
 90
      255
102
RTVSPost2010PropOp44
 70
     1
102
RTVSPost2010Prop45
280
     0
102
RTVSPost2010PropOp45
 70
     1
102
RTVSPost2010Prop46
 90
       50
102
RTVSPost2010PropOp46
 70
     1
102
RTVSPost2010Prop47
 90
       50
102
RTVSPost2010PropOp47
 70
     1
102
RTVSPost2010Prop48
 90
       50
102
RTVSPost2010PropOp48
 70
     1
102
RTVSPost2010Prop49
280
     0
102
RTVSPost2010PropOp49
 70
     1
102
RTVSPost2010Prop50
 90
       50
102
RTVSPost2010PropOp50
 70
     1
102
RTVSPost2010Prop51ColorIndex
 90
      256
102
RTVSPost2010Prop51ColorRGB
 90
-16777216
102
RTVSPost2010PropOp51
 70
     0
102
RTVSPost2010Prop52
140
1.0
102
RTVSPost2010PropOp52
 70
     0
102
RTVSPost2010Prop53
 90
        2
102
RTVSPost2010PropOp53
 70
     1
102
RTVSPost2010Prop54
  1
strokes_ogs.tif
102
RTVSPost2010PropOp54
 70
     1
102
RTVSPost2010Prop55
280
     0
102
RTVSPost2010PropOp55
 70
     1
102
RTVSPost2010Prop56
140
1.0
102
RTVSPost2010PropOp56
 70
     1
102
RTVSPost2010Prop57
140
1.0
102
RTVSPost2010PropOp57
 70
     1
102
RTVSPropertyOp0
 70
     1
102
RTVSPropertyOp1
 70
     1
102
RTVSPropertyOp2
 70
     1
102
RTVSPropertyOp3
 70
     1
102
RTVSPropertyOp4
 70
     1
102
RTVSPropertyOp5
 70
     1
102
RTVSPropertyOp6
 70
     1
102
RTVSPropertyOp7
 70
     1
102
RTVSPropertyOp8
 70
     1
102
RTVSPropertyOp9
 70
     1
102
RTVSPropertyOp10
 70
     1
102
RTVSPropertyOp11
 70
     1
102
RTVSPropertyOp12
 70
     1
102
RTVSPropertyOp13
 70
     1
102
RTVSPropertyOp14
 70
     1
102
RTVSPropertyOp15
 70
     1
102
RTVSPropertyOp16
 70
     1
102
RTVSPropertyOp17
 70
     1
102
RTVSPropertyOp18
 70
     1
102
RTVSPropertyOp19
 70
     1
102
RTVSPropertyOp20
 70
     1
102
RTVSPropertyOp21
 70
     1
102
RTVSPropertyOp22
 70
     1
102
RTVSPropertyOp23
 70
     1
102
RTVSPropertyOp24
 70
     1
102
RTVSPropertyOp25
 70
     1
102
RTVSPropertyOp26
 70
     1
102
RTVSPropertyOp27
 70
     1
102
RTVSPropertyOp28
 70
     1
102
RTVSPropertyOp29
 70
     1
102
RTVSPropertyOp30
 70
     1
102
RTVSPropertyOp31
 70
     1
102
RTVSPropertyOp32
 70
     1
102
RTVSPropertyOp33
 70
     1
102
RTVSPropertyOp34
 70
     1
102
RTVSPropertyOp35
 70
     1
102
RTVSPropertyOp36
 70
     1
102
RTVSPropertyOp37
 70
     1
102
RTVSPropertyOp38
 70
     1
102
RTVSPropertyOp39
 70
     1
102
RTVSPropertyOp40
 70
     1
102
RTVSPropertyOp41
 70
     1
102
RTVSPropertyOp42
 70
     1
102
RTVSPropertyOp43
 70
     1
102
RTVSPropertyOp44
 70
     1
102
RTVSPropertyOp45
 70
     1
102
RTVSPropertyOp46
 70
     1
102
RTVSPropertyOp47
 70
     1
102
RTVSPropertyOp48
 70
     1
102
RTVSPropertyOp49
 70
     1
102
RTVSPropertyOp50
 70
     1
102
RTVSPropertyOp51
 70
     0
102
RTVSPropertyOp52
 70
     0
102
RTVSPropertyOp53
 70
     1
102
RTVSPropertyOp54
 70
     1
102
RTVSPropertyOp55
 70
     1
102
RTVSPropertyOp56
 70
     1
102
RTVSPropertyOp57
 70
     1
102
RTVSPropertyOp58
 70
     1
102
RTVSPropertyOp59
 70
     1
102
RTVSPropertyOp60
 70
     1
102
RTVSPropertyOp61
 70
     1
102
RTVSPropertyOp62
 70
     1
  0
XRECORD
  5
108DF
102
{ACAD_REACTORS
330
108DE
102
}
330
108DE
100
AcDbXrecord
280
     1
102
RTVSPost2010Prop28
280
     0
102
RTVSPost2010PropOp28
 70
     1
102
RTVSPost2010Prop29
280
     1
102
RTVSPost2010PropOp29
 70
     1
102
RTVSPost2010Prop30
280
     1
102
RTVSPost2010PropOp30
 70
     1
102
RTVSPost2010Prop31
280
     0
102
RTVSPost2010PropOp31
 70
     1
102
RTVSPost2010Prop32
280
     0
102
RTVSPost2010PropOp32
 70
     1
102
RTVSPost2010Prop33
280
     0
102
RTVSPost2010PropOp33
 70
     1
102
RTVSPost2010Prop34
280
     0
102
RTVSPost2010PropOp34
 70
     1
102
RTVSPost2010Prop35
280
     0
102
RTVSPost2010PropOp35
 70
     1
102
RTVSPost2010Prop36
280
     0
102
RTVSPost2010PropOp36
 70
     1
102
RTVSPost2010Prop37
 90
       50
102
RTVSPost2010PropOp37
 70
     1
102
RTVSPost2010Prop38
140
0.0
102
RTVSPost2010PropOp38
 70
     1
102
RTVSPost2010Prop39
140
1.0
102
RTVSPost2010PropOp39
 70
     1
102
RTVSPost2010Prop40
 90
        0
102
RTVSPost2010PropOp40
 70
     1
102
RTVSPost2010Prop41ColorIndex
 90
       18
102
RTVSPost2010Prop41ColorRGB
 90
        0
102
RTVSPost2010PropOp41
 70
     1
102
RTVSPost2010Prop42
 90
       50
102
RTVSPost2010PropOp42
 70
     1
102
RTVSPost2010Prop43
 90
        3
102
RTVSPost2010PropOp43
 70
     1
102
RTVSPost2010Prop44ColorIndex
 90
        5
102
RTVSPost2010Prop44ColorRGB
 90
      255
102
RTVSPost2010PropOp44
 70
     1
102
RTVSPost2010Prop45
280
     0
102
RTVSPost2010PropOp45
 70
     1
102
RTVSPost2010Prop46
 90
       50
102
RTVSPost2010PropOp46
 70
     1
102
RTVSPost2010Prop47
 90
       50
102
RTVSPost2010PropOp47
 70
     1
102
RTVSPost2010Prop48
 90
       50
102
RTVSPost2010PropOp48
 70
     1
102
RTVSPost2010Prop49
280
     0
102
RTVSPost2010PropOp49
 70
     1
102
RTVSPost2010Prop50
 90
       50
102
RTVSPost2010PropOp50
 70
     1
102
RTVSPost2010Prop51ColorIndex
 90
      256
102
RTVSPost2010Prop51ColorRGB
 90
-16777216
102
RTVSPost2010PropOp51
 70
     0
102
RTVSPost2010Prop52
140
1.0
102
RTVSPost2010PropOp52
 70
     0
102
RTVSPost2010Prop53
 90
        2
102
RTVSPost2010PropOp53
 70
     1
102
RTVSPost2010Prop54
  1
strokes_ogs.tif
102
RTVSPost2010PropOp54
 70
     1
102
RTVSPost2010Prop55
280
     0
102
RTVSPost2010PropOp55
 70
     1
102
RTVSPost2010Prop56
140
1.0
102
RTVSPost2010PropOp56
 70
     1
102
RTVSPost2010Prop57
140
1.0
102
RTVSPost2010PropOp57
 70
     1
102
RTVSPropertyOp0
 70
     1
102
RTVSPropertyOp1
 70
     1
102
RTVSPropertyOp2
 70
     1
102
RTVSPropertyOp3
 70
     1
102
RTVSPropertyOp4
 70
     1
102
RTVSPropertyOp5
 70
     1
102
RTVSPropertyOp6
 70
     1
102
RTVSPropertyOp7
 70
     1
102
RTVSPropertyOp8
 70
     1
102
RTVSPropertyOp9
 70
     1
102
RTVSPropertyOp10
 70
     1
102
RTVSPropertyOp11
 70
     1
102
RTVSPropertyOp12
 70
     1
102
RTVSPropertyOp13
 70
     1
102
RTVSPropertyOp14
 70
     1
102
RTVSPropertyOp15
 70
     1
102
RTVSPropertyOp16
 70
     1
102
RTVSPropertyOp17
 70
     1
102
RTVSPropertyOp18
 70
     1
102
RTVSPropertyOp19
 70
     1
102
RTVSPropertyOp20
 70
     1
102
RTVSPropertyOp21
 70
     1
102
RTVSPropertyOp22
 70
     1
102
RTVSPropertyOp23
 70
     1
102
RTVSPropertyOp24
 70
     1
102
RTVSPropertyOp25
 70
     1
102
RTVSPropertyOp26
 70
     1
102
RTVSPropertyOp27
 70
     1
102
RTVSPropertyOp28
 70
     1
102
RTVSPropertyOp29
 70
     1
102
RTVSPropertyOp30
 70
     1
102
RTVSPropertyOp31
 70
     1
102
RTVSPropertyOp32
 70
     1
102
RTVSPropertyOp33
 70
     1
102
RTVSPropertyOp34
 70
     1
102
RTVSPropertyOp35
 70
     1
102
RTVSPropertyOp36
 70
     1
102
RTVSPropertyOp37
 70
     1
102
RTVSPropertyOp38
 70
     1
102
RTVSPropertyOp39
 70
     1
102
RTVSPropertyOp40
 70
     1
102
RTVSPropertyOp41
 70
     1
102
RTVSPropertyOp42
 70
     1
102
RTVSPropertyOp43
 70
     1
102
RTVSPropertyOp44
 70
     1
102
RTVSPropertyOp45
 70
     1
102
RTVSPropertyOp46
 70
     1
102
RTVSPropertyOp47
 70
     1
102
RTVSPropertyOp48
 70
     1
102
RTVSPropertyOp49
 70
     1
102
RTVSPropertyOp50
 70
     1
102
RTVSPropertyOp51
 70
     0
102
RTVSPropertyOp52
 70
     0
102
RTVSPropertyOp53
 70
     1
102
RTVSPropertyOp54
 70
     1
102
RTVSPropertyOp55
 70
     1
102
RTVSPropertyOp56
 70
     1
102
RTVSPropertyOp57
 70
     1
102
RTVSPropertyOp58
 70
     1
102
RTVSPropertyOp59
 70
     1
102
RTVSPropertyOp60
 70
     1
102
RTVSPropertyOp61
 70
     1
102
RTVSPropertyOp62
 70
     1
  0
XRECORD
  5
108DD
102
{ACAD_REACTORS
330
108DC
102
}
330
108DC
100
AcDbXrecord
280
     1
102
RTVSPost2010Prop28
280
     0
102
RTVSPost2010PropOp28
 70
     1
102
RTVSPost2010Prop29
280
     1
102
RTVSPost2010PropOp29
 70
     1
102
RTVSPost2010Prop30
280
     1
102
RTVSPost2010PropOp30
 70
     1
102
RTVSPost2010Prop31
280
     0
102
RTVSPost2010PropOp31
 70
     1
102
RTVSPost2010Prop32
280
     0
102
RTVSPost2010PropOp32
 70
     1
102
RTVSPost2010Prop33
280
     0
102
RTVSPost2010PropOp33
 70
     1
102
RTVSPost2010Prop34
280
     0
102
RTVSPost2010PropOp34
 70
     1
102
RTVSPost2010Prop35
280
     0
102
RTVSPost2010PropOp35
 70
     1
102
RTVSPost2010Prop36
280
     0
102
RTVSPost2010PropOp36
 70
     1
102
RTVSPost2010Prop37
 90
       50
102
RTVSPost2010PropOp37
 70
     1
102
RTVSPost2010Prop38
140
0.0
102
RTVSPost2010PropOp38
 70
     1
102
RTVSPost2010Prop39
140
1.0
102
RTVSPost2010PropOp39
 70
     1
102
RTVSPost2010Prop40
 90
        0
102
RTVSPost2010PropOp40
 70
     1
102
RTVSPost2010Prop41ColorIndex
 90
       18
102
RTVSPost2010Prop41ColorRGB
 90
        0
102
RTVSPost2010PropOp41
 70
     1
102
RTVSPost2010Prop42
 90
       50
102
RTVSPost2010PropOp42
 70
     1
102
RTVSPost2010Prop43
 90
        3
102
RTVSPost2010PropOp43
 70
     1
102
RTVSPost2010Prop44ColorIndex
 90
        5
102
RTVSPost2010Prop44ColorRGB
 90
      255
102
RTVSPost2010PropOp44
 70
     1
102
RTVSPost2010Prop45
280
     0
102
RTVSPost2010PropOp45
 70
     1
102
RTVSPost2010Prop46
 90
       50
102
RTVSPost2010PropOp46
 70
     1
102
RTVSPost2010Prop47
 90
       50
102
RTVSPost2010PropOp47
 70
     1
102
RTVSPost2010Prop48
 90
       50
102
RTVSPost2010PropOp48
 70
     1
102
RTVSPost2010Prop49
280
     0
102
RTVSPost2010PropOp49
 70
     1
102
RTVSPost2010Prop50
 90
       50
102
RTVSPost2010PropOp50
 70
     1
102
RTVSPost2010Prop51ColorIndex
 90
      256
102
RTVSPost2010Prop51ColorRGB
 90
-16777216
102
RTVSPost2010PropOp51
 70
     0
102
RTVSPost2010Prop52
140
1.0
102
RTVSPost2010PropOp52
 70
     0
102
RTVSPost2010Prop53
 90
        2
102
RTVSPost2010PropOp53
 70
     1
102
RTVSPost2010Prop54
  1
strokes_ogs.tif
102
RTVSPost2010PropOp54
 70
     1
102
RTVSPost2010Prop55
280
     0
102
RTVSPost2010PropOp55
 70
     1
102
RTVSPost2010Prop56
140
1.0
102
RTVSPost2010PropOp56
 70
     1
102
RTVSPost2010Prop57
140
1.0
102
RTVSPost2010PropOp57
 70
     1
102
RTVSPropertyOp0
 70
     1
102
RTVSPropertyOp1
 70
     1
102
RTVSPropertyOp2
 70
     1
102
RTVSPropertyOp3
 70
     1
102
RTVSPropertyOp4
 70
     1
102
RTVSPropertyOp5
 70
     1
102
RTVSPropertyOp6
 70
     1
102
RTVSPropertyOp7
 70
     1
102
RTVSPropertyOp8
 70
     1
102
RTVSPropertyOp9
 70
     1
102
RTVSPropertyOp10
 70
     1
102
RTVSPropertyOp11
 70
     1
102
RTVSPropertyOp12
 70
     1
102
RTVSPropertyOp13
 70
     1
102
RTVSPropertyOp14
 70
     1
102
RTVSPropertyOp15
 70
     1
102
RTVSPropertyOp16
 70
     1
102
RTVSPropertyOp17
 70
     1
102
RTVSPropertyOp18
 70
     1
102
RTVSPropertyOp19
 70
     1
102
RTVSPropertyOp20
 70
     1
102
RTVSPropertyOp21
 70
     1
102
RTVSPropertyOp22
 70
     1
102
RTVSPropertyOp23
 70
     1
102
RTVSPropertyOp24
 70
     1
102
RTVSPropertyOp25
 70
     1
102
RTVSPropertyOp26
 70
     1
102
RTVSPropertyOp27
 70
     1
102
RTVSPropertyOp28
 70
     1
102
RTVSPropertyOp29
 70
     1
102
RTVSPropertyOp30
 70
     1
102
RTVSPropertyOp31
 70
     1
102
RTVSPropertyOp32
 70
     1
102
RTVSPropertyOp33
 70
     1
102
RTVSPropertyOp34
 70
     1
102
RTVSPropertyOp35
 70
     1
102
RTVSPropertyOp36
 70
     1
102
RTVSPropertyOp37
 70
     1
102
RTVSPropertyOp38
 70
     1
102
RTVSPropertyOp39
 70
     1
102
RTVSPropertyOp40
 70
     1
102
RTVSPropertyOp41
 70
     1
102
RTVSPropertyOp42
 70
     1
102
RTVSPropertyOp43
 70
     1
102
RTVSPropertyOp44
 70
     1
102
RTVSPropertyOp45
 70
     1
102
RTVSPropertyOp46
 70
     1
102
RTVSPropertyOp47
 70
     1
102
RTVSPropertyOp48
 70
     1
102
RTVSPropertyOp49
 70
     1
102
RTVSPropertyOp50
 70
     1
102
RTVSPropertyOp51
 70
     0
102
RTVSPropertyOp52
 70
     0
102
RTVSPropertyOp53
 70
     1
102
RTVSPropertyOp54
 70
     1
102
RTVSPropertyOp55
 70
     1
102
RTVSPropertyOp56
 70
     1
102
RTVSPropertyOp57
 70
     1
102
RTVSPropertyOp58
 70
     1
102
RTVSPropertyOp59
 70
     1
102
RTVSPropertyOp60
 70
     1
102
RTVSPropertyOp61
 70
     1
102
RTVSPropertyOp62
 70
     1
  0
XRECORD
  5
108D9
102
{ACAD_REACTORS
330
108D8
102
}
330
108D8
100
AcDbXrecord
280
     1
102
RTVSPost2010Prop28
280
     0
102
RTVSPost2010PropOp28
 70
     1
102
RTVSPost2010Prop29
280
     1
102
RTVSPost2010PropOp29
 70
     1
102
RTVSPost2010Prop30
280
     1
102
RTVSPost2010PropOp30
 70
     1
102
RTVSPost2010Prop31
280
     0
102
RTVSPost2010PropOp31
 70
     1
102
RTVSPost2010Prop32
280
     0
102
RTVSPost2010PropOp32
 70
     1
102
RTVSPost2010Prop33
280
     0
102
RTVSPost2010PropOp33
 70
     1
102
RTVSPost2010Prop34
280
     0
102
RTVSPost2010PropOp34
 70
     1
102
RTVSPost2010Prop35
280
     0
102
RTVSPost2010PropOp35
 70
     1
102
RTVSPost2010Prop36
280
     0
102
RTVSPost2010PropOp36
 70
     1
102
RTVSPost2010Prop37
 90
       50
102
RTVSPost2010PropOp37
 70
     1
102
RTVSPost2010Prop38
140
0.0
102
RTVSPost2010PropOp38
 70
     1
102
RTVSPost2010Prop39
140
1.0
102
RTVSPost2010PropOp39
 70
     1
102
RTVSPost2010Prop40
 90
        0
102
RTVSPost2010PropOp40
 70
     1
102
RTVSPost2010Prop41ColorIndex
 90
       18
102
RTVSPost2010Prop41ColorRGB
 90
        0
102
RTVSPost2010PropOp41
 70
     1
102
RTVSPost2010Prop42
 90
       50
102
RTVSPost2010PropOp42
 70
     1
102
RTVSPost2010Prop43
 90
        3
102
RTVSPost2010PropOp43
 70
     1
102
RTVSPost2010Prop44ColorIndex
 90
        5
102
RTVSPost2010Prop44ColorRGB
 90
      255
102
RTVSPost2010PropOp44
 70
     1
102
RTVSPost2010Prop45
280
     0
102
RTVSPost2010PropOp45
 70
     1
102
RTVSPost2010Prop46
 90
       50
102
RTVSPost2010PropOp46
 70
     1
102
RTVSPost2010Prop47
 90
       50
102
RTVSPost2010PropOp47
 70
     1
102
RTVSPost2010Prop48
 90
       50
102
RTVSPost2010PropOp48
 70
     1
102
RTVSPost2010Prop49
280
     0
102
RTVSPost2010PropOp49
 70
     1
102
RTVSPost2010Prop50
 90
       50
102
RTVSPost2010PropOp50
 70
     1
102
RTVSPost2010Prop51ColorIndex
 90
      256
102
RTVSPost2010Prop51ColorRGB
 90
-16777216
102
RTVSPost2010PropOp51
 70
     0
102
RTVSPost2010Prop52
140
1.0
102
RTVSPost2010PropOp52
 70
     0
102
RTVSPost2010Prop53
 90
        2
102
RTVSPost2010PropOp53
 70
     1
102
RTVSPost2010Prop54
  1
strokes_ogs.tif
102
RTVSPost2010PropOp54
 70
     1
102
RTVSPost2010Prop55
280
     0
102
RTVSPost2010PropOp55
 70
     1
102
RTVSPost2010Prop56
140
1.0
102
RTVSPost2010PropOp56
 70
     1
102
RTVSPost2010Prop57
140
1.0
102
RTVSPost2010PropOp57
 70
     1
102
RTVSPropertyOp0
 70
     1
102
RTVSPropertyOp1
 70
     1
102
RTVSPropertyOp2
 70
     1
102
RTVSPropertyOp3
 70
     1
102
RTVSPropertyOp4
 70
     1
102
RTVSPropertyOp5
 70
     1
102
RTVSPropertyOp6
 70
     1
102
RTVSPropertyOp7
 70
     1
102
RTVSPropertyOp8
 70
     1
102
RTVSPropertyOp9
 70
     1
102
RTVSPropertyOp10
 70
     1
102
RTVSPropertyOp11
 70
     1
102
RTVSPropertyOp12
 70
     1
102
RTVSPropertyOp13
 70
     1
102
RTVSPropertyOp14
 70
     1
102
RTVSPropertyOp15
 70
     1
102
RTVSPropertyOp16
 70
     1
102
RTVSPropertyOp17
 70
     1
102
RTVSPropertyOp18
 70
     1
102
RTVSPropertyOp19
 70
     1
102
RTVSPropertyOp20
 70
     1
102
RTVSPropertyOp21
 70
     1
102
RTVSPropertyOp22
 70
     1
102
RTVSPropertyOp23
 70
     1
102
RTVSPropertyOp24
 70
     1
102
RTVSPropertyOp25
 70
     1
102
RTVSPropertyOp26
 70
     1
102
RTVSPropertyOp27
 70
     1
102
RTVSPropertyOp28
 70
     1
102
RTVSPropertyOp29
 70
     1
102
RTVSPropertyOp30
 70
     1
102
RTVSPropertyOp31
 70
     1
102
RTVSPropertyOp32
 70
     1
102
RTVSPropertyOp33
 70
     1
102
RTVSPropertyOp34
 70
     1
102
RTVSPropertyOp35
 70
     1
102
RTVSPropertyOp36
 70
     1
102
RTVSPropertyOp37
 70
     1
102
RTVSPropertyOp38
 70
     1
102
RTVSPropertyOp39
 70
     1
102
RTVSPropertyOp40
 70
     1
102
RTVSPropertyOp41
 70
     1
102
RTVSPropertyOp42
 70
     1
102
RTVSPropertyOp43
 70
     1
102
RTVSPropertyOp44
 70
     1
102
RTVSPropertyOp45
 70
     1
102
RTVSPropertyOp46
 70
     1
102
RTVSPropertyOp47
 70
     1
102
RTVSPropertyOp48
 70
     1
102
RTVSPropertyOp49
 70
     1
102
RTVSPropertyOp50
 70
     1
102
RTVSPropertyOp51
 70
     0
102
RTVSPropertyOp52
 70
     0
102
RTVSPropertyOp53
 70
     1
102
RTVSPropertyOp54
 70
     1
102
RTVSPropertyOp55
 70
     1
102
RTVSPropertyOp56
 70
     1
102
RTVSPropertyOp57
 70
     1
102
RTVSPropertyOp58
 70
     1
102
RTVSPropertyOp59
 70
     1
102
RTVSPropertyOp60
 70
     1
102
RTVSPropertyOp61
 70
     1
102
RTVSPropertyOp62
 70
     1
  0
XRECORD
  5
108E7
102
{ACAD_REACTORS
330
108E6
102
}
330
108E6
100
AcDbXrecord
280
     1
102
RTVSPost2010Prop28
280
     0
102
RTVSPost2010PropOp28
 70
     1
102
RTVSPost2010Prop29
280
     1
102
RTVSPost2010PropOp29
 70
     1
102
RTVSPost2010Prop30
280
     1
102
RTVSPost2010PropOp30
 70
     1
102
RTVSPost2010Prop31
280
     0
102
RTVSPost2010PropOp31
 70
     1
102
RTVSPost2010Prop32
280
     0
102
RTVSPost2010PropOp32
 70
     1
102
RTVSPost2010Prop33
280
     0
102
RTVSPost2010PropOp33
 70
     1
102
RTVSPost2010Prop34
280
     0
102
RTVSPost2010PropOp34
 70
     1
102
RTVSPost2010Prop35
280
     0
102
RTVSPost2010PropOp35
 70
     1
102
RTVSPost2010Prop36
280
     0
102
RTVSPost2010PropOp36
 70
     1
102
RTVSPost2010Prop37
 90
       50
102
RTVSPost2010PropOp37
 70
     1
102
RTVSPost2010Prop38
140
0.0
102
RTVSPost2010PropOp38
 70
     1
102
RTVSPost2010Prop39
140
1.0
102
RTVSPost2010PropOp39
 70
     1
102
RTVSPost2010Prop40
 90
        0
102
RTVSPost2010PropOp40
 70
     1
102
RTVSPost2010Prop41ColorIndex
 90
       18
102
RTVSPost2010Prop41ColorRGB
 90
        0
102
RTVSPost2010PropOp41
 70
     1
102
RTVSPost2010Prop42
 90
       50
102
RTVSPost2010PropOp42
 70
     1
102
RTVSPost2010Prop43
 90
        3
102
RTVSPost2010PropOp43
 70
     1
102
RTVSPost2010Prop44ColorIndex
 90
        5
102
RTVSPost2010Prop44ColorRGB
 90
      255
102
RTVSPost2010PropOp44
 70
     1
102
RTVSPost2010Prop45
280
     0
102
RTVSPost2010PropOp45
 70
     1
102
RTVSPost2010Prop46
 90
       50
102
RTVSPost2010PropOp46
 70
     1
102
RTVSPost2010Prop47
 90
       50
102
RTVSPost2010PropOp47
 70
     1
102
RTVSPost2010Prop48
 90
       50
102
RTVSPost2010PropOp48
 70
     1
102
RTVSPost2010Prop49
280
     0
102
RTVSPost2010PropOp49
 70
     1
102
RTVSPost2010Prop50
 90
       50
102
RTVSPost2010PropOp50
 70
     1
102
RTVSPost2010Prop51ColorIndex
 90
      256
102
RTVSPost2010Prop51ColorRGB
 90
-16777216
102
RTVSPost2010PropOp51
 70
     0
102
RTVSPost2010Prop52
140
1.0
102
RTVSPost2010PropOp52
 70
     0
102
RTVSPost2010Prop53
 90
        2
102
RTVSPost2010PropOp53
 70
     1
102
RTVSPost2010Prop54
  1
strokes_ogs.tif
102
RTVSPost2010PropOp54
 70
     1
102
RTVSPost2010Prop55
280
     0
102
RTVSPost2010PropOp55
 70
     1
102
RTVSPost2010Prop56
140
1.0
102
RTVSPost2010PropOp56
 70
     1
102
RTVSPost2010Prop57
140
1.0
102
RTVSPost2010PropOp57
 70
     1
102
RTVSPropertyOp0
 70
     1
102
RTVSPropertyOp1
 70
     1
102
RTVSPropertyOp2
 70
     1
102
RTVSPropertyOp3
 70
     1
102
RTVSPropertyOp4
 70
     1
102
RTVSPropertyOp5
 70
     1
102
RTVSPropertyOp6
 70
     1
102
RTVSPropertyOp7
 70
     1
102
RTVSPropertyOp8
 70
     1
102
RTVSPropertyOp9
 70
     1
102
RTVSPropertyOp10
 70
     1
102
RTVSPropertyOp11
 70
     1
102
RTVSPropertyOp12
 70
     1
102
RTVSPropertyOp13
 70
     1
102
RTVSPropertyOp14
 70
     1
102
RTVSPropertyOp15
 70
     1
102
RTVSPropertyOp16
 70
     1
102
RTVSPropertyOp17
 70
     1
102
RTVSPropertyOp18
 70
     1
102
RTVSPropertyOp19
 70
     1
102
RTVSPropertyOp20
 70
     1
102
RTVSPropertyOp21
 70
     1
102
RTVSPropertyOp22
 70
     1
102
RTVSPropertyOp23
 70
     1
102
RTVSPropertyOp24
 70
     1
102
RTVSPropertyOp25
 70
     1
102
RTVSPropertyOp26
 70
     1
102
RTVSPropertyOp27
 70
     1
102
RTVSPropertyOp28
 70
     1
102
RTVSPropertyOp29
 70
     1
102
RTVSPropertyOp30
 70
     1
102
RTVSPropertyOp31
 70
     1
102
RTVSPropertyOp32
 70
     1
102
RTVSPropertyOp33
 70
     1
102
RTVSPropertyOp34
 70
     1
102
RTVSPropertyOp35
 70
     1
102
RTVSPropertyOp36
 70
     1
102
RTVSPropertyOp37
 70
     1
102
RTVSPropertyOp38
 70
     1
102
RTVSPropertyOp39
 70
     1
102
RTVSPropertyOp40
 70
     1
102
RTVSPropertyOp41
 70
     1
102
RTVSPropertyOp42
 70
     1
102
RTVSPropertyOp43
 70
     1
102
RTVSPropertyOp44
 70
     1
102
RTVSPropertyOp45
 70
     1
102
RTVSPropertyOp46
 70
     1
102
RTVSPropertyOp47
 70
     1
102
RTVSPropertyOp48
 70
     1
102
RTVSPropertyOp49
 70
     1
102
RTVSPropertyOp50
 70
     1
102
RTVSPropertyOp51
 70
     0
102
RTVSPropertyOp52
 70
     0
102
RTVSPropertyOp53
 70
     1
102
RTVSPropertyOp54
 70
     1
102
RTVSPropertyOp55
 70
     1
102
RTVSPropertyOp56
 70
     1
102
RTVSPropertyOp57
 70
     1
102
RTVSPropertyOp58
 70
     1
102
RTVSPropertyOp59
 70
     1
102
RTVSPropertyOp60
 70
     1
102
RTVSPropertyOp61
 70
     1
102
RTVSPropertyOp62
 70
     1
  0
XRECORD
  5
108EF
102
{ACAD_REACTORS
330
108EE
102
}
330
108EE
100
AcDbXrecord
280
     1
102
RTVSPost2010Prop28
280
     0
102
RTVSPost2010PropOp28
 70
     1
102
RTVSPost2010Prop29
280
     1
102
RTVSPost2010PropOp29
 70
     1
102
RTVSPost2010Prop30
280
     1
102
RTVSPost2010PropOp30
 70
     1
102
RTVSPost2010Prop31
280
     0
102
RTVSPost2010PropOp31
 70
     1
102
RTVSPost2010Prop32
280
     0
102
RTVSPost2010PropOp32
 70
     1
102
RTVSPost2010Prop33
280
     0
102
RTVSPost2010PropOp33
 70
     1
102
RTVSPost2010Prop34
280
     0
102
RTVSPost2010PropOp34
 70
     1
102
RTVSPost2010Prop35
280
     0
102
RTVSPost2010PropOp35
 70
     1
102
RTVSPost2010Prop36
280
     0
102
RTVSPost2010PropOp36
 70
     1
102
RTVSPost2010Prop37
 90
       50
102
RTVSPost2010PropOp37
 70
     1
102
RTVSPost2010Prop38
140
0.0
102
RTVSPost2010PropOp38
 70
     1
102
RTVSPost2010Prop39
140
1.0
102
RTVSPost2010PropOp39
 70
     1
102
RTVSPost2010Prop40
 90
        0
102
RTVSPost2010PropOp40
 70
     1
102
RTVSPost2010Prop41ColorIndex
 90
       18
102
RTVSPost2010Prop41ColorRGB
 90
        0
102
RTVSPost2010PropOp41
 70
     1
102
RTVSPost2010Prop42
 90
       50
102
RTVSPost2010PropOp42
 70
     1
102
RTVSPost2010Prop43
 90
        3
102
RTVSPost2010PropOp43
 70
     1
102
RTVSPost2010Prop44ColorIndex
 90
        5
102
RTVSPost2010Prop44ColorRGB
 90
      255
102
RTVSPost2010PropOp44
 70
     1
102
RTVSPost2010Prop45
280
     0
102
RTVSPost2010PropOp45
 70
     1
102
RTVSPost2010Prop46
 90
       50
102
RTVSPost2010PropOp46
 70
     1
102
RTVSPost2010Prop47
 90
       50
102
RTVSPost2010PropOp47
 70
     1
102
RTVSPost2010Prop48
 90
       50
102
RTVSPost2010PropOp48
 70
     1
102
RTVSPost2010Prop49
280
     0
102
RTVSPost2010PropOp49
 70
     1
102
RTVSPost2010Prop50
 90
       50
102
RTVSPost2010PropOp50
 70
     1
102
RTVSPost2010Prop51ColorIndex
 90
      256
102
RTVSPost2010Prop51ColorRGB
 90
-16777216
102
RTVSPost2010PropOp51
 70
     0
102
RTVSPost2010Prop52
140
1.0
102
RTVSPost2010PropOp52
 70
     0
102
RTVSPost2010Prop53
 90
        2
102
RTVSPost2010PropOp53
 70
     1
102
RTVSPost2010Prop54
  1
strokes_ogs.tif
102
RTVSPost2010PropOp54
 70
     1
102
RTVSPost2010Prop55
280
     0
102
RTVSPost2010PropOp55
 70
     1
102
RTVSPost2010Prop56
140
1.0
102
RTVSPost2010PropOp56
 70
     1
102
RTVSPost2010Prop57
140
1.0
102
RTVSPost2010PropOp57
 70
     1
102
RTVSPropertyOp0
 70
     1
102
RTVSPropertyOp1
 70
     1
102
RTVSPropertyOp2
 70
     1
102
RTVSPropertyOp3
 70
     1
102
RTVSPropertyOp4
 70
     1
102
RTVSPropertyOp5
 70
     1
102
RTVSPropertyOp6
 70
     1
102
RTVSPropertyOp7
 70
     1
102
RTVSPropertyOp8
 70
     1
102
RTVSPropertyOp9
 70
     1
102
RTVSPropertyOp10
 70
     1
102
RTVSPropertyOp11
 70
     1
102
RTVSPropertyOp12
 70
     1
102
RTVSPropertyOp13
 70
     1
102
RTVSPropertyOp14
 70
     1
102
RTVSPropertyOp15
 70
     1
102
RTVSPropertyOp16
 70
     1
102
RTVSPropertyOp17
 70
     1
102
RTVSPropertyOp18
 70
     1
102
RTVSPropertyOp19
 70
     1
102
RTVSPropertyOp20
 70
     1
102
RTVSPropertyOp21
 70
     1
102
RTVSPropertyOp22
 70
     1
102
RTVSPropertyOp23
 70
     1
102
RTVSPropertyOp24
 70
     1
102
RTVSPropertyOp25
 70
     1
102
RTVSPropertyOp26
 70
     1
102
RTVSPropertyOp27
 70
     1
102
RTVSPropertyOp28
 70
     1
102
RTVSPropertyOp29
 70
     1
102
RTVSPropertyOp30
 70
     1
102
RTVSPropertyOp31
 70
     1
102
RTVSPropertyOp32
 70
     1
102
RTVSPropertyOp33
 70
     1
102
RTVSPropertyOp34
 70
     1
102
RTVSPropertyOp35
 70
     1
102
RTVSPropertyOp36
 70
     1
102
RTVSPropertyOp37
 70
     1
102
RTVSPropertyOp38
 70
     1
102
RTVSPropertyOp39
 70
     1
102
RTVSPropertyOp40
 70
     1
102
RTVSPropertyOp41
 70
     1
102
RTVSPropertyOp42
 70
     1
102
RTVSPropertyOp43
 70
     1
102
RTVSPropertyOp44
 70
     1
102
RTVSPropertyOp45
 70
     1
102
RTVSPropertyOp46
 70
     1
102
RTVSPropertyOp47
 70
     1
102
RTVSPropertyOp48
 70
     1
102
RTVSPropertyOp49
 70
     1
102
RTVSPropertyOp50
 70
     1
102
RTVSPropertyOp51
 70
     0
102
RTVSPropertyOp52
 70
     0
102
RTVSPropertyOp53
 70
     1
102
RTVSPropertyOp54
 70
     1
102
RTVSPropertyOp55
 70
     1
102
RTVSPropertyOp56
 70
     1
102
RTVSPropertyOp57
 70
     1
102
RTVSPropertyOp58
 70
     1
102
RTVSPropertyOp59
 70
     1
102
RTVSPropertyOp60
 70
     1
102
RTVSPropertyOp61
 70
     1
102
RTVSPropertyOp62
 70
     1
  0
XRECORD
  5
108E1
102
{ACAD_REACTORS
330
108E0
102
}
330
108E0
100
AcDbXrecord
280
     1
102
RTVSPost2010Prop28
280
     0
102
RTVSPost2010PropOp28
 70
     1
102
RTVSPost2010Prop29
280
     1
102
RTVSPost2010PropOp29
 70
     1
102
RTVSPost2010Prop30
280
     1
102
RTVSPost2010PropOp30
 70
     1
102
RTVSPost2010Prop31
280
     0
102
RTVSPost2010PropOp31
 70
     1
102
RTVSPost2010Prop32
280
     0
102
RTVSPost2010PropOp32
 70
     1
102
RTVSPost2010Prop33
280
     0
102
RTVSPost2010PropOp33
 70
     1
102
RTVSPost2010Prop34
280
     0
102
RTVSPost2010PropOp34
 70
     1
102
RTVSPost2010Prop35
280
     0
102
RTVSPost2010PropOp35
 70
     1
102
RTVSPost2010Prop36
280
     0
102
RTVSPost2010PropOp36
 70
     1
102
RTVSPost2010Prop37
 90
       50
102
RTVSPost2010PropOp37
 70
     1
102
RTVSPost2010Prop38
140
0.0
102
RTVSPost2010PropOp38
 70
     1
102
RTVSPost2010Prop39
140
1.0
102
RTVSPost2010PropOp39
 70
     1
102
RTVSPost2010Prop40
 90
        0
102
RTVSPost2010PropOp40
 70
     1
102
RTVSPost2010Prop41ColorIndex
 90
       18
102
RTVSPost2010Prop41ColorRGB
 90
        0
102
RTVSPost2010PropOp41
 70
     1
102
RTVSPost2010Prop42
 90
       50
102
RTVSPost2010PropOp42
 70
     1
102
RTVSPost2010Prop43
 90
        3
102
RTVSPost2010PropOp43
 70
     1
102
RTVSPost2010Prop44ColorIndex
 90
        5
102
RTVSPost2010Prop44ColorRGB
 90
      255
102
RTVSPost2010PropOp44
 70
     1
102
RTVSPost2010Prop45
280
     0
102
RTVSPost2010PropOp45
 70
     1
102
RTVSPost2010Prop46
 90
       50
102
RTVSPost2010PropOp46
 70
     1
102
RTVSPost2010Prop47
 90
       50
102
RTVSPost2010PropOp47
 70
     1
102
RTVSPost2010Prop48
 90
       50
102
RTVSPost2010PropOp48
 70
     1
102
RTVSPost2010Prop49
280
     0
102
RTVSPost2010PropOp49
 70
     1
102
RTVSPost2010Prop50
 90
       50
102
RTVSPost2010PropOp50
 70
     1
102
RTVSPost2010Prop51ColorIndex
 90
      256
102
RTVSPost2010Prop51ColorRGB
 90
-16777216
102
RTVSPost2010PropOp51
 70
     0
102
RTVSPost2010Prop52
140
1.0
102
RTVSPost2010PropOp52
 70
     0
102
RTVSPost2010Prop53
 90
        2
102
RTVSPost2010PropOp53
 70
     1
102
RTVSPost2010Prop54
  1
strokes_ogs.tif
102
RTVSPost2010PropOp54
 70
     1
102
RTVSPost2010Prop55
280
     0
102
RTVSPost2010PropOp55
 70
     1
102
RTVSPost2010Prop56
140
1.0
102
RTVSPost2010PropOp56
 70
     1
102
RTVSPost2010Prop57
140
1.0
102
RTVSPost2010PropOp57
 70
     1
102
RTVSPropertyOp0
 70
     1
102
RTVSPropertyOp1
 70
     1
102
RTVSPropertyOp2
 70
     1
102
RTVSPropertyOp3
 70
     1
102
RTVSPropertyOp4
 70
     1
102
RTVSPropertyOp5
 70
     1
102
RTVSPropertyOp6
 70
     1
102
RTVSPropertyOp7
 70
     1
102
RTVSPropertyOp8
 70
     1
102
RTVSPropertyOp9
 70
     1
102
RTVSPropertyOp10
 70
     1
102
RTVSPropertyOp11
 70
     1
102
RTVSPropertyOp12
 70
     1
102
RTVSPropertyOp13
 70
     1
102
RTVSPropertyOp14
 70
     1
102
RTVSPropertyOp15
 70
     1
102
RTVSPropertyOp16
 70
     1
102
RTVSPropertyOp17
 70
     1
102
RTVSPropertyOp18
 70
     1
102
RTVSPropertyOp19
 70
     1
102
RTVSPropertyOp20
 70
     1
102
RTVSPropertyOp21
 70
     1
102
RTVSPropertyOp22
 70
     1
102
RTVSPropertyOp23
 70
     1
102
RTVSPropertyOp24
 70
     1
102
RTVSPropertyOp25
 70
     1
102
RTVSPropertyOp26
 70
     1
102
RTVSPropertyOp27
 70
     1
102
RTVSPropertyOp28
 70
     1
102
RTVSPropertyOp29
 70
     1
102
RTVSPropertyOp30
 70
     1
102
RTVSPropertyOp31
 70
     1
102
RTVSPropertyOp32
 70
     1
102
RTVSPropertyOp33
 70
     1
102
RTVSPropertyOp34
 70
     1
102
RTVSPropertyOp35
 70
     1
102
RTVSPropertyOp36
 70
     1
102
RTVSPropertyOp37
 70
     1
102
RTVSPropertyOp38
 70
     1
102
RTVSPropertyOp39
 70
     1
102
RTVSPropertyOp40
 70
     1
102
RTVSPropertyOp41
 70
     1
102
RTVSPropertyOp42
 70
     1
102
RTVSPropertyOp43
 70
     1
102
RTVSPropertyOp44
 70
     1
102
RTVSPropertyOp45
 70
     1
102
RTVSPropertyOp46
 70
     1
102
RTVSPropertyOp47
 70
     1
102
RTVSPropertyOp48
 70
     1
102
RTVSPropertyOp49
 70
     1
102
RTVSPropertyOp50
 70
     1
102
RTVSPropertyOp51
 70
     0
102
RTVSPropertyOp52
 70
     0
102
RTVSPropertyOp53
 70
     1
102
RTVSPropertyOp54
 70
     1
102
RTVSPropertyOp55
 70
     1
102
RTVSPropertyOp56
 70
     1
102
RTVSPropertyOp57
 70
     1
102
RTVSPropertyOp58
 70
     1
102
RTVSPropertyOp59
 70
     1
102
RTVSPropertyOp60
 70
     1
102
RTVSPropertyOp61
 70
     1
102
RTVSPropertyOp62
 70
     1
  0
XRECORD
  5
108E5
102
{ACAD_REACTORS
330
108E4
102
}
330
108E4
100
AcDbXrecord
280
     1
102
RTVSPost2010Prop28
280
     0
102
RTVSPost2010PropOp28
 70
     1
102
RTVSPost2010Prop29
280
     1
102
RTVSPost2010PropOp29
 70
     1
102
RTVSPost2010Prop30
280
     1
102
RTVSPost2010PropOp30
 70
     1
102
RTVSPost2010Prop31
280
     0
102
RTVSPost2010PropOp31
 70
     1
102
RTVSPost2010Prop32
280
     0
102
RTVSPost2010PropOp32
 70
     1
102
RTVSPost2010Prop33
280
     0
102
RTVSPost2010PropOp33
 70
     1
102
RTVSPost2010Prop34
280
     0
102
RTVSPost2010PropOp34
 70
     1
102
RTVSPost2010Prop35
280
     0
102
RTVSPost2010PropOp35
 70
     1
102
RTVSPost2010Prop36
280
     0
102
RTVSPost2010PropOp36
 70
     1
102
RTVSPost2010Prop37
 90
       50
102
RTVSPost2010PropOp37
 70
     1
102
RTVSPost2010Prop38
140
0.0
102
RTVSPost2010PropOp38
 70
     1
102
RTVSPost2010Prop39
140
1.0
102
RTVSPost2010PropOp39
 70
     1
102
RTVSPost2010Prop40
 90
        0
102
RTVSPost2010PropOp40
 70
     1
102
RTVSPost2010Prop41ColorIndex
 90
       18
102
RTVSPost2010Prop41ColorRGB
 90
        0
102
RTVSPost2010PropOp41
 70
     1
102
RTVSPost2010Prop42
 90
       50
102
RTVSPost2010PropOp42
 70
     1
102
RTVSPost2010Prop43
 90
        3
102
RTVSPost2010PropOp43
 70
     1
102
RTVSPost2010Prop44ColorIndex
 90
        5
102
RTVSPost2010Prop44ColorRGB
 90
      255
102
RTVSPost2010PropOp44
 70
     1
102
RTVSPost2010Prop45
280
     0
102
RTVSPost2010PropOp45
 70
     1
102
RTVSPost2010Prop46
 90
       50
102
RTVSPost2010PropOp46
 70
     1
102
RTVSPost2010Prop47
 90
       50
102
RTVSPost2010PropOp47
 70
     1
102
RTVSPost2010Prop48
 90
       50
102
RTVSPost2010PropOp48
 70
     1
102
RTVSPost2010Prop49
280
     0
102
RTVSPost2010PropOp49
 70
     1
102
RTVSPost2010Prop50
 90
       50
102
RTVSPost2010PropOp50
 70
     1
102
RTVSPost2010Prop51ColorIndex
 90
      256
102
RTVSPost2010Prop51ColorRGB
 90
-16777216
102
RTVSPost2010PropOp51
 70
     0
102
RTVSPost2010Prop52
140
1.0
102
RTVSPost2010PropOp52
 70
     0
102
RTVSPost2010Prop53
 90
        2
102
RTVSPost2010PropOp53
 70
     1
102
RTVSPost2010Prop54
  1
strokes_ogs.tif
102
RTVSPost2010PropOp54
 70
     1
102
RTVSPost2010Prop55
280
     0
102
RTVSPost2010PropOp55
 70
     1
102
RTVSPost2010Prop56
140
1.0
102
RTVSPost2010PropOp56
 70
     1
102
RTVSPost2010Prop57
140
1.0
102
RTVSPost2010PropOp57
 70
     1
102
RTVSPropertyOp0
 70
     1
102
RTVSPropertyOp1
 70
     1
102
RTVSPropertyOp2
 70
     1
102
RTVSPropertyOp3
 70
     1
102
RTVSPropertyOp4
 70
     1
102
RTVSPropertyOp5
 70
     1
102
RTVSPropertyOp6
 70
     1
102
RTVSPropertyOp7
 70
     1
102
RTVSPropertyOp8
 70
     1
102
RTVSPropertyOp9
 70
     1
102
RTVSPropertyOp10
 70
     1
102
RTVSPropertyOp11
 70
     1
102
RTVSPropertyOp12
 70
     1
102
RTVSPropertyOp13
 70
     1
102
RTVSPropertyOp14
 70
     1
102
RTVSPropertyOp15
 70
     1
102
RTVSPropertyOp16
 70
     1
102
RTVSPropertyOp17
 70
     1
102
RTVSPropertyOp18
 70
     1
102
RTVSPropertyOp19
 70
     1
102
RTVSPropertyOp20
 70
     1
102
RTVSPropertyOp21
 70
     1
102
RTVSPropertyOp22
 70
     1
102
RTVSPropertyOp23
 70
     1
102
RTVSPropertyOp24
 70
     1
102
RTVSPropertyOp25
 70
     1
102
RTVSPropertyOp26
 70
     1
102
RTVSPropertyOp27
 70
     1
102
RTVSPropertyOp28
 70
     1
102
RTVSPropertyOp29
 70
     1
102
RTVSPropertyOp30
 70
     1
102
RTVSPropertyOp31
 70
     1
102
RTVSPropertyOp32
 70
     1
102
RTVSPropertyOp33
 70
     1
102
RTVSPropertyOp34
 70
     1
102
RTVSPropertyOp35
 70
     1
102
RTVSPropertyOp36
 70
     1
102
RTVSPropertyOp37
 70
     1
102
RTVSPropertyOp38
 70
     1
102
RTVSPropertyOp39
 70
     1
102
RTVSPropertyOp40
 70
     1
102
RTVSPropertyOp41
 70
     1
102
RTVSPropertyOp42
 70
     1
102
RTVSPropertyOp43
 70
     1
102
RTVSPropertyOp44
 70
     1
102
RTVSPropertyOp45
 70
     1
102
RTVSPropertyOp46
 70
     1
102
RTVSPropertyOp47
 70
     1
102
RTVSPropertyOp48
 70
     1
102
RTVSPropertyOp49
 70
     1
102
RTVSPropertyOp50
 70
     1
102
RTVSPropertyOp51
 70
     0
102
RTVSPropertyOp52
 70
     0
102
RTVSPropertyOp53
 70
     1
102
RTVSPropertyOp54
 70
     1
102
RTVSPropertyOp55
 70
     1
102
RTVSPropertyOp56
 70
     1
102
RTVSPropertyOp57
 70
     1
102
RTVSPropertyOp58
 70
     1
102
RTVSPropertyOp59
 70
     1
102
RTVSPropertyOp60
 70
     1
102
RTVSPropertyOp61
 70
     1
102
RTVSPropertyOp62
 70
     1
  0
XRECORD
  5
108F5
102
{ACAD_REACTORS
330
108F4
102
}
330
108F4
100
AcDbXrecord
280
     1
102
RTVSPost2010Prop28
280
     0
102
RTVSPost2010PropOp28
 70
     1
102
RTVSPost2010Prop29
280
     1
102
RTVSPost2010PropOp29
 70
     1
102
RTVSPost2010Prop30
280
     1
102
RTVSPost2010PropOp30
 70
     1
102
RTVSPost2010Prop31
280
     0
102
RTVSPost2010PropOp31
 70
     1
102
RTVSPost2010Prop32
280
     0
102
RTVSPost2010PropOp32
 70
     1
102
RTVSPost2010Prop33
280
     0
102
RTVSPost2010PropOp33
 70
     1
102
RTVSPost2010Prop34
280
     0
102
RTVSPost2010PropOp34
 70
     1
102
RTVSPost2010Prop35
280
     0
102
RTVSPost2010PropOp35
 70
     1
102
RTVSPost2010Prop36
280
     0
102
RTVSPost2010PropOp36
 70
     1
102
RTVSPost2010Prop37
 90
       50
102
RTVSPost2010PropOp37
 70
     1
102
RTVSPost2010Prop38
140
0.0
102
RTVSPost2010PropOp38
 70
     1
102
RTVSPost2010Prop39
140
1.0
102
RTVSPost2010PropOp39
 70
     1
102
RTVSPost2010Prop40
 90
        0
102
RTVSPost2010PropOp40
 70
     1
102
RTVSPost2010Prop41ColorIndex
 90
       18
102
RTVSPost2010Prop41ColorRGB
 90
        0
102
RTVSPost2010PropOp41
 70
     1
102
RTVSPost2010Prop42
 90
       50
102
RTVSPost2010PropOp42
 70
     1
102
RTVSPost2010Prop43
 90
        3
102
RTVSPost2010PropOp43
 70
     1
102
RTVSPost2010Prop44ColorIndex
 90
        5
102
RTVSPost2010Prop44ColorRGB
 90
      255
102
RTVSPost2010PropOp44
 70
     1
102
RTVSPost2010Prop45
280
     0
102
RTVSPost2010PropOp45
 70
     1
102
RTVSPost2010Prop46
 90
       50
102
RTVSPost2010PropOp46
 70
     1
102
RTVSPost2010Prop47
 90
       50
102
RTVSPost2010PropOp47
 70
     1
102
RTVSPost2010Prop48
 90
       50
102
RTVSPost2010PropOp48
 70
     1
102
RTVSPost2010Prop49
280
     0
102
RTVSPost2010PropOp49
 70
     1
102
RTVSPost2010Prop50
 90
       50
102
RTVSPost2010PropOp50
 70
     1
102
RTVSPost2010Prop51ColorIndex
 90
      256
102
RTVSPost2010Prop51ColorRGB
 90
-16777216
102
RTVSPost2010PropOp51
 70
     0
102
RTVSPost2010Prop52
140
1.0
102
RTVSPost2010PropOp52
 70
     0
102
RTVSPost2010Prop53
 90
        2
102
RTVSPost2010PropOp53
 70
     1
102
RTVSPost2010Prop54
  1
strokes_ogs.tif
102
RTVSPost2010PropOp54
 70
     1
102
RTVSPost2010Prop55
280
     0
102
RTVSPost2010PropOp55
 70
     1
102
RTVSPost2010Prop56
140
1.0
102
RTVSPost2010PropOp56
 70
     1
102
RTVSPost2010Prop57
140
1.0
102
RTVSPost2010PropOp57
 70
     1
102
RTVSPropertyOp0
 70
     1
102
RTVSPropertyOp1
 70
     1
102
RTVSPropertyOp2
 70
     1
102
RTVSPropertyOp3
 70
     1
102
RTVSPropertyOp4
 70
     1
102
RTVSPropertyOp5
 70
     1
102
RTVSPropertyOp6
 70
     1
102
RTVSPropertyOp7
 70
     1
102
RTVSPropertyOp8
 70
     1
102
RTVSPropertyOp9
 70
     1
102
RTVSPropertyOp10
 70
     1
102
RTVSPropertyOp11
 70
     1
102
RTVSPropertyOp12
 70
     1
102
RTVSPropertyOp13
 70
     1
102
RTVSPropertyOp14
 70
     1
102
RTVSPropertyOp15
 70
     1
102
RTVSPropertyOp16
 70
     1
102
RTVSPropertyOp17
 70
     1
102
RTVSPropertyOp18
 70
     1
102
RTVSPropertyOp19
 70
     1
102
RTVSPropertyOp20
 70
     1
102
RTVSPropertyOp21
 70
     1
102
RTVSPropertyOp22
 70
     1
102
RTVSPropertyOp23
 70
     1
102
RTVSPropertyOp24
 70
     1
102
RTVSPropertyOp25
 70
     1
102
RTVSPropertyOp26
 70
     1
102
RTVSPropertyOp27
 70
     1
102
RTVSPropertyOp28
 70
     1
102
RTVSPropertyOp29
 70
     1
102
RTVSPropertyOp30
 70
     1
102
RTVSPropertyOp31
 70
     1
102
RTVSPropertyOp32
 70
     1
102
RTVSPropertyOp33
 70
     1
102
RTVSPropertyOp34
 70
     1
102
RTVSPropertyOp35
 70
     1
102
RTVSPropertyOp36
 70
     1
102
RTVSPropertyOp37
 70
     1
102
RTVSPropertyOp38
 70
     1
102
RTVSPropertyOp39
 70
     1
102
RTVSPropertyOp40
 70
     1
102
RTVSPropertyOp41
 70
     1
102
RTVSPropertyOp42
 70
     1
102
RTVSPropertyOp43
 70
     1
102
RTVSPropertyOp44
 70
     1
102
RTVSPropertyOp45
 70
     1
102
RTVSPropertyOp46
 70
     1
102
RTVSPropertyOp47
 70
     1
102
RTVSPropertyOp48
 70
     1
102
RTVSPropertyOp49
 70
     1
102
RTVSPropertyOp50
 70
     1
102
RTVSPropertyOp51
 70
     0
102
RTVSPropertyOp52
 70
     0
102
RTVSPropertyOp53
 70
     1
102
RTVSPropertyOp54
 70
     1
102
RTVSPropertyOp55
 70
     1
102
RTVSPropertyOp56
 70
     1
102
RTVSPropertyOp57
 70
     1
102
RTVSPropertyOp58
 70
     1
102
RTVSPropertyOp59
 70
     1
102
RTVSPropertyOp60
 70
     1
102
RTVSPropertyOp61
 70
     1
102
RTVSPropertyOp62
 70
     1
  0
XRECORD
  5
108ED
102
{ACAD_REACTORS
330
108EC
102
}
330
108EC
100
AcDbXrecord
280
     1
102
RTVSPost2010Prop28
280
     0
102
RTVSPost2010PropOp28
 70
     1
102
RTVSPost2010Prop29
280
     1
102
RTVSPost2010PropOp29
 70
     1
102
RTVSPost2010Prop30
280
     1
102
RTVSPost2010PropOp30
 70
     1
102
RTVSPost2010Prop31
280
     0
102
RTVSPost2010PropOp31
 70
     1
102
RTVSPost2010Prop32
280
     0
102
RTVSPost2010PropOp32
 70
     1
102
RTVSPost2010Prop33
280
     0
102
RTVSPost2010PropOp33
 70
     1
102
RTVSPost2010Prop34
280
     0
102
RTVSPost2010PropOp34
 70
     1
102
RTVSPost2010Prop35
280
     0
102
RTVSPost2010PropOp35
 70
     1
102
RTVSPost2010Prop36
280
     0
102
RTVSPost2010PropOp36
 70
     1
102
RTVSPost2010Prop37
 90
       50
102
RTVSPost2010PropOp37
 70
     1
102
RTVSPost2010Prop38
140
0.0
102
RTVSPost2010PropOp38
 70
     1
102
RTVSPost2010Prop39
140
1.0
102
RTVSPost2010PropOp39
 70
     1
102
RTVSPost2010Prop40
 90
        0
102
RTVSPost2010PropOp40
 70
     1
102
RTVSPost2010Prop41ColorIndex
 90
       18
102
RTVSPost2010Prop41ColorRGB
 90
        0
102
RTVSPost2010PropOp41
 70
     1
102
RTVSPost2010Prop42
 90
       50
102
RTVSPost2010PropOp42
 70
     1
102
RTVSPost2010Prop43
 90
        3
102
RTVSPost2010PropOp43
 70
     1
102
RTVSPost2010Prop44ColorIndex
 90
        5
102
RTVSPost2010Prop44ColorRGB
 90
      255
102
RTVSPost2010PropOp44
 70
     1
102
RTVSPost2010Prop45
280
     0
102
RTVSPost2010PropOp45
 70
     1
102
RTVSPost2010Prop46
 90
       50
102
RTVSPost2010PropOp46
 70
     1
102
RTVSPost2010Prop47
 90
       50
102
RTVSPost2010PropOp47
 70
     1
102
RTVSPost2010Prop48
 90
       50
102
RTVSPost2010PropOp48
 70
     1
102
RTVSPost2010Prop49
280
     0
102
RTVSPost2010PropOp49
 70
     1
102
RTVSPost2010Prop50
 90
       50
102
RTVSPost2010PropOp50
 70
     1
102
RTVSPost2010Prop51ColorIndex
 90
      256
102
RTVSPost2010Prop51ColorRGB
 90
-16777216
102
RTVSPost2010PropOp51
 70
     0
102
RTVSPost2010Prop52
140
1.0
102
RTVSPost2010PropOp52
 70
     0
102
RTVSPost2010Prop53
 90
        2
102
RTVSPost2010PropOp53
 70
     1
102
RTVSPost2010Prop54
  1
strokes_ogs.tif
102
RTVSPost2010PropOp54
 70
     1
102
RTVSPost2010Prop55
280
     0
102
RTVSPost2010PropOp55
 70
     1
102
RTVSPost2010Prop56
140
1.0
102
RTVSPost2010PropOp56
 70
     1
102
RTVSPost2010Prop57
140
1.0
102
RTVSPost2010PropOp57
 70
     1
102
RTVSPropertyOp0
 70
     1
102
RTVSPropertyOp1
 70
     1
102
RTVSPropertyOp2
 70
     1
102
RTVSPropertyOp3
 70
     1
102
RTVSPropertyOp4
 70
     1
102
RTVSPropertyOp5
 70
     1
102
RTVSPropertyOp6
 70
     1
102
RTVSPropertyOp7
 70
     1
102
RTVSPropertyOp8
 70
     1
102
RTVSPropertyOp9
 70
     1
102
RTVSPropertyOp10
 70
     1
102
RTVSPropertyOp11
 70
     1
102
RTVSPropertyOp12
 70
     1
102
RTVSPropertyOp13
 70
     1
102
RTVSPropertyOp14
 70
     1
102
RTVSPropertyOp15
 70
     1
102
RTVSPropertyOp16
 70
     1
102
RTVSPropertyOp17
 70
     1
102
RTVSPropertyOp18
 70
     1
102
RTVSPropertyOp19
 70
     1
102
RTVSPropertyOp20
 70
     1
102
RTVSPropertyOp21
 70
     1
102
RTVSPropertyOp22
 70
     1
102
RTVSPropertyOp23
 70
     1
102
RTVSPropertyOp24
 70
     1
102
RTVSPropertyOp25
 70
     1
102
RTVSPropertyOp26
 70
     1
102
RTVSPropertyOp27
 70
     1
102
RTVSPropertyOp28
 70
     1
102
RTVSPropertyOp29
 70
     1
102
RTVSPropertyOp30
 70
     1
102
RTVSPropertyOp31
 70
     1
102
RTVSPropertyOp32
 70
     1
102
RTVSPropertyOp33
 70
     1
102
RTVSPropertyOp34
 70
     1
102
RTVSPropertyOp35
 70
     1
102
RTVSPropertyOp36
 70
     1
102
RTVSPropertyOp37
 70
     1
102
RTVSPropertyOp38
 70
     1
102
RTVSPropertyOp39
 70
     1
102
RTVSPropertyOp40
 70
     1
102
RTVSPropertyOp41
 70
     1
102
RTVSPropertyOp42
 70
     1
102
RTVSPropertyOp43
 70
     1
102
RTVSPropertyOp44
 70
     1
102
RTVSPropertyOp45
 70
     1
102
RTVSPropertyOp46
 70
     1
102
RTVSPropertyOp47
 70
     1
102
RTVSPropertyOp48
 70
     1
102
RTVSPropertyOp49
 70
     1
102
RTVSPropertyOp50
 70
     1
102
RTVSPropertyOp51
 70
     0
102
RTVSPropertyOp52
 70
     0
102
RTVSPropertyOp53
 70
     1
102
RTVSPropertyOp54
 70
     1
102
RTVSPropertyOp55
 70
     1
102
RTVSPropertyOp56
 70
     1
102
RTVSPropertyOp57
 70
     1
102
RTVSPropertyOp58
 70
     1
102
RTVSPropertyOp59
 70
     1
102
RTVSPropertyOp60
 70
     1
102
RTVSPropertyOp61
 70
     1
102
RTVSPropertyOp62
 70
     1
  0
XRECORD
  5
108D1
102
{ACAD_REACTORS
330
108D0
102
}
330
108D0
100
AcDbXrecord
280
     1
102
RTVSPost2010Prop28
280
     0
102
RTVSPost2010PropOp28
 70
     1
102
RTVSPost2010Prop29
280
     1
102
RTVSPost2010PropOp29
 70
     1
102
RTVSPost2010Prop30
280
     1
102
RTVSPost2010PropOp30
 70
     1
102
RTVSPost2010Prop31
280
     0
102
RTVSPost2010PropOp31
 70
     1
102
RTVSPost2010Prop32
280
     0
102
RTVSPost2010PropOp32
 70
     1
102
RTVSPost2010Prop33
280
     0
102
RTVSPost2010PropOp33
 70
     1
102
RTVSPost2010Prop34
280
     0
102
RTVSPost2010PropOp34
 70
     1
102
RTVSPost2010Prop35
280
     0
102
RTVSPost2010PropOp35
 70
     1
102
RTVSPost2010Prop36
280
     0
102
RTVSPost2010PropOp36
 70
     1
102
RTVSPost2010Prop37
 90
       50
102
RTVSPost2010PropOp37
 70
     1
102
RTVSPost2010Prop38
140
0.0
102
RTVSPost2010PropOp38
 70
     1
102
RTVSPost2010Prop39
140
1.0
102
RTVSPost2010PropOp39
 70
     1
102
RTVSPost2010Prop40
 90
        0
102
RTVSPost2010PropOp40
 70
     1
102
RTVSPost2010Prop41ColorIndex
 90
       18
102
RTVSPost2010Prop41ColorRGB
 90
        0
102
RTVSPost2010PropOp41
 70
     1
102
RTVSPost2010Prop42
 90
       50
102
RTVSPost2010PropOp42
 70
     1
102
RTVSPost2010Prop43
 90
        3
102
RTVSPost2010PropOp43
 70
     1
102
RTVSPost2010Prop44ColorIndex
 90
        5
102
RTVSPost2010Prop44ColorRGB
 90
      255
102
RTVSPost2010PropOp44
 70
     1
102
RTVSPost2010Prop45
280
     0
102
RTVSPost2010PropOp45
 70
     1
102
RTVSPost2010Prop46
 90
       50
102
RTVSPost2010PropOp46
 70
     1
102
RTVSPost2010Prop47
 90
       50
102
RTVSPost2010PropOp47
 70
     1
102
RTVSPost2010Prop48
 90
       50
102
RTVSPost2010PropOp48
 70
     1
102
RTVSPost2010Prop49
280
     0
102
RTVSPost2010PropOp49
 70
     1
102
RTVSPost2010Prop50
 90
       50
102
RTVSPost2010PropOp50
 70
     1
102
RTVSPost2010Prop51ColorIndex
 90
      256
102
RTVSPost2010Prop51ColorRGB
 90
-16777216
102
RTVSPost2010PropOp51
 70
     0
102
RTVSPost2010Prop52
140
1.0
102
RTVSPost2010PropOp52
 70
     0
102
RTVSPost2010Prop53
 90
        2
102
RTVSPost2010PropOp53
 70
     1
102
RTVSPost2010Prop54
  1
strokes_ogs.tif
102
RTVSPost2010PropOp54
 70
     1
102
RTVSPost2010Prop55
280
     0
102
RTVSPost2010PropOp55
 70
     1
102
RTVSPost2010Prop56
140
1.0
102
RTVSPost2010PropOp56
 70
     1
102
RTVSPost2010Prop57
140
1.0
102
RTVSPost2010PropOp57
 70
     1
102
RTVSPropertyOp0
 70
     1
102
RTVSPropertyOp1
 70
     1
102
RTVSPropertyOp2
 70
     1
102
RTVSPropertyOp3
 70
     1
102
RTVSPropertyOp4
 70
     1
102
RTVSPropertyOp5
 70
     1
102
RTVSPropertyOp6
 70
     1
102
RTVSPropertyOp7
 70
     1
102
RTVSPropertyOp8
 70
     1
102
RTVSPropertyOp9
 70
     1
102
RTVSPropertyOp10
 70
     1
102
RTVSPropertyOp11
 70
     1
102
RTVSPropertyOp12
 70
     1
102
RTVSPropertyOp13
 70
     1
102
RTVSPropertyOp14
 70
     1
102
RTVSPropertyOp15
 70
     1
102
RTVSPropertyOp16
 70
     1
102
RTVSPropertyOp17
 70
     1
102
RTVSPropertyOp18
 70
     1
102
RTVSPropertyOp19
 70
     1
102
RTVSPropertyOp20
 70
     1
102
RTVSPropertyOp21
 70
     1
102
RTVSPropertyOp22
 70
     1
102
RTVSPropertyOp23
 70
     1
102
RTVSPropertyOp24
 70
     1
102
RTVSPropertyOp25
 70
     1
102
RTVSPropertyOp26
 70
     1
102
RTVSPropertyOp27
 70
     1
102
RTVSPropertyOp28
 70
     1
102
RTVSPropertyOp29
 70
     1
102
RTVSPropertyOp30
 70
     1
102
RTVSPropertyOp31
 70
     1
102
RTVSPropertyOp32
 70
     1
102
RTVSPropertyOp33
 70
     1
102
RTVSPropertyOp34
 70
     1
102
RTVSPropertyOp35
 70
     1
102
RTVSPropertyOp36
 70
     1
102
RTVSPropertyOp37
 70
     1
102
RTVSPropertyOp38
 70
     1
102
RTVSPropertyOp39
 70
     1
102
RTVSPropertyOp40
 70
     1
102
RTVSPropertyOp41
 70
     1
102
RTVSPropertyOp42
 70
     1
102
RTVSPropertyOp43
 70
     1
102
RTVSPropertyOp44
 70
     1
102
RTVSPropertyOp45
 70
     1
102
RTVSPropertyOp46
 70
     1
102
RTVSPropertyOp47
 70
     1
102
RTVSPropertyOp48
 70
     1
102
RTVSPropertyOp49
 70
     1
102
RTVSPropertyOp50
 70
     1
102
RTVSPropertyOp51
 70
     0
102
RTVSPropertyOp52
 70
     0
102
RTVSPropertyOp53
 70
     1
102
RTVSPropertyOp54
 70
     1
102
RTVSPropertyOp55
 70
     1
102
RTVSPropertyOp56
 70
     1
102
RTVSPropertyOp57
 70
     1
102
RTVSPropertyOp58
 70
     1
102
RTVSPropertyOp59
 70
     1
102
RTVSPropertyOp60
 70
     1
102
RTVSPropertyOp61
 70
     1
102
RTVSPropertyOp62
 70
     1
  0
XRECORD
  5
108D3
102
{ACAD_REACTORS
330
108D2
102
}
330
108D2
100
AcDbXrecord
280
     1
102
RTVSPost2010Prop28
280
     0
102
RTVSPost2010PropOp28
 70
     1
102
RTVSPost2010Prop29
280
     1
102
RTVSPost2010PropOp29
 70
     1
102
RTVSPost2010Prop30
280
     1
102
RTVSPost2010PropOp30
 70
     1
102
RTVSPost2010Prop31
280
     0
102
RTVSPost2010PropOp31
 70
     1
102
RTVSPost2010Prop32
280
     0
102
RTVSPost2010PropOp32
 70
     1
102
RTVSPost2010Prop33
280
     0
102
RTVSPost2010PropOp33
 70
     1
102
RTVSPost2010Prop34
280
     0
102
RTVSPost2010PropOp34
 70
     1
102
RTVSPost2010Prop35
280
     0
102
RTVSPost2010PropOp35
 70
     1
102
RTVSPost2010Prop36
280
     0
102
RTVSPost2010PropOp36
 70
     1
102
RTVSPost2010Prop37
 90
       50
102
RTVSPost2010PropOp37
 70
     1
102
RTVSPost2010Prop38
140
0.0
102
RTVSPost2010PropOp38
 70
     1
102
RTVSPost2010Prop39
140
1.0
102
RTVSPost2010PropOp39
 70
     1
102
RTVSPost2010Prop40
 90
        0
102
RTVSPost2010PropOp40
 70
     1
102
RTVSPost2010Prop41ColorIndex
 90
       18
102
RTVSPost2010Prop41ColorRGB
 90
        0
102
RTVSPost2010PropOp41
 70
     1
102
RTVSPost2010Prop42
 90
       50
102
RTVSPost2010PropOp42
 70
     1
102
RTVSPost2010Prop43
 90
        3
102
RTVSPost2010PropOp43
 70
     1
102
RTVSPost2010Prop44ColorIndex
 90
        5
102
RTVSPost2010Prop44ColorRGB
 90
      255
102
RTVSPost2010PropOp44
 70
     1
102
RTVSPost2010Prop45
280
     0
102
RTVSPost2010PropOp45
 70
     1
102
RTVSPost2010Prop46
 90
       50
102
RTVSPost2010PropOp46
 70
     1
102
RTVSPost2010Prop47
 90
       50
102
RTVSPost2010PropOp47
 70
     1
102
RTVSPost2010Prop48
 90
       50
102
RTVSPost2010PropOp48
 70
     1
102
RTVSPost2010Prop49
280
     0
102
RTVSPost2010PropOp49
 70
     1
102
RTVSPost2010Prop50
 90
       50
102
RTVSPost2010PropOp50
 70
     1
102
RTVSPost2010Prop51ColorIndex
 90
      256
102
RTVSPost2010Prop51ColorRGB
 90
-16777216
102
RTVSPost2010PropOp51
 70
     0
102
RTVSPost2010Prop52
140
1.0
102
RTVSPost2010PropOp52
 70
     0
102
RTVSPost2010Prop53
 90
        2
102
RTVSPost2010PropOp53
 70
     1
102
RTVSPost2010Prop54
  1
strokes_ogs.tif
102
RTVSPost2010PropOp54
 70
     1
102
RTVSPost2010Prop55
280
     0
102
RTVSPost2010PropOp55
 70
     1
102
RTVSPost2010Prop56
140
1.0
102
RTVSPost2010PropOp56
 70
     1
102
RTVSPost2010Prop57
140
1.0
102
RTVSPost2010PropOp57
 70
     1
102
RTVSPropertyOp0
 70
     1
102
RTVSPropertyOp1
 70
     1
102
RTVSPropertyOp2
 70
     1
102
RTVSPropertyOp3
 70
     1
102
RTVSPropertyOp4
 70
     1
102
RTVSPropertyOp5
 70
     1
102
RTVSPropertyOp6
 70
     1
102
RTVSPropertyOp7
 70
     1
102
RTVSPropertyOp8
 70
     1
102
RTVSPropertyOp9
 70
     1
102
RTVSPropertyOp10
 70
     1
102
RTVSPropertyOp11
 70
     1
102
RTVSPropertyOp12
 70
     1
102
RTVSPropertyOp13
 70
     1
102
RTVSPropertyOp14
 70
     1
102
RTVSPropertyOp15
 70
     1
102
RTVSPropertyOp16
 70
     1
102
RTVSPropertyOp17
 70
     1
102
RTVSPropertyOp18
 70
     1
102
RTVSPropertyOp19
 70
     1
102
RTVSPropertyOp20
 70
     1
102
RTVSPropertyOp21
 70
     1
102
RTVSPropertyOp22
 70
     1
102
RTVSPropertyOp23
 70
     1
102
RTVSPropertyOp24
 70
     1
102
RTVSPropertyOp25
 70
     1
102
RTVSPropertyOp26
 70
     1
102
RTVSPropertyOp27
 70
     1
102
RTVSPropertyOp28
 70
     1
102
RTVSPropertyOp29
 70
     1
102
RTVSPropertyOp30
 70
     1
102
RTVSPropertyOp31
 70
     1
102
RTVSPropertyOp32
 70
     1
102
RTVSPropertyOp33
 70
     1
102
RTVSPropertyOp34
 70
     1
102
RTVSPropertyOp35
 70
     1
102
RTVSPropertyOp36
 70
     1
102
RTVSPropertyOp37
 70
     1
102
RTVSPropertyOp38
 70
     1
102
RTVSPropertyOp39
 70
     1
102
RTVSPropertyOp40
 70
     1
102
RTVSPropertyOp41
 70
     1
102
RTVSPropertyOp42
 70
     1
102
RTVSPropertyOp43
 70
     1
102
RTVSPropertyOp44
 70
     1
102
RTVSPropertyOp45
 70
     1
102
RTVSPropertyOp46
 70
     1
102
RTVSPropertyOp47
 70
     1
102
RTVSPropertyOp48
 70
     1
102
RTVSPropertyOp49
 70
     1
102
RTVSPropertyOp50
 70
     1
102
RTVSPropertyOp51
 70
     0
102
RTVSPropertyOp52
 70
     0
102
RTVSPropertyOp53
 70
     1
102
RTVSPropertyOp54
 70
     1
102
RTVSPropertyOp55
 70
     1
102
RTVSPropertyOp56
 70
     1
102
RTVSPropertyOp57
 70
     1
102
RTVSPropertyOp58
 70
     1
102
RTVSPropertyOp59
 70
     1
102
RTVSPropertyOp60
 70
     1
102
RTVSPropertyOp61
 70
     1
102
RTVSPropertyOp62
 70
     1
  0
XRECORD
  5
108D5
102
{ACAD_REACTORS
330
108D4
102
}
330
108D4
100
AcDbXrecord
280
     1
102
RTVSPost2010Prop28
280
     0
102
RTVSPost2010PropOp28
 70
     1
102
RTVSPost2010Prop29
280
     1
102
RTVSPost2010PropOp29
 70
     1
102
RTVSPost2010Prop30
280
     1
102
RTVSPost2010PropOp30
 70
     1
102
RTVSPost2010Prop31
280
     0
102
RTVSPost2010PropOp31
 70
     1
102
RTVSPost2010Prop32
280
     0
102
RTVSPost2010PropOp32
 70
     1
102
RTVSPost2010Prop33
280
     0
102
RTVSPost2010PropOp33
 70
     1
102
RTVSPost2010Prop34
280
     0
102
RTVSPost2010PropOp34
 70
     1
102
RTVSPost2010Prop35
280
     0
102
RTVSPost2010PropOp35
 70
     1
102
RTVSPost2010Prop36
280
     0
102
RTVSPost2010PropOp36
 70
     1
102
RTVSPost2010Prop37
 90
       50
102
RTVSPost2010PropOp37
 70
     1
102
RTVSPost2010Prop38
140
0.0
102
RTVSPost2010PropOp38
 70
     1
102
RTVSPost2010Prop39
140
1.0
102
RTVSPost2010PropOp39
 70
     1
102
RTVSPost2010Prop40
 90
        0
102
RTVSPost2010PropOp40
 70
     1
102
RTVSPost2010Prop41ColorIndex
 90
       18
102
RTVSPost2010Prop41ColorRGB
 90
        0
102
RTVSPost2010PropOp41
 70
     1
102
RTVSPost2010Prop42
 90
       50
102
RTVSPost2010PropOp42
 70
     1
102
RTVSPost2010Prop43
 90
        3
102
RTVSPost2010PropOp43
 70
     1
102
RTVSPost2010Prop44ColorIndex
 90
        5
102
RTVSPost2010Prop44ColorRGB
 90
      255
102
RTVSPost2010PropOp44
 70
     1
102
RTVSPost2010Prop45
280
     0
102
RTVSPost2010PropOp45
 70
     1
102
RTVSPost2010Prop46
 90
       50
102
RTVSPost2010PropOp46
 70
     1
102
RTVSPost2010Prop47
 90
       50
102
RTVSPost2010PropOp47
 70
     1
102
RTVSPost2010Prop48
 90
       50
102
RTVSPost2010PropOp48
 70
     1
102
RTVSPost2010Prop49
280
     0
102
RTVSPost2010PropOp49
 70
     1
102
RTVSPost2010Prop50
 90
       50
102
RTVSPost2010PropOp50
 70
     1
102
RTVSPost2010Prop51ColorIndex
 90
      256
102
RTVSPost2010Prop51ColorRGB
 90
-16777216
102
RTVSPost2010PropOp51
 70
     0
102
RTVSPost2010Prop52
140
1.0
102
RTVSPost2010PropOp52
 70
     0
102
RTVSPost2010Prop53
 90
        2
102
RTVSPost2010PropOp53
 70
     1
102
RTVSPost2010Prop54
  1
strokes_ogs.tif
102
RTVSPost2010PropOp54
 70
     1
102
RTVSPost2010Prop55
280
     0
102
RTVSPost2010PropOp55
 70
     1
102
RTVSPost2010Prop56
140
1.0
102
RTVSPost2010PropOp56
 70
     1
102
RTVSPost2010Prop57
140
1.0
102
RTVSPost2010PropOp57
 70
     1
102
RTVSPropertyOp0
 70
     1
102
RTVSPropertyOp1
 70
     1
102
RTVSPropertyOp2
 70
     1
102
RTVSPropertyOp3
 70
     1
102
RTVSPropertyOp4
 70
     1
102
RTVSPropertyOp5
 70
     1
102
RTVSPropertyOp6
 70
     1
102
RTVSPropertyOp7
 70
     1
102
RTVSPropertyOp8
 70
     1
102
RTVSPropertyOp9
 70
     1
102
RTVSPropertyOp10
 70
     1
102
RTVSPropertyOp11
 70
     1
102
RTVSPropertyOp12
 70
     1
102
RTVSPropertyOp13
 70
     1
102
RTVSPropertyOp14
 70
     1
102
RTVSPropertyOp15
 70
     1
102
RTVSPropertyOp16
 70
     1
102
RTVSPropertyOp17
 70
     1
102
RTVSPropertyOp18
 70
     1
102
RTVSPropertyOp19
 70
     1
102
RTVSPropertyOp20
 70
     1
102
RTVSPropertyOp21
 70
     1
102
RTVSPropertyOp22
 70
     1
102
RTVSPropertyOp23
 70
     1
102
RTVSPropertyOp24
 70
     1
102
RTVSPropertyOp25
 70
     1
102
RTVSPropertyOp26
 70
     1
102
RTVSPropertyOp27
 70
     1
102
RTVSPropertyOp28
 70
     1
102
RTVSPropertyOp29
 70
     1
102
RTVSPropertyOp30
 70
     1
102
RTVSPropertyOp31
 70
     1
102
RTVSPropertyOp32
 70
     1
102
RTVSPropertyOp33
 70
     1
102
RTVSPropertyOp34
 70
     1
102
RTVSPropertyOp35
 70
     1
102
RTVSPropertyOp36
 70
     1
102
RTVSPropertyOp37
 70
     1
102
RTVSPropertyOp38
 70
     1
102
RTVSPropertyOp39
 70
     1
102
RTVSPropertyOp40
 70
     1
102
RTVSPropertyOp41
 70
     1
102
RTVSPropertyOp42
 70
     1
102
RTVSPropertyOp43
 70
     1
102
RTVSPropertyOp44
 70
     1
102
RTVSPropertyOp45
 70
     1
102
RTVSPropertyOp46
 70
     1
102
RTVSPropertyOp47
 70
     1
102
RTVSPropertyOp48
 70
     1
102
RTVSPropertyOp49
 70
     1
102
RTVSPropertyOp50
 70
     1
102
RTVSPropertyOp51
 70
     0
102
RTVSPropertyOp52
 70
     0
102
RTVSPropertyOp53
 70
     1
102
RTVSPropertyOp54
 70
     1
102
RTVSPropertyOp55
 70
     1
102
RTVSPropertyOp56
 70
     1
102
RTVSPropertyOp57
 70
     1
102
RTVSPropertyOp58
 70
     1
102
RTVSPropertyOp59
 70
     1
102
RTVSPropertyOp60
 70
     1
102
RTVSPropertyOp61
 70
     1
102
RTVSPropertyOp62
 70
     1
  0
XRECORD
  5
108D7
102
{ACAD_REACTORS
330
108D6
102
}
330
108D6
100
AcDbXrecord
280
     1
102
RTVSPost2010Prop28
280
     0
102
RTVSPost2010PropOp28
 70
     1
102
RTVSPost2010Prop29
280
     1
102
RTVSPost2010PropOp29
 70
     1
102
RTVSPost2010Prop30
280
     1
102
RTVSPost2010PropOp30
 70
     1
102
RTVSPost2010Prop31
280
     0
102
RTVSPost2010PropOp31
 70
     1
102
RTVSPost2010Prop32
280
     0
102
RTVSPost2010PropOp32
 70
     1
102
RTVSPost2010Prop33
280
     0
102
RTVSPost2010PropOp33
 70
     1
102
RTVSPost2010Prop34
280
     0
102
RTVSPost2010PropOp34
 70
     1
102
RTVSPost2010Prop35
280
     0
102
RTVSPost2010PropOp35
 70
     1
102
RTVSPost2010Prop36
280
     0
102
RTVSPost2010PropOp36
 70
     1
102
RTVSPost2010Prop37
 90
       50
102
RTVSPost2010PropOp37
 70
     1
102
RTVSPost2010Prop38
140
0.0
102
RTVSPost2010PropOp38
 70
     1
102
RTVSPost2010Prop39
140
1.0
102
RTVSPost2010PropOp39
 70
     1
102
RTVSPost2010Prop40
 90
        0
102
RTVSPost2010PropOp40
 70
     1
102
RTVSPost2010Prop41ColorIndex
 90
       18
102
RTVSPost2010Prop41ColorRGB
 90
        0
102
RTVSPost2010PropOp41
 70
     1
102
RTVSPost2010Prop42
 90
       50
102
RTVSPost2010PropOp42
 70
     1
102
RTVSPost2010Prop43
 90
        3
102
RTVSPost2010PropOp43
 70
     1
102
RTVSPost2010Prop44ColorIndex
 90
        5
102
RTVSPost2010Prop44ColorRGB
 90
      255
102
RTVSPost2010PropOp44
 70
     1
102
RTVSPost2010Prop45
280
     0
102
RTVSPost2010PropOp45
 70
     1
102
RTVSPost2010Prop46
 90
       50
102
RTVSPost2010PropOp46
 70
     1
102
RTVSPost2010Prop47
 90
       50
102
RTVSPost2010PropOp47
 70
     1
102
RTVSPost2010Prop48
 90
       50
102
RTVSPost2010PropOp48
 70
     1
102
RTVSPost2010Prop49
280
     0
102
RTVSPost2010PropOp49
 70
     1
102
RTVSPost2010Prop50
 90
       50
102
RTVSPost2010PropOp50
 70
     1
102
RTVSPost2010Prop51ColorIndex
 90
      256
102
RTVSPost2010Prop51ColorRGB
 90
-16777216
102
RTVSPost2010PropOp51
 70
     0
102
RTVSPost2010Prop52
140
1.0
102
RTVSPost2010PropOp52
 70
     0
102
RTVSPost2010Prop53
 90
        2
102
RTVSPost2010PropOp53
 70
     1
102
RTVSPost2010Prop54
  1
strokes_ogs.tif
102
RTVSPost2010PropOp54
 70
     1
102
RTVSPost2010Prop55
280
     0
102
RTVSPost2010PropOp55
 70
     1
102
RTVSPost2010Prop56
140
1.0
102
RTVSPost2010PropOp56
 70
     1
102
RTVSPost2010Prop57
140
1.0
102
RTVSPost2010PropOp57
 70
     1
102
RTVSPropertyOp0
 70
     1
102
RTVSPropertyOp1
 70
     1
102
RTVSPropertyOp2
 70
     1
102
RTVSPropertyOp3
 70
     1
102
RTVSPropertyOp4
 70
     1
102
RTVSPropertyOp5
 70
     1
102
RTVSPropertyOp6
 70
     1
102
RTVSPropertyOp7
 70
     1
102
RTVSPropertyOp8
 70
     1
102
RTVSPropertyOp9
 70
     1
102
RTVSPropertyOp10
 70
     1
102
RTVSPropertyOp11
 70
     1
102
RTVSPropertyOp12
 70
     1
102
RTVSPropertyOp13
 70
     1
102
RTVSPropertyOp14
 70
     1
102
RTVSPropertyOp15
 70
     1
102
RTVSPropertyOp16
 70
     1
102
RTVSPropertyOp17
 70
     1
102
RTVSPropertyOp18
 70
     1
102
RTVSPropertyOp19
 70
     1
102
RTVSPropertyOp20
 70
     1
102
RTVSPropertyOp21
 70
     1
102
RTVSPropertyOp22
 70
     1
102
RTVSPropertyOp23
 70
     1
102
RTVSPropertyOp24
 70
     1
102
RTVSPropertyOp25
 70
     1
102
RTVSPropertyOp26
 70
     1
102
RTVSPropertyOp27
 70
     1
102
RTVSPropertyOp28
 70
     1
102
RTVSPropertyOp29
 70
     1
102
RTVSPropertyOp30
 70
     1
102
RTVSPropertyOp31
 70
     1
102
RTVSPropertyOp32
 70
     1
102
RTVSPropertyOp33
 70
     1
102
RTVSPropertyOp34
 70
     1
102
RTVSPropertyOp35
 70
     1
102
RTVSPropertyOp36
 70
     1
102
RTVSPropertyOp37
 70
     1
102
RTVSPropertyOp38
 70
     1
102
RTVSPropertyOp39
 70
     1
102
RTVSPropertyOp40
 70
     1
102
RTVSPropertyOp41
 70
     1
102
RTVSPropertyOp42
 70
     1
102
RTVSPropertyOp43
 70
     1
102
RTVSPropertyOp44
 70
     1
102
RTVSPropertyOp45
 70
     1
102
RTVSPropertyOp46
 70
     1
102
RTVSPropertyOp47
 70
     1
102
RTVSPropertyOp48
 70
     1
102
RTVSPropertyOp49
 70
     1
102
RTVSPropertyOp50
 70
     1
102
RTVSPropertyOp51
 70
     0
102
RTVSPropertyOp52
 70
     0
102
RTVSPropertyOp53
 70
     1
102
RTVSPropertyOp54
 70
     1
102
RTVSPropertyOp55
 70
     1
102
RTVSPropertyOp56
 70
     1
102
RTVSPropertyOp57
 70
     1
102
RTVSPropertyOp58
 70
     1
102
RTVSPropertyOp59
 70
     1
102
RTVSPropertyOp60
 70
     1
102
RTVSPropertyOp61
 70
     1
102
RTVSPropertyOp62
 70
     1
  0
XRECORD
  5
108F9
102
{ACAD_REACTORS
330
108F8
102
}
330
108F8
100
AcDbXrecord
280
     1
102
RTVSPost2010Prop28
280
     0
102
RTVSPost2010PropOp28
 70
     1
102
RTVSPost2010Prop29
280
     1
102
RTVSPost2010PropOp29
 70
     1
102
RTVSPost2010Prop30
280
     1
102
RTVSPost2010PropOp30
 70
     1
102
RTVSPost2010Prop31
280
     0
102
RTVSPost2010PropOp31
 70
     1
102
RTVSPost2010Prop32
280
     0
102
RTVSPost2010PropOp32
 70
     1
102
RTVSPost2010Prop33
280
     0
102
RTVSPost2010PropOp33
 70
     1
102
RTVSPost2010Prop34
280
     0
102
RTVSPost2010PropOp34
 70
     1
102
RTVSPost2010Prop35
280
     0
102
RTVSPost2010PropOp35
 70
     1
102
RTVSPost2010Prop36
280
     0
102
RTVSPost2010PropOp36
 70
     1
102
RTVSPost2010Prop37
 90
       50
102
RTVSPost2010PropOp37
 70
     1
102
RTVSPost2010Prop38
140
0.0
102
RTVSPost2010PropOp38
 70
     1
102
RTVSPost2010Prop39
140
1.0
102
RTVSPost2010PropOp39
 70
     1
102
RTVSPost2010Prop40
 90
        0
102
RTVSPost2010PropOp40
 70
     1
102
RTVSPost2010Prop41ColorIndex
 90
       18
102
RTVSPost2010Prop41ColorRGB
 90
        0
102
RTVSPost2010PropOp41
 70
     1
102
RTVSPost2010Prop42
 90
       50
102
RTVSPost2010PropOp42
 70
     1
102
RTVSPost2010Prop43
 90
        3
102
RTVSPost2010PropOp43
 70
     1
102
RTVSPost2010Prop44ColorIndex
 90
        5
102
RTVSPost2010Prop44ColorRGB
 90
      255
102
RTVSPost2010PropOp44
 70
     1
102
RTVSPost2010Prop45
280
     0
102
RTVSPost2010PropOp45
 70
     1
102
RTVSPost2010Prop46
 90
       50
102
RTVSPost2010PropOp46
 70
     1
102
RTVSPost2010Prop47
 90
       50
102
RTVSPost2010PropOp47
 70
     1
102
RTVSPost2010Prop48
 90
       50
102
RTVSPost2010PropOp48
 70
     1
102
RTVSPost2010Prop49
280
     0
102
RTVSPost2010PropOp49
 70
     1
102
RTVSPost2010Prop50
 90
       50
102
RTVSPost2010PropOp50
 70
     1
102
RTVSPost2010Prop51ColorIndex
 90
      256
102
RTVSPost2010Prop51ColorRGB
 90
-16777216
102
RTVSPost2010PropOp51
 70
     0
102
RTVSPost2010Prop52
140
1.0
102
RTVSPost2010PropOp52
 70
     0
102
RTVSPost2010Prop53
 90
        2
102
RTVSPost2010PropOp53
 70
     1
102
RTVSPost2010Prop54
  1
strokes_ogs.tif
102
RTVSPost2010PropOp54
 70
     1
102
RTVSPost2010Prop55
280
     0
102
RTVSPost2010PropOp55
 70
     1
102
RTVSPost2010Prop56
140
1.0
102
RTVSPost2010PropOp56
 70
     1
102
RTVSPost2010Prop57
140
1.0
102
RTVSPost2010PropOp57
 70
     1
102
RTVSPropertyOp0
 70
     1
102
RTVSPropertyOp1
 70
     1
102
RTVSPropertyOp2
 70
     1
102
RTVSPropertyOp3
 70
     1
102
RTVSPropertyOp4
 70
     1
102
RTVSPropertyOp5
 70
     1
102
RTVSPropertyOp6
 70
     1
102
RTVSPropertyOp7
 70
     1
102
RTVSPropertyOp8
 70
     1
102
RTVSPropertyOp9
 70
     1
102
RTVSPropertyOp10
 70
     1
102
RTVSPropertyOp11
 70
     1
102
RTVSPropertyOp12
 70
     1
102
RTVSPropertyOp13
 70
     1
102
RTVSPropertyOp14
 70
     1
102
RTVSPropertyOp15
 70
     1
102
RTVSPropertyOp16
 70
     1
102
RTVSPropertyOp17
 70
     1
102
RTVSPropertyOp18
 70
     1
102
RTVSPropertyOp19
 70
     1
102
RTVSPropertyOp20
 70
     1
102
RTVSPropertyOp21
 70
     1
102
RTVSPropertyOp22
 70
     1
102
RTVSPropertyOp23
 70
     1
102
RTVSPropertyOp24
 70
     1
102
RTVSPropertyOp25
 70
     1
102
RTVSPropertyOp26
 70
     1
102
RTVSPropertyOp27
 70
     1
102
RTVSPropertyOp28
 70
     1
102
RTVSPropertyOp29
 70
     1
102
RTVSPropertyOp30
 70
     1
102
RTVSPropertyOp31
 70
     1
102
RTVSPropertyOp32
 70
     1
102
RTVSPropertyOp33
 70
     1
102
RTVSPropertyOp34
 70
     1
102
RTVSPropertyOp35
 70
     1
102
RTVSPropertyOp36
 70
     1
102
RTVSPropertyOp37
 70
     1
102
RTVSPropertyOp38
 70
     1
102
RTVSPropertyOp39
 70
     1
102
RTVSPropertyOp40
 70
     1
102
RTVSPropertyOp41
 70
     1
102
RTVSPropertyOp42
 70
     1
102
RTVSPropertyOp43
 70
     1
102
RTVSPropertyOp44
 70
     1
102
RTVSPropertyOp45
 70
     1
102
RTVSPropertyOp46
 70
     1
102
RTVSPropertyOp47
 70
     1
102
RTVSPropertyOp48
 70
     1
102
RTVSPropertyOp49
 70
     1
102
RTVSPropertyOp50
 70
     1
102
RTVSPropertyOp51
 70
     0
102
RTVSPropertyOp52
 70
     0
102
RTVSPropertyOp53
 70
     1
102
RTVSPropertyOp54
 70
     1
102
RTVSPropertyOp55
 70
     1
102
RTVSPropertyOp56
 70
     1
102
RTVSPropertyOp57
 70
     1
102
RTVSPropertyOp58
 70
     1
102
RTVSPropertyOp59
 70
     1
102
RTVSPropertyOp60
 70
     1
102
RTVSPropertyOp61
 70
     1
102
RTVSPropertyOp62
 70
     1
  0
XRECORD
  5
108F1
102
{ACAD_REACTORS
330
108F0
102
}
330
108F0
100
AcDbXrecord
280
     1
102
RTVSPost2010Prop28
280
     0
102
RTVSPost2010PropOp28
 70
     1
102
RTVSPost2010Prop29
280
     1
102
RTVSPost2010PropOp29
 70
     1
102
RTVSPost2010Prop30
280
     1
102
RTVSPost2010PropOp30
 70
     1
102
RTVSPost2010Prop31
280
     0
102
RTVSPost2010PropOp31
 70
     1
102
RTVSPost2010Prop32
280
     0
102
RTVSPost2010PropOp32
 70
     1
102
RTVSPost2010Prop33
280
     0
102
RTVSPost2010PropOp33
 70
     1
102
RTVSPost2010Prop34
280
     0
102
RTVSPost2010PropOp34
 70
     1
102
RTVSPost2010Prop35
280
     0
102
RTVSPost2010PropOp35
 70
     1
102
RTVSPost2010Prop36
280
     0
102
RTVSPost2010PropOp36
 70
     1
102
RTVSPost2010Prop37
 90
       50
102
RTVSPost2010PropOp37
 70
     1
102
RTVSPost2010Prop38
140
0.0
102
RTVSPost2010PropOp38
 70
     1
102
RTVSPost2010Prop39
140
1.0
102
RTVSPost2010PropOp39
 70
     1
102
RTVSPost2010Prop40
 90
        0
102
RTVSPost2010PropOp40
 70
     1
102
RTVSPost2010Prop41ColorIndex
 90
       18
102
RTVSPost2010Prop41ColorRGB
 90
        0
102
RTVSPost2010PropOp41
 70
     1
102
RTVSPost2010Prop42
 90
       50
102
RTVSPost2010PropOp42
 70
     1
102
RTVSPost2010Prop43
 90
        3
102
RTVSPost2010PropOp43
 70
     1
102
RTVSPost2010Prop44ColorIndex
 90
        5
102
RTVSPost2010Prop44ColorRGB
 90
      255
102
RTVSPost2010PropOp44
 70
     1
102
RTVSPost2010Prop45
280
     0
102
RTVSPost2010PropOp45
 70
     1
102
RTVSPost2010Prop46
 90
       50
102
RTVSPost2010PropOp46
 70
     1
102
RTVSPost2010Prop47
 90
       50
102
RTVSPost2010PropOp47
 70
     1
102
RTVSPost2010Prop48
 90
       50
102
RTVSPost2010PropOp48
 70
     1
102
RTVSPost2010Prop49
280
     0
102
RTVSPost2010PropOp49
 70
     1
102
RTVSPost2010Prop50
 90
       50
102
RTVSPost2010PropOp50
 70
     1
102
RTVSPost2010Prop51ColorIndex
 90
      256
102
RTVSPost2010Prop51ColorRGB
 90
-16777216
102
RTVSPost2010PropOp51
 70
     0
102
RTVSPost2010Prop52
140
1.0
102
RTVSPost2010PropOp52
 70
     0
102
RTVSPost2010Prop53
 90
        2
102
RTVSPost2010PropOp53
 70
     1
102
RTVSPost2010Prop54
  1
strokes_ogs.tif
102
RTVSPost2010PropOp54
 70
     1
102
RTVSPost2010Prop55
280
     0
102
RTVSPost2010PropOp55
 70
     1
102
RTVSPost2010Prop56
140
1.0
102
RTVSPost2010PropOp56
 70
     1
102
RTVSPost2010Prop57
140
1.0
102
RTVSPost2010PropOp57
 70
     1
102
RTVSPropertyOp0
 70
     1
102
RTVSPropertyOp1
 70
     1
102
RTVSPropertyOp2
 70
     1
102
RTVSPropertyOp3
 70
     1
102
RTVSPropertyOp4
 70
     1
102
RTVSPropertyOp5
 70
     1
102
RTVSPropertyOp6
 70
     1
102
RTVSPropertyOp7
 70
     1
102
RTVSPropertyOp8
 70
     1
102
RTVSPropertyOp9
 70
     1
102
RTVSPropertyOp10
 70
     1
102
RTVSPropertyOp11
 70
     1
102
RTVSPropertyOp12
 70
     1
102
RTVSPropertyOp13
 70
     1
102
RTVSPropertyOp14
 70
     1
102
RTVSPropertyOp15
 70
     1
102
RTVSPropertyOp16
 70
     1
102
RTVSPropertyOp17
 70
     1
102
RTVSPropertyOp18
 70
     1
102
RTVSPropertyOp19
 70
     1
102
RTVSPropertyOp20
 70
     1
102
RTVSPropertyOp21
 70
     1
102
RTVSPropertyOp22
 70
     1
102
RTVSPropertyOp23
 70
     1
102
RTVSPropertyOp24
 70
     1
102
RTVSPropertyOp25
 70
     1
102
RTVSPropertyOp26
 70
     1
102
RTVSPropertyOp27
 70
     1
102
RTVSPropertyOp28
 70
     1
102
RTVSPropertyOp29
 70
     1
102
RTVSPropertyOp30
 70
     1
102
RTVSPropertyOp31
 70
     1
102
RTVSPropertyOp32
 70
     1
102
RTVSPropertyOp33
 70
     1
102
RTVSPropertyOp34
 70
     1
102
RTVSPropertyOp35
 70
     1
102
RTVSPropertyOp36
 70
     1
102
RTVSPropertyOp37
 70
     1
102
RTVSPropertyOp38
 70
     1
102
RTVSPropertyOp39
 70
     1
102
RTVSPropertyOp40
 70
     1
102
RTVSPropertyOp41
 70
     1
102
RTVSPropertyOp42
 70
     1
102
RTVSPropertyOp43
 70
     1
102
RTVSPropertyOp44
 70
     1
102
RTVSPropertyOp45
 70
     1
102
RTVSPropertyOp46
 70
     1
102
RTVSPropertyOp47
 70
     1
102
RTVSPropertyOp48
 70
     1
102
RTVSPropertyOp49
 70
     1
102
RTVSPropertyOp50
 70
     1
102
RTVSPropertyOp51
 70
     0
102
RTVSPropertyOp52
 70
     0
102
RTVSPropertyOp53
 70
     1
102
RTVSPropertyOp54
 70
     1
102
RTVSPropertyOp55
 70
     1
102
RTVSPropertyOp56
 70
     1
102
RTVSPropertyOp57
 70
     1
102
RTVSPropertyOp58
 70
     1
102
RTVSPropertyOp59
 70
     1
102
RTVSPropertyOp60
 70
     1
102
RTVSPropertyOp61
 70
     1
102
RTVSPropertyOp62
 70
     1
  0
XRECORD
  5
108EB
102
{ACAD_REACTORS
330
108EA
102
}
330
108EA
100
AcDbXrecord
280
     1
102
RTVSPost2010Prop28
280
     0
102
RTVSPost2010PropOp28
 70
     1
102
RTVSPost2010Prop29
280
     1
102
RTVSPost2010PropOp29
 70
     1
102
RTVSPost2010Prop30
280
     1
102
RTVSPost2010PropOp30
 70
     1
102
RTVSPost2010Prop31
280
     0
102
RTVSPost2010PropOp31
 70
     1
102
RTVSPost2010Prop32
280
     0
102
RTVSPost2010PropOp32
 70
     1
102
RTVSPost2010Prop33
280
     0
102
RTVSPost2010PropOp33
 70
     1
102
RTVSPost2010Prop34
280
     0
102
RTVSPost2010PropOp34
 70
     1
102
RTVSPost2010Prop35
280
     0
102
RTVSPost2010PropOp35
 70
     1
102
RTVSPost2010Prop36
280
     0
102
RTVSPost2010PropOp36
 70
     1
102
RTVSPost2010Prop37
 90
       50
102
RTVSPost2010PropOp37
 70
     1
102
RTVSPost2010Prop38
140
0.0
102
RTVSPost2010PropOp38
 70
     1
102
RTVSPost2010Prop39
140
1.0
102
RTVSPost2010PropOp39
 70
     1
102
RTVSPost2010Prop40
 90
        0
102
RTVSPost2010PropOp40
 70
     1
102
RTVSPost2010Prop41ColorIndex
 90
       18
102
RTVSPost2010Prop41ColorRGB
 90
        0
102
RTVSPost2010PropOp41
 70
     1
102
RTVSPost2010Prop42
 90
       50
102
RTVSPost2010PropOp42
 70
     1
102
RTVSPost2010Prop43
 90
        3
102
RTVSPost2010PropOp43
 70
     1
102
RTVSPost2010Prop44ColorIndex
 90
        5
102
RTVSPost2010Prop44ColorRGB
 90
      255
102
RTVSPost2010PropOp44
 70
     1
102
RTVSPost2010Prop45
280
     0
102
RTVSPost2010PropOp45
 70
     1
102
RTVSPost2010Prop46
 90
       50
102
RTVSPost2010PropOp46
 70
     1
102
RTVSPost2010Prop47
 90
       50
102
RTVSPost2010PropOp47
 70
     1
102
RTVSPost2010Prop48
 90
       50
102
RTVSPost2010PropOp48
 70
     1
102
RTVSPost2010Prop49
280
     0
102
RTVSPost2010PropOp49
 70
     1
102
RTVSPost2010Prop50
 90
       50
102
RTVSPost2010PropOp50
 70
     1
102
RTVSPost2010Prop51ColorIndex
 90
      256
102
RTVSPost2010Prop51ColorRGB
 90
-16777216
102
RTVSPost2010PropOp51
 70
     0
102
RTVSPost2010Prop52
140
1.0
102
RTVSPost2010PropOp52
 70
     0
102
RTVSPost2010Prop53
 90
        2
102
RTVSPost2010PropOp53
 70
     1
102
RTVSPost2010Prop54
  1
strokes_ogs.tif
102
RTVSPost2010PropOp54
 70
     1
102
RTVSPost2010Prop55
280
     0
102
RTVSPost2010PropOp55
 70
     1
102
RTVSPost2010Prop56
140
1.0
102
RTVSPost2010PropOp56
 70
     1
102
RTVSPost2010Prop57
140
1.0
102
RTVSPost2010PropOp57
 70
     1
102
RTVSPropertyOp0
 70
     1
102
RTVSPropertyOp1
 70
     1
102
RTVSPropertyOp2
 70
     1
102
RTVSPropertyOp3
 70
     1
102
RTVSPropertyOp4
 70
     1
102
RTVSPropertyOp5
 70
     1
102
RTVSPropertyOp6
 70
     1
102
RTVSPropertyOp7
 70
     1
102
RTVSPropertyOp8
 70
     1
102
RTVSPropertyOp9
 70
     1
102
RTVSPropertyOp10
 70
     1
102
RTVSPropertyOp11
 70
     1
102
RTVSPropertyOp12
 70
     1
102
RTVSPropertyOp13
 70
     1
102
RTVSPropertyOp14
 70
     1
102
RTVSPropertyOp15
 70
     1
102
RTVSPropertyOp16
 70
     1
102
RTVSPropertyOp17
 70
     1
102
RTVSPropertyOp18
 70
     1
102
RTVSPropertyOp19
 70
     1
102
RTVSPropertyOp20
 70
     1
102
RTVSPropertyOp21
 70
     1
102
RTVSPropertyOp22
 70
     1
102
RTVSPropertyOp23
 70
     1
102
RTVSPropertyOp24
 70
     1
102
RTVSPropertyOp25
 70
     1
102
RTVSPropertyOp26
 70
     1
102
RTVSPropertyOp27
 70
     1
102
RTVSPropertyOp28
 70
     1
102
RTVSPropertyOp29
 70
     1
102
RTVSPropertyOp30
 70
     1
102
RTVSPropertyOp31
 70
     1
102
RTVSPropertyOp32
 70
     1
102
RTVSPropertyOp33
 70
     1
102
RTVSPropertyOp34
 70
     1
102
RTVSPropertyOp35
 70
     1
102
RTVSPropertyOp36
 70
     1
102
RTVSPropertyOp37
 70
     1
102
RTVSPropertyOp38
 70
     1
102
RTVSPropertyOp39
 70
     1
102
RTVSPropertyOp40
 70
     1
102
RTVSPropertyOp41
 70
     1
102
RTVSPropertyOp42
 70
     1
102
RTVSPropertyOp43
 70
     1
102
RTVSPropertyOp44
 70
     1
102
RTVSPropertyOp45
 70
     1
102
RTVSPropertyOp46
 70
     1
102
RTVSPropertyOp47
 70
     1
102
RTVSPropertyOp48
 70
     1
102
RTVSPropertyOp49
 70
     1
102
RTVSPropertyOp50
 70
     1
102
RTVSPropertyOp51
 70
     0
102
RTVSPropertyOp52
 70
     0
102
RTVSPropertyOp53
 70
     1
102
RTVSPropertyOp54
 70
     1
102
RTVSPropertyOp55
 70
     1
102
RTVSPropertyOp56
 70
     1
102
RTVSPropertyOp57
 70
     1
102
RTVSPropertyOp58
 70
     1
102
RTVSPropertyOp59
 70
     1
102
RTVSPropertyOp60
 70
     1
102
RTVSPropertyOp61
 70
     1
102
RTVSPropertyOp62
 70
     1
  0
XRECORD
  5
10905
102
{ACAD_REACTORS
330
10904
102
}
330
10904
100
AcDbXrecord
280
     1
102
RTVSPost2010Prop28
280
     0
102
RTVSPost2010PropOp28
 70
     1
102
RTVSPost2010Prop29
280
     1
102
RTVSPost2010PropOp29
 70
     1
102
RTVSPost2010Prop30
280
     1
102
RTVSPost2010PropOp30
 70
     1
102
RTVSPost2010Prop31
280
     0
102
RTVSPost2010PropOp31
 70
     1
102
RTVSPost2010Prop32
280
     0
102
RTVSPost2010PropOp32
 70
     1
102
RTVSPost2010Prop33
280
     0
102
RTVSPost2010PropOp33
 70
     1
102
RTVSPost2010Prop34
280
     0
102
RTVSPost2010PropOp34
 70
     1
102
RTVSPost2010Prop35
280
     0
102
RTVSPost2010PropOp35
 70
     1
102
RTVSPost2010Prop36
280
     0
102
RTVSPost2010PropOp36
 70
     1
102
RTVSPost2010Prop37
 90
       50
102
RTVSPost2010PropOp37
 70
     1
102
RTVSPost2010Prop38
140
0.0
102
RTVSPost2010PropOp38
 70
     1
102
RTVSPost2010Prop39
140
1.0
102
RTVSPost2010PropOp39
 70
     1
102
RTVSPost2010Prop40
 90
        0
102
RTVSPost2010PropOp40
 70
     1
102
RTVSPost2010Prop41ColorIndex
 90
       18
102
RTVSPost2010Prop41ColorRGB
 90
        0
102
RTVSPost2010PropOp41
 70
     1
102
RTVSPost2010Prop42
 90
       50
102
RTVSPost2010PropOp42
 70
     1
102
RTVSPost2010Prop43
 90
        3
102
RTVSPost2010PropOp43
 70
     1
102
RTVSPost2010Prop44ColorIndex
 90
        5
102
RTVSPost2010Prop44ColorRGB
 90
      255
102
RTVSPost2010PropOp44
 70
     1
102
RTVSPost2010Prop45
280
     0
102
RTVSPost2010PropOp45
 70
     1
102
RTVSPost2010Prop46
 90
       50
102
RTVSPost2010PropOp46
 70
     1
102
RTVSPost2010Prop47
 90
       50
102
RTVSPost2010PropOp47
 70
     1
102
RTVSPost2010Prop48
 90
       50
102
RTVSPost2010PropOp48
 70
     1
102
RTVSPost2010Prop49
280
     0
102
RTVSPost2010PropOp49
 70
     1
102
RTVSPost2010Prop50
 90
       50
102
RTVSPost2010PropOp50
 70
     1
102
RTVSPost2010Prop51ColorIndex
 90
      256
102
RTVSPost2010Prop51ColorRGB
 90
-16777216
102
RTVSPost2010PropOp51
 70
     0
102
RTVSPost2010Prop52
140
1.0
102
RTVSPost2010PropOp52
 70
     0
102
RTVSPost2010Prop53
 90
        2
102
RTVSPost2010PropOp53
 70
     1
102
RTVSPost2010Prop54
  1
strokes_ogs.tif
102
RTVSPost2010PropOp54
 70
     1
102
RTVSPost2010Prop55
280
     0
102
RTVSPost2010PropOp55
 70
     1
102
RTVSPost2010Prop56
140
1.0
102
RTVSPost2010PropOp56
 70
     1
102
RTVSPost2010Prop57
140
1.0
102
RTVSPost2010PropOp57
 70
     1
102
RTVSPropertyOp0
 70
     1
102
RTVSPropertyOp1
 70
     1
102
RTVSPropertyOp2
 70
     1
102
RTVSPropertyOp3
 70
     1
102
RTVSPropertyOp4
 70
     1
102
RTVSPropertyOp5
 70
     1
102
RTVSPropertyOp6
 70
     1
102
RTVSPropertyOp7
 70
     1
102
RTVSPropertyOp8
 70
     1
102
RTVSPropertyOp9
 70
     1
102
RTVSPropertyOp10
 70
     1
102
RTVSPropertyOp11
 70
     1
102
RTVSPropertyOp12
 70
     1
102
RTVSPropertyOp13
 70
     1
102
RTVSPropertyOp14
 70
     1
102
RTVSPropertyOp15
 70
     1
102
RTVSPropertyOp16
 70
     1
102
RTVSPropertyOp17
 70
     1
102
RTVSPropertyOp18
 70
     1
102
RTVSPropertyOp19
 70
     1
102
RTVSPropertyOp20
 70
     1
102
RTVSPropertyOp21
 70
     1
102
RTVSPropertyOp22
 70
     1
102
RTVSPropertyOp23
 70
     1
102
RTVSPropertyOp24
 70
     1
102
RTVSPropertyOp25
 70
     1
102
RTVSPropertyOp26
 70
     1
102
RTVSPropertyOp27
 70
     1
102
RTVSPropertyOp28
 70
     1
102
RTVSPropertyOp29
 70
     1
102
RTVSPropertyOp30
 70
     1
102
RTVSPropertyOp31
 70
     1
102
RTVSPropertyOp32
 70
     1
102
RTVSPropertyOp33
 70
     1
102
RTVSPropertyOp34
 70
     1
102
RTVSPropertyOp35
 70
     1
102
RTVSPropertyOp36
 70
     1
102
RTVSPropertyOp37
 70
     1
102
RTVSPropertyOp38
 70
     1
102
RTVSPropertyOp39
 70
     1
102
RTVSPropertyOp40
 70
     1
102
RTVSPropertyOp41
 70
     1
102
RTVSPropertyOp42
 70
     1
102
RTVSPropertyOp43
 70
     1
102
RTVSPropertyOp44
 70
     1
102
RTVSPropertyOp45
 70
     1
102
RTVSPropertyOp46
 70
     1
102
RTVSPropertyOp47
 70
     1
102
RTVSPropertyOp48
 70
     1
102
RTVSPropertyOp49
 70
     1
102
RTVSPropertyOp50
 70
     1
102
RTVSPropertyOp51
 70
     0
102
RTVSPropertyOp52
 70
     0
102
RTVSPropertyOp53
 70
     1
102
RTVSPropertyOp54
 70
     1
102
RTVSPropertyOp55
 70
     1
102
RTVSPropertyOp56
 70
     1
102
RTVSPropertyOp57
 70
     1
102
RTVSPropertyOp58
 70
     1
102
RTVSPropertyOp59
 70
     1
102
RTVSPropertyOp60
 70
     1
102
RTVSPropertyOp61
 70
     1
102
RTVSPropertyOp62
 70
     1
  0
XRECORD
  5
108F3
102
{ACAD_REACTORS
330
108F2
102
}
330
108F2
100
AcDbXrecord
280
     1
102
RTVSPost2010Prop28
280
     0
102
RTVSPost2010PropOp28
 70
     1
102
RTVSPost2010Prop29
280
     1
102
RTVSPost2010PropOp29
 70
     1
102
RTVSPost2010Prop30
280
     1
102
RTVSPost2010PropOp30
 70
     1
102
RTVSPost2010Prop31
280
     0
102
RTVSPost2010PropOp31
 70
     1
102
RTVSPost2010Prop32
280
     0
102
RTVSPost2010PropOp32
 70
     1
102
RTVSPost2010Prop33
280
     0
102
RTVSPost2010PropOp33
 70
     1
102
RTVSPost2010Prop34
280
     0
102
RTVSPost2010PropOp34
 70
     1
102
RTVSPost2010Prop35
280
     0
102
RTVSPost2010PropOp35
 70
     1
102
RTVSPost2010Prop36
280
     0
102
RTVSPost2010PropOp36
 70
     1
102
RTVSPost2010Prop37
 90
       50
102
RTVSPost2010PropOp37
 70
     1
102
RTVSPost2010Prop38
140
0.0
102
RTVSPost2010PropOp38
 70
     1
102
RTVSPost2010Prop39
140
1.0
102
RTVSPost2010PropOp39
 70
     1
102
RTVSPost2010Prop40
 90
        0
102
RTVSPost2010PropOp40
 70
     1
102
RTVSPost2010Prop41ColorIndex
 90
       18
102
RTVSPost2010Prop41ColorRGB
 90
        0
102
RTVSPost2010PropOp41
 70
     1
102
RTVSPost2010Prop42
 90
       50
102
RTVSPost2010PropOp42
 70
     1
102
RTVSPost2010Prop43
 90
        3
102
RTVSPost2010PropOp43
 70
     1
102
RTVSPost2010Prop44ColorIndex
 90
        5
102
RTVSPost2010Prop44ColorRGB
 90
      255
102
RTVSPost2010PropOp44
 70
     1
102
RTVSPost2010Prop45
280
     0
102
RTVSPost2010PropOp45
 70
     1
102
RTVSPost2010Prop46
 90
       50
102
RTVSPost2010PropOp46
 70
     1
102
RTVSPost2010Prop47
 90
       50
102
RTVSPost2010PropOp47
 70
     1
102
RTVSPost2010Prop48
 90
       50
102
RTVSPost2010PropOp48
 70
     1
102
RTVSPost2010Prop49
280
     0
102
RTVSPost2010PropOp49
 70
     1
102
RTVSPost2010Prop50
 90
       50
102
RTVSPost2010PropOp50
 70
     1
102
RTVSPost2010Prop51ColorIndex
 90
      256
102
RTVSPost2010Prop51ColorRGB
 90
-16777216
102
RTVSPost2010PropOp51
 70
     0
102
RTVSPost2010Prop52
140
1.0
102
RTVSPost2010PropOp52
 70
     0
102
RTVSPost2010Prop53
 90
        2
102
RTVSPost2010PropOp53
 70
     1
102
RTVSPost2010Prop54
  1
strokes_ogs.tif
102
RTVSPost2010PropOp54
 70
     1
102
RTVSPost2010Prop55
280
     0
102
RTVSPost2010PropOp55
 70
     1
102
RTVSPost2010Prop56
140
1.0
102
RTVSPost2010PropOp56
 70
     1
102
RTVSPost2010Prop57
140
1.0
102
RTVSPost2010PropOp57
 70
     1
102
RTVSPropertyOp0
 70
     1
102
RTVSPropertyOp1
 70
     1
102
RTVSPropertyOp2
 70
     1
102
RTVSPropertyOp3
 70
     1
102
RTVSPropertyOp4
 70
     1
102
RTVSPropertyOp5
 70
     1
102
RTVSPropertyOp6
 70
     1
102
RTVSPropertyOp7
 70
     1
102
RTVSPropertyOp8
 70
     1
102
RTVSPropertyOp9
 70
     1
102
RTVSPropertyOp10
 70
     1
102
RTVSPropertyOp11
 70
     1
102
RTVSPropertyOp12
 70
     1
102
RTVSPropertyOp13
 70
     1
102
RTVSPropertyOp14
 70
     1
102
RTVSPropertyOp15
 70
     1
102
RTVSPropertyOp16
 70
     1
102
RTVSPropertyOp17
 70
     1
102
RTVSPropertyOp18
 70
     1
102
RTVSPropertyOp19
 70
     1
102
RTVSPropertyOp20
 70
     1
102
RTVSPropertyOp21
 70
     1
102
RTVSPropertyOp22
 70
     1
102
RTVSPropertyOp23
 70
     1
102
RTVSPropertyOp24
 70
     1
102
RTVSPropertyOp25
 70
     1
102
RTVSPropertyOp26
 70
     1
102
RTVSPropertyOp27
 70
     1
102
RTVSPropertyOp28
 70
     1
102
RTVSPropertyOp29
 70
     1
102
RTVSPropertyOp30
 70
     1
102
RTVSPropertyOp31
 70
     1
102
RTVSPropertyOp32
 70
     1
102
RTVSPropertyOp33
 70
     1
102
RTVSPropertyOp34
 70
     1
102
RTVSPropertyOp35
 70
     1
102
RTVSPropertyOp36
 70
     1
102
RTVSPropertyOp37
 70
     1
102
RTVSPropertyOp38
 70
     1
102
RTVSPropertyOp39
 70
     1
102
RTVSPropertyOp40
 70
     1
102
RTVSPropertyOp41
 70
     1
102
RTVSPropertyOp42
 70
     1
102
RTVSPropertyOp43
 70
     1
102
RTVSPropertyOp44
 70
     1
102
RTVSPropertyOp45
 70
     1
102
RTVSPropertyOp46
 70
     1
102
RTVSPropertyOp47
 70
     1
102
RTVSPropertyOp48
 70
     1
102
RTVSPropertyOp49
 70
     1
102
RTVSPropertyOp50
 70
     1
102
RTVSPropertyOp51
 70
     0
102
RTVSPropertyOp52
 70
     0
102
RTVSPropertyOp53
 70
     1
102
RTVSPropertyOp54
 70
     1
102
RTVSPropertyOp55
 70
     1
102
RTVSPropertyOp56
 70
     1
102
RTVSPropertyOp57
 70
     1
102
RTVSPropertyOp58
 70
     1
102
RTVSPropertyOp59
 70
     1
102
RTVSPropertyOp60
 70
     1
102
RTVSPropertyOp61
 70
     1
102
RTVSPropertyOp62
 70
     1
  0
XRECORD
  5
108E3
102
{ACAD_REACTORS
330
108E2
102
}
330
108E2
100
AcDbXrecord
280
     1
102
RTVSPost2010Prop28
280
     0
102
RTVSPost2010PropOp28
 70
     1
102
RTVSPost2010Prop29
280
     1
102
RTVSPost2010PropOp29
 70
     1
102
RTVSPost2010Prop30
280
     1
102
RTVSPost2010PropOp30
 70
     1
102
RTVSPost2010Prop31
280
     0
102
RTVSPost2010PropOp31
 70
     1
102
RTVSPost2010Prop32
280
     0
102
RTVSPost2010PropOp32
 70
     1
102
RTVSPost2010Prop33
280
     0
102
RTVSPost2010PropOp33
 70
     1
102
RTVSPost2010Prop34
280
     0
102
RTVSPost2010PropOp34
 70
     1
102
RTVSPost2010Prop35
280
     0
102
RTVSPost2010PropOp35
 70
     1
102
RTVSPost2010Prop36
280
     0
102
RTVSPost2010PropOp36
 70
     1
102
RTVSPost2010Prop37
 90
       50
102
RTVSPost2010PropOp37
 70
     1
102
RTVSPost2010Prop38
140
0.0
102
RTVSPost2010PropOp38
 70
     1
102
RTVSPost2010Prop39
140
1.0
102
RTVSPost2010PropOp39
 70
     1
102
RTVSPost2010Prop40
 90
        0
102
RTVSPost2010PropOp40
 70
     1
102
RTVSPost2010Prop41ColorIndex
 90
       18
102
RTVSPost2010Prop41ColorRGB
 90
        0
102
RTVSPost2010PropOp41
 70
     1
102
RTVSPost2010Prop42
 90
       50
102
RTVSPost2010PropOp42
 70
     1
102
RTVSPost2010Prop43
 90
        3
102
RTVSPost2010PropOp43
 70
     1
102
RTVSPost2010Prop44ColorIndex
 90
        5
102
RTVSPost2010Prop44ColorRGB
 90
      255
102
RTVSPost2010PropOp44
 70
     1
102
RTVSPost2010Prop45
280
     0
102
RTVSPost2010PropOp45
 70
     1
102
RTVSPost2010Prop46
 90
       50
102
RTVSPost2010PropOp46
 70
     1
102
RTVSPost2010Prop47
 90
       50
102
RTVSPost2010PropOp47
 70
     1
102
RTVSPost2010Prop48
 90
       50
102
RTVSPost2010PropOp48
 70
     1
102
RTVSPost2010Prop49
280
     0
102
RTVSPost2010PropOp49
 70
     1
102
RTVSPost2010Prop50
 90
       50
102
RTVSPost2010PropOp50
 70
     1
102
RTVSPost2010Prop51ColorIndex
 90
      256
102
RTVSPost2010Prop51ColorRGB
 90
-16777216
102
RTVSPost2010PropOp51
 70
     0
102
RTVSPost2010Prop52
140
1.0
102
RTVSPost2010PropOp52
 70
     0
102
RTVSPost2010Prop53
 90
        2
102
RTVSPost2010PropOp53
 70
     1
102
RTVSPost2010Prop54
  1
strokes_ogs.tif
102
RTVSPost2010PropOp54
 70
     1
102
RTVSPost2010Prop55
280
     0
102
RTVSPost2010PropOp55
 70
     1
102
RTVSPost2010Prop56
140
1.0
102
RTVSPost2010PropOp56
 70
     1
102
RTVSPost2010Prop57
140
1.0
102
RTVSPost2010PropOp57
 70
     1
102
RTVSPropertyOp0
 70
     1
102
RTVSPropertyOp1
 70
     1
102
RTVSPropertyOp2
 70
     1
102
RTVSPropertyOp3
 70
     1
102
RTVSPropertyOp4
 70
     1
102
RTVSPropertyOp5
 70
     1
102
RTVSPropertyOp6
 70
     1
102
RTVSPropertyOp7
 70
     1
102
RTVSPropertyOp8
 70
     1
102
RTVSPropertyOp9
 70
     1
102
RTVSPropertyOp10
 70
     1
102
RTVSPropertyOp11
 70
     1
102
RTVSPropertyOp12
 70
     1
102
RTVSPropertyOp13
 70
     1
102
RTVSPropertyOp14
 70
     1
102
RTVSPropertyOp15
 70
     1
102
RTVSPropertyOp16
 70
     1
102
RTVSPropertyOp17
 70
     1
102
RTVSPropertyOp18
 70
     1
102
RTVSPropertyOp19
 70
     1
102
RTVSPropertyOp20
 70
     1
102
RTVSPropertyOp21
 70
     1
102
RTVSPropertyOp22
 70
     1
102
RTVSPropertyOp23
 70
     1
102
RTVSPropertyOp24
 70
     1
102
RTVSPropertyOp25
 70
     1
102
RTVSPropertyOp26
 70
     1
102
RTVSPropertyOp27
 70
     1
102
RTVSPropertyOp28
 70
     1
102
RTVSPropertyOp29
 70
     1
102
RTVSPropertyOp30
 70
     1
102
RTVSPropertyOp31
 70
     1
102
RTVSPropertyOp32
 70
     1
102
RTVSPropertyOp33
 70
     1
102
RTVSPropertyOp34
 70
     1
102
RTVSPropertyOp35
 70
     1
102
RTVSPropertyOp36
 70
     1
102
RTVSPropertyOp37
 70
     1
102
RTVSPropertyOp38
 70
     1
102
RTVSPropertyOp39
 70
     1
102
RTVSPropertyOp40
 70
     1
102
RTVSPropertyOp41
 70
     1
102
RTVSPropertyOp42
 70
     1
102
RTVSPropertyOp43
 70
     1
102
RTVSPropertyOp44
 70
     1
102
RTVSPropertyOp45
 70
     1
102
RTVSPropertyOp46
 70
     1
102
RTVSPropertyOp47
 70
     1
102
RTVSPropertyOp48
 70
     1
102
RTVSPropertyOp49
 70
     1
102
RTVSPropertyOp50
 70
     1
102
RTVSPropertyOp51
 70
     0
102
RTVSPropertyOp52
 70
     0
102
RTVSPropertyOp53
 70
     1
102
RTVSPropertyOp54
 70
     1
102
RTVSPropertyOp55
 70
     1
102
RTVSPropertyOp56
 70
     1
102
RTVSPropertyOp57
 70
     1
102
RTVSPropertyOp58
 70
     1
102
RTVSPropertyOp59
 70
     1
102
RTVSPropertyOp60
 70
     1
102
RTVSPropertyOp61
 70
     1
102
RTVSPropertyOp62
 70
     1
  0
XRECORD
  5
10903
102
{ACAD_REACTORS
330
10902
102
}
330
10902
100
AcDbXrecord
280
     1
102
RTVSPost2010Prop28
280
     0
102
RTVSPost2010PropOp28
 70
     1
102
RTVSPost2010Prop29
280
     1
102
RTVSPost2010PropOp29
 70
     1
102
RTVSPost2010Prop30
280
     1
102
RTVSPost2010PropOp30
 70
     1
102
RTVSPost2010Prop31
280
     0
102
RTVSPost2010PropOp31
 70
     1
102
RTVSPost2010Prop32
280
     0
102
RTVSPost2010PropOp32
 70
     1
102
RTVSPost2010Prop33
280
     0
102
RTVSPost2010PropOp33
 70
     1
102
RTVSPost2010Prop34
280
     0
102
RTVSPost2010PropOp34
 70
     1
102
RTVSPost2010Prop35
280
     0
102
RTVSPost2010PropOp35
 70
     1
102
RTVSPost2010Prop36
280
     0
102
RTVSPost2010PropOp36
 70
     1
102
RTVSPost2010Prop37
 90
       50
102
RTVSPost2010PropOp37
 70
     1
102
RTVSPost2010Prop38
140
0.0
102
RTVSPost2010PropOp38
 70
     1
102
RTVSPost2010Prop39
140
1.0
102
RTVSPost2010PropOp39
 70
     1
102
RTVSPost2010Prop40
 90
        0
102
RTVSPost2010PropOp40
 70
     1
102
RTVSPost2010Prop41ColorIndex
 90
       18
102
RTVSPost2010Prop41ColorRGB
 90
        0
102
RTVSPost2010PropOp41
 70
     1
102
RTVSPost2010Prop42
 90
       50
102
RTVSPost2010PropOp42
 70
     1
102
RTVSPost2010Prop43
 90
        3
102
RTVSPost2010PropOp43
 70
     1
102
RTVSPost2010Prop44ColorIndex
 90
        5
102
RTVSPost2010Prop44ColorRGB
 90
      255
102
RTVSPost2010PropOp44
 70
     1
102
RTVSPost2010Prop45
280
     0
102
RTVSPost2010PropOp45
 70
     1
102
RTVSPost2010Prop46
 90
       50
102
RTVSPost2010PropOp46
 70
     1
102
RTVSPost2010Prop47
 90
       50
102
RTVSPost2010PropOp47
 70
     1
102
RTVSPost2010Prop48
 90
       50
102
RTVSPost2010PropOp48
 70
     1
102
RTVSPost2010Prop49
280
     0
102
RTVSPost2010PropOp49
 70
     1
102
RTVSPost2010Prop50
 90
       50
102
RTVSPost2010PropOp50
 70
     1
102
RTVSPost2010Prop51ColorIndex
 90
      256
102
RTVSPost2010Prop51ColorRGB
 90
-16777216
102
RTVSPost2010PropOp51
 70
     0
102
RTVSPost2010Prop52
140
1.0
102
RTVSPost2010PropOp52
 70
     0
102
RTVSPost2010Prop53
 90
        2
102
RTVSPost2010PropOp53
 70
     1
102
RTVSPost2010Prop54
  1
strokes_ogs.tif
102
RTVSPost2010PropOp54
 70
     1
102
RTVSPost2010Prop55
280
     0
102
RTVSPost2010PropOp55
 70
     1
102
RTVSPost2010Prop56
140
1.0
102
RTVSPost2010PropOp56
 70
     1
102
RTVSPost2010Prop57
140
1.0
102
RTVSPost2010PropOp57
 70
     1
102
RTVSPropertyOp0
 70
     1
102
RTVSPropertyOp1
 70
     1
102
RTVSPropertyOp2
 70
     1
102
RTVSPropertyOp3
 70
     1
102
RTVSPropertyOp4
 70
     1
102
RTVSPropertyOp5
 70
     1
102
RTVSPropertyOp6
 70
     1
102
RTVSPropertyOp7
 70
     1
102
RTVSPropertyOp8
 70
     1
102
RTVSPropertyOp9
 70
     1
102
RTVSPropertyOp10
 70
     1
102
RTVSPropertyOp11
 70
     1
102
RTVSPropertyOp12
 70
     1
102
RTVSPropertyOp13
 70
     1
102
RTVSPropertyOp14
 70
     1
102
RTVSPropertyOp15
 70
     1
102
RTVSPropertyOp16
 70
     1
102
RTVSPropertyOp17
 70
     1
102
RTVSPropertyOp18
 70
     1
102
RTVSPropertyOp19
 70
     1
102
RTVSPropertyOp20
 70
     1
102
RTVSPropertyOp21
 70
     1
102
RTVSPropertyOp22
 70
     1
102
RTVSPropertyOp23
 70
     1
102
RTVSPropertyOp24
 70
     1
102
RTVSPropertyOp25
 70
     1
102
RTVSPropertyOp26
 70
     1
102
RTVSPropertyOp27
 70
     1
102
RTVSPropertyOp28
 70
     1
102
RTVSPropertyOp29
 70
     1
102
RTVSPropertyOp30
 70
     1
102
RTVSPropertyOp31
 70
     1
102
RTVSPropertyOp32
 70
     1
102
RTVSPropertyOp33
 70
     1
102
RTVSPropertyOp34
 70
     1
102
RTVSPropertyOp35
 70
     1
102
RTVSPropertyOp36
 70
     1
102
RTVSPropertyOp37
 70
     1
102
RTVSPropertyOp38
 70
     1
102
RTVSPropertyOp39
 70
     1
102
RTVSPropertyOp40
 70
     1
102
RTVSPropertyOp41
 70
     1
102
RTVSPropertyOp42
 70
     1
102
RTVSPropertyOp43
 70
     1
102
RTVSPropertyOp44
 70
     1
102
RTVSPropertyOp45
 70
     1
102
RTVSPropertyOp46
 70
     1
102
RTVSPropertyOp47
 70
     1
102
RTVSPropertyOp48
 70
     1
102
RTVSPropertyOp49
 70
     1
102
RTVSPropertyOp50
 70
     1
102
RTVSPropertyOp51
 70
     0
102
RTVSPropertyOp52
 70
     0
102
RTVSPropertyOp53
 70
     1
102
RTVSPropertyOp54
 70
     1
102
RTVSPropertyOp55
 70
     1
102
RTVSPropertyOp56
 70
     1
102
RTVSPropertyOp57
 70
     1
102
RTVSPropertyOp58
 70
     1
102
RTVSPropertyOp59
 70
     1
102
RTVSPropertyOp60
 70
     1
102
RTVSPropertyOp61
 70
     1
102
RTVSPropertyOp62
 70
     1
  0
XRECORD
  5
1090B
102
{ACAD_REACTORS
330
1090A
102
}
330
1090A
100
AcDbXrecord
280
     1
102
RTVSPost2010Prop28
280
     0
102
RTVSPost2010PropOp28
 70
     1
102
RTVSPost2010Prop29
280
     1
102
RTVSPost2010PropOp29
 70
     1
102
RTVSPost2010Prop30
280
     1
102
RTVSPost2010PropOp30
 70
     1
102
RTVSPost2010Prop31
280
     0
102
RTVSPost2010PropOp31
 70
     1
102
RTVSPost2010Prop32
280
     0
102
RTVSPost2010PropOp32
 70
     1
102
RTVSPost2010Prop33
280
     0
102
RTVSPost2010PropOp33
 70
     1
102
RTVSPost2010Prop34
280
     0
102
RTVSPost2010PropOp34
 70
     1
102
RTVSPost2010Prop35
280
     0
102
RTVSPost2010PropOp35
 70
     1
102
RTVSPost2010Prop36
280
     0
102
RTVSPost2010PropOp36
 70
     1
102
RTVSPost2010Prop37
 90
       50
102
RTVSPost2010PropOp37
 70
     1
102
RTVSPost2010Prop38
140
0.0
102
RTVSPost2010PropOp38
 70
     1
102
RTVSPost2010Prop39
140
1.0
102
RTVSPost2010PropOp39
 70
     1
102
RTVSPost2010Prop40
 90
        0
102
RTVSPost2010PropOp40
 70
     1
102
RTVSPost2010Prop41ColorIndex
 90
       18
102
RTVSPost2010Prop41ColorRGB
 90
        0
102
RTVSPost2010PropOp41
 70
     1
102
RTVSPost2010Prop42
 90
       50
102
RTVSPost2010PropOp42
 70
     1
102
RTVSPost2010Prop43
 90
        3
102
RTVSPost2010PropOp43
 70
     1
102
RTVSPost2010Prop44ColorIndex
 90
        5
102
RTVSPost2010Prop44ColorRGB
 90
      255
102
RTVSPost2010PropOp44
 70
     1
102
RTVSPost2010Prop45
280
     0
102
RTVSPost2010PropOp45
 70
     1
102
RTVSPost2010Prop46
 90
       50
102
RTVSPost2010PropOp46
 70
     1
102
RTVSPost2010Prop47
 90
       50
102
RTVSPost2010PropOp47
 70
     1
102
RTVSPost2010Prop48
 90
       50
102
RTVSPost2010PropOp48
 70
     1
102
RTVSPost2010Prop49
280
     0
102
RTVSPost2010PropOp49
 70
     1
102
RTVSPost2010Prop50
 90
       50
102
RTVSPost2010PropOp50
 70
     1
102
RTVSPost2010Prop51ColorIndex
 90
      256
102
RTVSPost2010Prop51ColorRGB
 90
-16777216
102
RTVSPost2010PropOp51
 70
     0
102
RTVSPost2010Prop52
140
1.0
102
RTVSPost2010PropOp52
 70
     0
102
RTVSPost2010Prop53
 90
        2
102
RTVSPost2010PropOp53
 70
     1
102
RTVSPost2010Prop54
  1
strokes_ogs.tif
102
RTVSPost2010PropOp54
 70
     1
102
RTVSPost2010Prop55
280
     0
102
RTVSPost2010PropOp55
 70
     1
102
RTVSPost2010Prop56
140
1.0
102
RTVSPost2010PropOp56
 70
     1
102
RTVSPost2010Prop57
140
1.0
102
RTVSPost2010PropOp57
 70
     1
102
RTVSPropertyOp0
 70
     1
102
RTVSPropertyOp1
 70
     1
102
RTVSPropertyOp2
 70
     1
102
RTVSPropertyOp3
 70
     1
102
RTVSPropertyOp4
 70
     1
102
RTVSPropertyOp5
 70
     1
102
RTVSPropertyOp6
 70
     1
102
RTVSPropertyOp7
 70
     1
102
RTVSPropertyOp8
 70
     1
102
RTVSPropertyOp9
 70
     1
102
RTVSPropertyOp10
 70
     1
102
RTVSPropertyOp11
 70
     1
102
RTVSPropertyOp12
 70
     1
102
RTVSPropertyOp13
 70
     1
102
RTVSPropertyOp14
 70
     1
102
RTVSPropertyOp15
 70
     1
102
RTVSPropertyOp16
 70
     1
102
RTVSPropertyOp17
 70
     1
102
RTVSPropertyOp18
 70
     1
102
RTVSPropertyOp19
 70
     1
102
RTVSPropertyOp20
 70
     1
102
RTVSPropertyOp21
 70
     1
102
RTVSPropertyOp22
 70
     1
102
RTVSPropertyOp23
 70
     1
102
RTVSPropertyOp24
 70
     1
102
RTVSPropertyOp25
 70
     1
102
RTVSPropertyOp26
 70
     1
102
RTVSPropertyOp27
 70
     1
102
RTVSPropertyOp28
 70
     1
102
RTVSPropertyOp29
 70
     1
102
RTVSPropertyOp30
 70
     1
102
RTVSPropertyOp31
 70
     1
102
RTVSPropertyOp32
 70
     1
102
RTVSPropertyOp33
 70
     1
102
RTVSPropertyOp34
 70
     1
102
RTVSPropertyOp35
 70
     1
102
RTVSPropertyOp36
 70
     1
102
RTVSPropertyOp37
 70
     1
102
RTVSPropertyOp38
 70
     1
102
RTVSPropertyOp39
 70
     1
102
RTVSPropertyOp40
 70
     1
102
RTVSPropertyOp41
 70
     1
102
RTVSPropertyOp42
 70
     1
102
RTVSPropertyOp43
 70
     1
102
RTVSPropertyOp44
 70
     1
102
RTVSPropertyOp45
 70
     1
102
RTVSPropertyOp46
 70
     1
102
RTVSPropertyOp47
 70
     1
102
RTVSPropertyOp48
 70
     1
102
RTVSPropertyOp49
 70
     1
102
RTVSPropertyOp50
 70
     1
102
RTVSPropertyOp51
 70
     0
102
RTVSPropertyOp52
 70
     0
102
RTVSPropertyOp53
 70
     1
102
RTVSPropertyOp54
 70
     1
102
RTVSPropertyOp55
 70
     1
102
RTVSPropertyOp56
 70
     1
102
RTVSPropertyOp57
 70
     1
102
RTVSPropertyOp58
 70
     1
102
RTVSPropertyOp59
 70
     1
102
RTVSPropertyOp60
 70
     1
102
RTVSPropertyOp61
 70
     1
102
RTVSPropertyOp62
 70
     1
  0
XRECORD
  5
10901
102
{ACAD_REACTORS
330
10900
102
}
330
10900
100
AcDbXrecord
280
     1
102
RTVSPost2010Prop28
280
     0
102
RTVSPost2010PropOp28
 70
     1
102
RTVSPost2010Prop29
280
     1
102
RTVSPost2010PropOp29
 70
     1
102
RTVSPost2010Prop30
280
     1
102
RTVSPost2010PropOp30
 70
     1
102
RTVSPost2010Prop31
280
     0
102
RTVSPost2010PropOp31
 70
     1
102
RTVSPost2010Prop32
280
     0
102
RTVSPost2010PropOp32
 70
     1
102
RTVSPost2010Prop33
280
     0
102
RTVSPost2010PropOp33
 70
     1
102
RTVSPost2010Prop34
280
     0
102
RTVSPost2010PropOp34
 70
     1
102
RTVSPost2010Prop35
280
     0
102
RTVSPost2010PropOp35
 70
     1
102
RTVSPost2010Prop36
280
     0
102
RTVSPost2010PropOp36
 70
     1
102
RTVSPost2010Prop37
 90
       50
102
RTVSPost2010PropOp37
 70
     1
102
RTVSPost2010Prop38
140
0.0
102
RTVSPost2010PropOp38
 70
     1
102
RTVSPost2010Prop39
140
1.0
102
RTVSPost2010PropOp39
 70
     1
102
RTVSPost2010Prop40
 90
        0
102
RTVSPost2010PropOp40
 70
     1
102
RTVSPost2010Prop41ColorIndex
 90
       18
102
RTVSPost2010Prop41ColorRGB
 90
        0
102
RTVSPost2010PropOp41
 70
     1
102
RTVSPost2010Prop42
 90
       50
102
RTVSPost2010PropOp42
 70
     1
102
RTVSPost2010Prop43
 90
        3
102
RTVSPost2010PropOp43
 70
     1
102
RTVSPost2010Prop44ColorIndex
 90
        5
102
RTVSPost2010Prop44ColorRGB
 90
      255
102
RTVSPost2010PropOp44
 70
     1
102
RTVSPost2010Prop45
280
     0
102
RTVSPost2010PropOp45
 70
     1
102
RTVSPost2010Prop46
 90
       50
102
RTVSPost2010PropOp46
 70
     1
102
RTVSPost2010Prop47
 90
       50
102
RTVSPost2010PropOp47
 70
     1
102
RTVSPost2010Prop48
 90
       50
102
RTVSPost2010PropOp48
 70
     1
102
RTVSPost2010Prop49
280
     0
102
RTVSPost2010PropOp49
 70
     1
102
RTVSPost2010Prop50
 90
       50
102
RTVSPost2010PropOp50
 70
     1
102
RTVSPost2010Prop51ColorIndex
 90
      256
102
RTVSPost2010Prop51ColorRGB
 90
-16777216
102
RTVSPost2010PropOp51
 70
     0
102
RTVSPost2010Prop52
140
1.0
102
RTVSPost2010PropOp52
 70
     0
102
RTVSPost2010Prop53
 90
        2
102
RTVSPost2010PropOp53
 70
     1
102
RTVSPost2010Prop54
  1
strokes_ogs.tif
102
RTVSPost2010PropOp54
 70
     1
102
RTVSPost2010Prop55
280
     0
102
RTVSPost2010PropOp55
 70
     1
102
RTVSPost2010Prop56
140
1.0
102
RTVSPost2010PropOp56
 70
     1
102
RTVSPost2010Prop57
140
1.0
102
RTVSPost2010PropOp57
 70
     1
102
RTVSPropertyOp0
 70
     1
102
RTVSPropertyOp1
 70
     1
102
RTVSPropertyOp2
 70
     1
102
RTVSPropertyOp3
 70
     1
102
RTVSPropertyOp4
 70
     1
102
RTVSPropertyOp5
 70
     1
102
RTVSPropertyOp6
 70
     1
102
RTVSPropertyOp7
 70
     1
102
RTVSPropertyOp8
 70
     1
102
RTVSPropertyOp9
 70
     1
102
RTVSPropertyOp10
 70
     1
102
RTVSPropertyOp11
 70
     1
102
RTVSPropertyOp12
 70
     1
102
RTVSPropertyOp13
 70
     1
102
RTVSPropertyOp14
 70
     1
102
RTVSPropertyOp15
 70
     1
102
RTVSPropertyOp16
 70
     1
102
RTVSPropertyOp17
 70
     1
102
RTVSPropertyOp18
 70
     1
102
RTVSPropertyOp19
 70
     1
102
RTVSPropertyOp20
 70
     1
102
RTVSPropertyOp21
 70
     1
102
RTVSPropertyOp22
 70
     1
102
RTVSPropertyOp23
 70
     1
102
RTVSPropertyOp24
 70
     1
102
RTVSPropertyOp25
 70
     1
102
RTVSPropertyOp26
 70
     1
102
RTVSPropertyOp27
 70
     1
102
RTVSPropertyOp28
 70
     1
102
RTVSPropertyOp29
 70
     1
102
RTVSPropertyOp30
 70
     1
102
RTVSPropertyOp31
 70
     1
102
RTVSPropertyOp32
 70
     1
102
RTVSPropertyOp33
 70
     1
102
RTVSPropertyOp34
 70
     1
102
RTVSPropertyOp35
 70
     1
102
RTVSPropertyOp36
 70
     1
102
RTVSPropertyOp37
 70
     1
102
RTVSPropertyOp38
 70
     1
102
RTVSPropertyOp39
 70
     1
102
RTVSPropertyOp40
 70
     1
102
RTVSPropertyOp41
 70
     1
102
RTVSPropertyOp42
 70
     1
102
RTVSPropertyOp43
 70
     1
102
RTVSPropertyOp44
 70
     1
102
RTVSPropertyOp45
 70
     1
102
RTVSPropertyOp46
 70
     1
102
RTVSPropertyOp47
 70
     1
102
RTVSPropertyOp48
 70
     1
102
RTVSPropertyOp49
 70
     1
102
RTVSPropertyOp50
 70
     1
102
RTVSPropertyOp51
 70
     0
102
RTVSPropertyOp52
 70
     0
102
RTVSPropertyOp53
 70
     1
102
RTVSPropertyOp54
 70
     1
102
RTVSPropertyOp55
 70
     1
102
RTVSPropertyOp56
 70
     1
102
RTVSPropertyOp57
 70
     1
102
RTVSPropertyOp58
 70
     1
102
RTVSPropertyOp59
 70
     1
102
RTVSPropertyOp60
 70
     1
102
RTVSPropertyOp61
 70
     1
102
RTVSPropertyOp62
 70
     1
  0
XRECORD
  5
10909
102
{ACAD_REACTORS
330
10908
102
}
330
10908
100
AcDbXrecord
280
     1
102
RTVSPost2010Prop28
280
     0
102
RTVSPost2010PropOp28
 70
     1
102
RTVSPost2010Prop29
280
     1
102
RTVSPost2010PropOp29
 70
     1
102
RTVSPost2010Prop30
280
     1
102
RTVSPost2010PropOp30
 70
     1
102
RTVSPost2010Prop31
280
     0
102
RTVSPost2010PropOp31
 70
     1
102
RTVSPost2010Prop32
280
     0
102
RTVSPost2010PropOp32
 70
     1
102
RTVSPost2010Prop33
280
     0
102
RTVSPost2010PropOp33
 70
     1
102
RTVSPost2010Prop34
280
     0
102
RTVSPost2010PropOp34
 70
     1
102
RTVSPost2010Prop35
280
     0
102
RTVSPost2010PropOp35
 70
     1
102
RTVSPost2010Prop36
280
     0
102
RTVSPost2010PropOp36
 70
     1
102
RTVSPost2010Prop37
 90
       50
102
RTVSPost2010PropOp37
 70
     1
102
RTVSPost2010Prop38
140
0.0
102
RTVSPost2010PropOp38
 70
     1
102
RTVSPost2010Prop39
140
1.0
102
RTVSPost2010PropOp39
 70
     1
102
RTVSPost2010Prop40
 90
        0
102
RTVSPost2010PropOp40
 70
     1
102
RTVSPost2010Prop41ColorIndex
 90
       18
102
RTVSPost2010Prop41ColorRGB
 90
        0
102
RTVSPost2010PropOp41
 70
     1
102
RTVSPost2010Prop42
 90
       50
102
RTVSPost2010PropOp42
 70
     1
102
RTVSPost2010Prop43
 90
        3
102
RTVSPost2010PropOp43
 70
     1
102
RTVSPost2010Prop44ColorIndex
 90
        5
102
RTVSPost2010Prop44ColorRGB
 90
      255
102
RTVSPost2010PropOp44
 70
     1
102
RTVSPost2010Prop45
280
     0
102
RTVSPost2010PropOp45
 70
     1
102
RTVSPost2010Prop46
 90
       50
102
RTVSPost2010PropOp46
 70
     1
102
RTVSPost2010Prop47
 90
       50
102
RTVSPost2010PropOp47
 70
     1
102
RTVSPost2010Prop48
 90
       50
102
RTVSPost2010PropOp48
 70
     1
102
RTVSPost2010Prop49
280
     0
102
RTVSPost2010PropOp49
 70
     1
102
RTVSPost2010Prop50
 90
       50
102
RTVSPost2010PropOp50
 70
     1
102
RTVSPost2010Prop51ColorIndex
 90
      256
102
RTVSPost2010Prop51ColorRGB
 90
-16777216
102
RTVSPost2010PropOp51
 70
     0
102
RTVSPost2010Prop52
140
1.0
102
RTVSPost2010PropOp52
 70
     0
102
RTVSPost2010Prop53
 90
        2
102
RTVSPost2010PropOp53
 70
     1
102
RTVSPost2010Prop54
  1
strokes_ogs.tif
102
RTVSPost2010PropOp54
 70
     1
102
RTVSPost2010Prop55
280
     0
102
RTVSPost2010PropOp55
 70
     1
102
RTVSPost2010Prop56
140
1.0
102
RTVSPost2010PropOp56
 70
     1
102
RTVSPost2010Prop57
140
1.0
102
RTVSPost2010PropOp57
 70
     1
102
RTVSPropertyOp0
 70
     1
102
RTVSPropertyOp1
 70
     1
102
RTVSPropertyOp2
 70
     1
102
RTVSPropertyOp3
 70
     1
102
RTVSPropertyOp4
 70
     1
102
RTVSPropertyOp5
 70
     1
102
RTVSPropertyOp6
 70
     1
102
RTVSPropertyOp7
 70
     1
102
RTVSPropertyOp8
 70
     1
102
RTVSPropertyOp9
 70
     1
102
RTVSPropertyOp10
 70
     1
102
RTVSPropertyOp11
 70
     1
102
RTVSPropertyOp12
 70
     1
102
RTVSPropertyOp13
 70
     1
102
RTVSPropertyOp14
 70
     1
102
RTVSPropertyOp15
 70
     1
102
RTVSPropertyOp16
 70
     1
102
RTVSPropertyOp17
 70
     1
102
RTVSPropertyOp18
 70
     1
102
RTVSPropertyOp19
 70
     1
102
RTVSPropertyOp20
 70
     1
102
RTVSPropertyOp21
 70
     1
102
RTVSPropertyOp22
 70
     1
102
RTVSPropertyOp23
 70
     1
102
RTVSPropertyOp24
 70
     1
102
RTVSPropertyOp25
 70
     1
102
RTVSPropertyOp26
 70
     1
102
RTVSPropertyOp27
 70
     1
102
RTVSPropertyOp28
 70
     1
102
RTVSPropertyOp29
 70
     1
102
RTVSPropertyOp30
 70
     1
102
RTVSPropertyOp31
 70
     1
102
RTVSPropertyOp32
 70
     1
102
RTVSPropertyOp33
 70
     1
102
RTVSPropertyOp34
 70
     1
102
RTVSPropertyOp35
 70
     1
102
RTVSPropertyOp36
 70
     1
102
RTVSPropertyOp37
 70
     1
102
RTVSPropertyOp38
 70
     1
102
RTVSPropertyOp39
 70
     1
102
RTVSPropertyOp40
 70
     1
102
RTVSPropertyOp41
 70
     1
102
RTVSPropertyOp42
 70
     1
102
RTVSPropertyOp43
 70
     1
102
RTVSPropertyOp44
 70
     1
102
RTVSPropertyOp45
 70
     1
102
RTVSPropertyOp46
 70
     1
102
RTVSPropertyOp47
 70
     1
102
RTVSPropertyOp48
 70
     1
102
RTVSPropertyOp49
 70
     1
102
RTVSPropertyOp50
 70
     1
102
RTVSPropertyOp51
 70
     0
102
RTVSPropertyOp52
 70
     0
102
RTVSPropertyOp53
 70
     1
102
RTVSPropertyOp54
 70
     1
102
RTVSPropertyOp55
 70
     1
102
RTVSPropertyOp56
 70
     1
102
RTVSPropertyOp57
 70
     1
102
RTVSPropertyOp58
 70
     1
102
RTVSPropertyOp59
 70
     1
102
RTVSPropertyOp60
 70
     1
102
RTVSPropertyOp61
 70
     1
102
RTVSPropertyOp62
 70
     1
  0
XRECORD
  5
108FB
102
{ACAD_REACTORS
330
108FA
102
}
330
108FA
100
AcDbXrecord
280
     1
102
RTVSPost2010Prop28
280
     0
102
RTVSPost2010PropOp28
 70
     1
102
RTVSPost2010Prop29
280
     1
102
RTVSPost2010PropOp29
 70
     1
102
RTVSPost2010Prop30
280
     1
102
RTVSPost2010PropOp30
 70
     1
102
RTVSPost2010Prop31
280
     0
102
RTVSPost2010PropOp31
 70
     1
102
RTVSPost2010Prop32
280
     0
102
RTVSPost2010PropOp32
 70
     1
102
RTVSPost2010Prop33
280
     0
102
RTVSPost2010PropOp33
 70
     1
102
RTVSPost2010Prop34
280
     0
102
RTVSPost2010PropOp34
 70
     1
102
RTVSPost2010Prop35
280
     0
102
RTVSPost2010PropOp35
 70
     1
102
RTVSPost2010Prop36
280
     0
102
RTVSPost2010PropOp36
 70
     1
102
RTVSPost2010Prop37
 90
       50
102
RTVSPost2010PropOp37
 70
     1
102
RTVSPost2010Prop38
140
0.0
102
RTVSPost2010PropOp38
 70
     1
102
RTVSPost2010Prop39
140
1.0
102
RTVSPost2010PropOp39
 70
     1
102
RTVSPost2010Prop40
 90
        0
102
RTVSPost2010PropOp40
 70
     1
102
RTVSPost2010Prop41ColorIndex
 90
       18
102
RTVSPost2010Prop41ColorRGB
 90
        0
102
RTVSPost2010PropOp41
 70
     1
102
RTVSPost2010Prop42
 90
       50
102
RTVSPost2010PropOp42
 70
     1
102
RTVSPost2010Prop43
 90
        3
102
RTVSPost2010PropOp43
 70
     1
102
RTVSPost2010Prop44ColorIndex
 90
        5
102
RTVSPost2010Prop44ColorRGB
 90
      255
102
RTVSPost2010PropOp44
 70
     1
102
RTVSPost2010Prop45
280
     0
102
RTVSPost2010PropOp45
 70
     1
102
RTVSPost2010Prop46
 90
       50
102
RTVSPost2010PropOp46
 70
     1
102
RTVSPost2010Prop47
 90
       50
102
RTVSPost2010PropOp47
 70
     1
102
RTVSPost2010Prop48
 90
       50
102
RTVSPost2010PropOp48
 70
     1
102
RTVSPost2010Prop49
280
     0
102
RTVSPost2010PropOp49
 70
     1
102
RTVSPost2010Prop50
 90
       50
102
RTVSPost2010PropOp50
 70
     1
102
RTVSPost2010Prop51ColorIndex
 90
      256
102
RTVSPost2010Prop51ColorRGB
 90
-16777216
102
RTVSPost2010PropOp51
 70
     0
102
RTVSPost2010Prop52
140
1.0
102
RTVSPost2010PropOp52
 70
     0
102
RTVSPost2010Prop53
 90
        2
102
RTVSPost2010PropOp53
 70
     1
102
RTVSPost2010Prop54
  1
strokes_ogs.tif
102
RTVSPost2010PropOp54
 70
     1
102
RTVSPost2010Prop55
280
     0
102
RTVSPost2010PropOp55
 70
     1
102
RTVSPost2010Prop56
140
1.0
102
RTVSPost2010PropOp56
 70
     1
102
RTVSPost2010Prop57
140
1.0
102
RTVSPost2010PropOp57
 70
     1
102
RTVSPropertyOp0
 70
     1
102
RTVSPropertyOp1
 70
     1
102
RTVSPropertyOp2
 70
     1
102
RTVSPropertyOp3
 70
     1
102
RTVSPropertyOp4
 70
     1
102
RTVSPropertyOp5
 70
     1
102
RTVSPropertyOp6
 70
     1
102
RTVSPropertyOp7
 70
     1
102
RTVSPropertyOp8
 70
     1
102
RTVSPropertyOp9
 70
     1
102
RTVSPropertyOp10
 70
     1
102
RTVSPropertyOp11
 70
     1
102
RTVSPropertyOp12
 70
     1
102
RTVSPropertyOp13
 70
     1
102
RTVSPropertyOp14
 70
     1
102
RTVSPropertyOp15
 70
     1
102
RTVSPropertyOp16
 70
     1
102
RTVSPropertyOp17
 70
     1
102
RTVSPropertyOp18
 70
     1
102
RTVSPropertyOp19
 70
     1
102
RTVSPropertyOp20
 70
     1
102
RTVSPropertyOp21
 70
     1
102
RTVSPropertyOp22
 70
     1
102
RTVSPropertyOp23
 70
     1
102
RTVSPropertyOp24
 70
     1
102
RTVSPropertyOp25
 70
     1
102
RTVSPropertyOp26
 70
     1
102
RTVSPropertyOp27
 70
     1
102
RTVSPropertyOp28
 70
     1
102
RTVSPropertyOp29
 70
     1
102
RTVSPropertyOp30
 70
     1
102
RTVSPropertyOp31
 70
     1
102
RTVSPropertyOp32
 70
     1
102
RTVSPropertyOp33
 70
     1
102
RTVSPropertyOp34
 70
     1
102
RTVSPropertyOp35
 70
     1
102
RTVSPropertyOp36
 70
     1
102
RTVSPropertyOp37
 70
     1
102
RTVSPropertyOp38
 70
     1
102
RTVSPropertyOp39
 70
     1
102
RTVSPropertyOp40
 70
     1
102
RTVSPropertyOp41
 70
     1
102
RTVSPropertyOp42
 70
     1
102
RTVSPropertyOp43
 70
     1
102
RTVSPropertyOp44
 70
     1
102
RTVSPropertyOp45
 70
     1
102
RTVSPropertyOp46
 70
     1
102
RTVSPropertyOp47
 70
     1
102
RTVSPropertyOp48
 70
     1
102
RTVSPropertyOp49
 70
     1
102
RTVSPropertyOp50
 70
     1
102
RTVSPropertyOp51
 70
     0
102
RTVSPropertyOp52
 70
     0
102
RTVSPropertyOp53
 70
     1
102
RTVSPropertyOp54
 70
     1
102
RTVSPropertyOp55
 70
     1
102
RTVSPropertyOp56
 70
     1
102
RTVSPropertyOp57
 70
     1
102
RTVSPropertyOp58
 70
     1
102
RTVSPropertyOp59
 70
     1
102
RTVSPropertyOp60
 70
     1
102
RTVSPropertyOp61
 70
     1
102
RTVSPropertyOp62
 70
     1
  0
XRECORD
  5
108FD
102
{ACAD_REACTORS
330
108FC
102
}
330
108FC
100
AcDbXrecord
280
     1
102
RTVSPost2010Prop28
280
     0
102
RTVSPost2010PropOp28
 70
     1
102
RTVSPost2010Prop29
280
     1
102
RTVSPost2010PropOp29
 70
     1
102
RTVSPost2010Prop30
280
     1
102
RTVSPost2010PropOp30
 70
     1
102
RTVSPost2010Prop31
280
     0
102
RTVSPost2010PropOp31
 70
     1
102
RTVSPost2010Prop32
280
     0
102
RTVSPost2010PropOp32
 70
     1
102
RTVSPost2010Prop33
280
     0
102
RTVSPost2010PropOp33
 70
     1
102
RTVSPost2010Prop34
280
     0
102
RTVSPost2010PropOp34
 70
     1
102
RTVSPost2010Prop35
280
     0
102
RTVSPost2010PropOp35
 70
     1
102
RTVSPost2010Prop36
280
     0
102
RTVSPost2010PropOp36
 70
     1
102
RTVSPost2010Prop37
 90
       50
102
RTVSPost2010PropOp37
 70
     1
102
RTVSPost2010Prop38
140
0.0
102
RTVSPost2010PropOp38
 70
     1
102
RTVSPost2010Prop39
140
1.0
102
RTVSPost2010PropOp39
 70
     1
102
RTVSPost2010Prop40
 90
        0
102
RTVSPost2010PropOp40
 70
     1
102
RTVSPost2010Prop41ColorIndex
 90
       18
102
RTVSPost2010Prop41ColorRGB
 90
        0
102
RTVSPost2010PropOp41
 70
     1
102
RTVSPost2010Prop42
 90
       50
102
RTVSPost2010PropOp42
 70
     1
102
RTVSPost2010Prop43
 90
        3
102
RTVSPost2010PropOp43
 70
     1
102
RTVSPost2010Prop44ColorIndex
 90
        5
102
RTVSPost2010Prop44ColorRGB
 90
      255
102
RTVSPost2010PropOp44
 70
     1
102
RTVSPost2010Prop45
280
     0
102
RTVSPost2010PropOp45
 70
     1
102
RTVSPost2010Prop46
 90
       50
102
RTVSPost2010PropOp46
 70
     1
102
RTVSPost2010Prop47
 90
       50
102
RTVSPost2010PropOp47
 70
     1
102
RTVSPost2010Prop48
 90
       50
102
RTVSPost2010PropOp48
 70
     1
102
RTVSPost2010Prop49
280
     0
102
RTVSPost2010PropOp49
 70
     1
102
RTVSPost2010Prop50
 90
       50
102
RTVSPost2010PropOp50
 70
     1
102
RTVSPost2010Prop51ColorIndex
 90
      256
102
RTVSPost2010Prop51ColorRGB
 90
-16777216
102
RTVSPost2010PropOp51
 70
     0
102
RTVSPost2010Prop52
140
1.0
102
RTVSPost2010PropOp52
 70
     0
102
RTVSPost2010Prop53
 90
        2
102
RTVSPost2010PropOp53
 70
     1
102
RTVSPost2010Prop54
  1
strokes_ogs.tif
102
RTVSPost2010PropOp54
 70
     1
102
RTVSPost2010Prop55
280
     0
102
RTVSPost2010PropOp55
 70
     1
102
RTVSPost2010Prop56
140
1.0
102
RTVSPost2010PropOp56
 70
     1
102
RTVSPost2010Prop57
140
1.0
102
RTVSPost2010PropOp57
 70
     1
102
RTVSPropertyOp0
 70
     1
102
RTVSPropertyOp1
 70
     1
102
RTVSPropertyOp2
 70
     1
102
RTVSPropertyOp3
 70
     1
102
RTVSPropertyOp4
 70
     1
102
RTVSPropertyOp5
 70
     1
102
RTVSPropertyOp6
 70
     1
102
RTVSPropertyOp7
 70
     1
102
RTVSPropertyOp8
 70
     1
102
RTVSPropertyOp9
 70
     1
102
RTVSPropertyOp10
 70
     1
102
RTVSPropertyOp11
 70
     1
102
RTVSPropertyOp12
 70
     1
102
RTVSPropertyOp13
 70
     1
102
RTVSPropertyOp14
 70
     1
102
RTVSPropertyOp15
 70
     1
102
RTVSPropertyOp16
 70
     1
102
RTVSPropertyOp17
 70
     1
102
RTVSPropertyOp18
 70
     1
102
RTVSPropertyOp19
 70
     1
102
RTVSPropertyOp20
 70
     1
102
RTVSPropertyOp21
 70
     1
102
RTVSPropertyOp22
 70
     1
102
RTVSPropertyOp23
 70
     1
102
RTVSPropertyOp24
 70
     1
102
RTVSPropertyOp25
 70
     1
102
RTVSPropertyOp26
 70
     1
102
RTVSPropertyOp27
 70
     1
102
RTVSPropertyOp28
 70
     1
102
RTVSPropertyOp29
 70
     1
102
RTVSPropertyOp30
 70
     1
102
RTVSPropertyOp31
 70
     1
102
RTVSPropertyOp32
 70
     1
102
RTVSPropertyOp33
 70
     1
102
RTVSPropertyOp34
 70
     1
102
RTVSPropertyOp35
 70
     1
102
RTVSPropertyOp36
 70
     1
102
RTVSPropertyOp37
 70
     1
102
RTVSPropertyOp38
 70
     1
102
RTVSPropertyOp39
 70
     1
102
RTVSPropertyOp40
 70
     1
102
RTVSPropertyOp41
 70
     1
102
RTVSPropertyOp42
 70
     1
102
RTVSPropertyOp43
 70
     1
102
RTVSPropertyOp44
 70
     1
102
RTVSPropertyOp45
 70
     1
102
RTVSPropertyOp46
 70
     1
102
RTVSPropertyOp47
 70
     1
102
RTVSPropertyOp48
 70
     1
102
RTVSPropertyOp49
 70
     1
102
RTVSPropertyOp50
 70
     1
102
RTVSPropertyOp51
 70
     0
102
RTVSPropertyOp52
 70
     0
102
RTVSPropertyOp53
 70
     1
102
RTVSPropertyOp54
 70
     1
102
RTVSPropertyOp55
 70
     1
102
RTVSPropertyOp56
 70
     1
102
RTVSPropertyOp57
 70
     1
102
RTVSPropertyOp58
 70
     1
102
RTVSPropertyOp59
 70
     1
102
RTVSPropertyOp60
 70
     1
102
RTVSPropertyOp61
 70
     1
102
RTVSPropertyOp62
 70
     1
  0
XRECORD
  5
108E9
102
{ACAD_REACTORS
330
108E8
102
}
330
108E8
100
AcDbXrecord
280
     1
102
RTVSPost2010Prop28
280
     0
102
RTVSPost2010PropOp28
 70
     1
102
RTVSPost2010Prop29
280
     1
102
RTVSPost2010PropOp29
 70
     1
102
RTVSPost2010Prop30
280
     1
102
RTVSPost2010PropOp30
 70
     1
102
RTVSPost2010Prop31
280
     0
102
RTVSPost2010PropOp31
 70
     1
102
RTVSPost2010Prop32
280
     0
102
RTVSPost2010PropOp32
 70
     1
102
RTVSPost2010Prop33
280
     0
102
RTVSPost2010PropOp33
 70
     1
102
RTVSPost2010Prop34
280
     0
102
RTVSPost2010PropOp34
 70
     1
102
RTVSPost2010Prop35
280
     0
102
RTVSPost2010PropOp35
 70
     1
102
RTVSPost2010Prop36
280
     0
102
RTVSPost2010PropOp36
 70
     1
102
RTVSPost2010Prop37
 90
       50
102
RTVSPost2010PropOp37
 70
     1
102
RTVSPost2010Prop38
140
0.0
102
RTVSPost2010PropOp38
 70
     1
102
RTVSPost2010Prop39
140
1.0
102
RTVSPost2010PropOp39
 70
     1
102
RTVSPost2010Prop40
 90
        0
102
RTVSPost2010PropOp40
 70
     1
102
RTVSPost2010Prop41ColorIndex
 90
       18
102
RTVSPost2010Prop41ColorRGB
 90
        0
102
RTVSPost2010PropOp41
 70
     1
102
RTVSPost2010Prop42
 90
       50
102
RTVSPost2010PropOp42
 70
     1
102
RTVSPost2010Prop43
 90
        3
102
RTVSPost2010PropOp43
 70
     1
102
RTVSPost2010Prop44ColorIndex
 90
        5
102
RTVSPost2010Prop44ColorRGB
 90
      255
102
RTVSPost2010PropOp44
 70
     1
102
RTVSPost2010Prop45
280
     0
102
RTVSPost2010PropOp45
 70
     1
102
RTVSPost2010Prop46
 90
       50
102
RTVSPost2010PropOp46
 70
     1
102
RTVSPost2010Prop47
 90
       50
102
RTVSPost2010PropOp47
 70
     1
102
RTVSPost2010Prop48
 90
       50
102
RTVSPost2010PropOp48
 70
     1
102
RTVSPost2010Prop49
280
     0
102
RTVSPost2010PropOp49
 70
     1
102
RTVSPost2010Prop50
 90
       50
102
RTVSPost2010PropOp50
 70
     1
102
RTVSPost2010Prop51ColorIndex
 90
      256
102
RTVSPost2010Prop51ColorRGB
 90
-16777216
102
RTVSPost2010PropOp51
 70
     0
102
RTVSPost2010Prop52
140
1.0
102
RTVSPost2010PropOp52
 70
     0
102
RTVSPost2010Prop53
 90
        2
102
RTVSPost2010PropOp53
 70
     1
102
RTVSPost2010Prop54
  1
strokes_ogs.tif
102
RTVSPost2010PropOp54
 70
     1
102
RTVSPost2010Prop55
280
     0
102
RTVSPost2010PropOp55
 70
     1
102
RTVSPost2010Prop56
140
1.0
102
RTVSPost2010PropOp56
 70
     1
102
RTVSPost2010Prop57
140
1.0
102
RTVSPost2010PropOp57
 70
     1
102
RTVSPropertyOp0
 70
     1
102
RTVSPropertyOp1
 70
     1
102
RTVSPropertyOp2
 70
     1
102
RTVSPropertyOp3
 70
     1
102
RTVSPropertyOp4
 70
     1
102
RTVSPropertyOp5
 70
     1
102
RTVSPropertyOp6
 70
     1
102
RTVSPropertyOp7
 70
     1
102
RTVSPropertyOp8
 70
     1
102
RTVSPropertyOp9
 70
     1
102
RTVSPropertyOp10
 70
     1
102
RTVSPropertyOp11
 70
     1
102
RTVSPropertyOp12
 70
     1
102
RTVSPropertyOp13
 70
     1
102
RTVSPropertyOp14
 70
     1
102
RTVSPropertyOp15
 70
     1
102
RTVSPropertyOp16
 70
     1
102
RTVSPropertyOp17
 70
     1
102
RTVSPropertyOp18
 70
     1
102
RTVSPropertyOp19
 70
     1
102
RTVSPropertyOp20
 70
     1
102
RTVSPropertyOp21
 70
     1
102
RTVSPropertyOp22
 70
     1
102
RTVSPropertyOp23
 70
     1
102
RTVSPropertyOp24
 70
     1
102
RTVSPropertyOp25
 70
     1
102
RTVSPropertyOp26
 70
     1
102
RTVSPropertyOp27
 70
     1
102
RTVSPropertyOp28
 70
     1
102
RTVSPropertyOp29
 70
     1
102
RTVSPropertyOp30
 70
     1
102
RTVSPropertyOp31
 70
     1
102
RTVSPropertyOp32
 70
     1
102
RTVSPropertyOp33
 70
     1
102
RTVSPropertyOp34
 70
     1
102
RTVSPropertyOp35
 70
     1
102
RTVSPropertyOp36
 70
     1
102
RTVSPropertyOp37
 70
     1
102
RTVSPropertyOp38
 70
     1
102
RTVSPropertyOp39
 70
     1
102
RTVSPropertyOp40
 70
     1
102
RTVSPropertyOp41
 70
     1
102
RTVSPropertyOp42
 70
     1
102
RTVSPropertyOp43
 70
     1
102
RTVSPropertyOp44
 70
     1
102
RTVSPropertyOp45
 70
     1
102
RTVSPropertyOp46
 70
     1
102
RTVSPropertyOp47
 70
     1
102
RTVSPropertyOp48
 70
     1
102
RTVSPropertyOp49
 70
     1
102
RTVSPropertyOp50
 70
     1
102
RTVSPropertyOp51
 70
     0
102
RTVSPropertyOp52
 70
     0
102
RTVSPropertyOp53
 70
     1
102
RTVSPropertyOp54
 70
     1
102
RTVSPropertyOp55
 70
     1
102
RTVSPropertyOp56
 70
     1
102
RTVSPropertyOp57
 70
     1
102
RTVSPropertyOp58
 70
     1
102
RTVSPropertyOp59
 70
     1
102
RTVSPropertyOp60
 70
     1
102
RTVSPropertyOp61
 70
     1
102
RTVSPropertyOp62
 70
     1
  0
XRECORD
  5
108F7
102
{ACAD_REACTORS
330
108F6
102
}
330
108F6
100
AcDbXrecord
280
     1
102
RTVSPost2010Prop28
280
     0
102
RTVSPost2010PropOp28
 70
     1
102
RTVSPost2010Prop29
280
     1
102
RTVSPost2010PropOp29
 70
     1
102
RTVSPost2010Prop30
280
     1
102
RTVSPost2010PropOp30
 70
     1
102
RTVSPost2010Prop31
280
     0
102
RTVSPost2010PropOp31
 70
     1
102
RTVSPost2010Prop32
280
     0
102
RTVSPost2010PropOp32
 70
     1
102
RTVSPost2010Prop33
280
     0
102
RTVSPost2010PropOp33
 70
     1
102
RTVSPost2010Prop34
280
     0
102
RTVSPost2010PropOp34
 70
     1
102
RTVSPost2010Prop35
280
     0
102
RTVSPost2010PropOp35
 70
     1
102
RTVSPost2010Prop36
280
     0
102
RTVSPost2010PropOp36
 70
     1
102
RTVSPost2010Prop37
 90
       50
102
RTVSPost2010PropOp37
 70
     1
102
RTVSPost2010Prop38
140
0.0
102
RTVSPost2010PropOp38
 70
     1
102
RTVSPost2010Prop39
140
1.0
102
RTVSPost2010PropOp39
 70
     1
102
RTVSPost2010Prop40
 90
        0
102
RTVSPost2010PropOp40
 70
     1
102
RTVSPost2010Prop41ColorIndex
 90
       18
102
RTVSPost2010Prop41ColorRGB
 90
        0
102
RTVSPost2010PropOp41
 70
     1
102
RTVSPost2010Prop42
 90
       50
102
RTVSPost2010PropOp42
 70
     1
102
RTVSPost2010Prop43
 90
        3
102
RTVSPost2010PropOp43
 70
     1
102
RTVSPost2010Prop44ColorIndex
 90
        5
102
RTVSPost2010Prop44ColorRGB
 90
      255
102
RTVSPost2010PropOp44
 70
     1
102
RTVSPost2010Prop45
280
     0
102
RTVSPost2010PropOp45
 70
     1
102
RTVSPost2010Prop46
 90
       50
102
RTVSPost2010PropOp46
 70
     1
102
RTVSPost2010Prop47
 90
       50
102
RTVSPost2010PropOp47
 70
     1
102
RTVSPost2010Prop48
 90
       50
102
RTVSPost2010PropOp48
 70
     1
102
RTVSPost2010Prop49
280
     0
102
RTVSPost2010PropOp49
 70
     1
102
RTVSPost2010Prop50
 90
       50
102
RTVSPost2010PropOp50
 70
     1
102
RTVSPost2010Prop51ColorIndex
 90
      256
102
RTVSPost2010Prop51ColorRGB
 90
-16777216
102
RTVSPost2010PropOp51
 70
     0
102
RTVSPost2010Prop52
140
1.0
102
RTVSPost2010PropOp52
 70
     0
102
RTVSPost2010Prop53
 90
        2
102
RTVSPost2010PropOp53
 70
     1
102
RTVSPost2010Prop54
  1
strokes_ogs.tif
102
RTVSPost2010PropOp54
 70
     1
102
RTVSPost2010Prop55
280
     0
102
RTVSPost2010PropOp55
 70
     1
102
RTVSPost2010Prop56
140
1.0
102
RTVSPost2010PropOp56
 70
     1
102
RTVSPost2010Prop57
140
1.0
102
RTVSPost2010PropOp57
 70
     1
102
RTVSPropertyOp0
 70
     1
102
RTVSPropertyOp1
 70
     1
102
RTVSPropertyOp2
 70
     1
102
RTVSPropertyOp3
 70
     1
102
RTVSPropertyOp4
 70
     1
102
RTVSPropertyOp5
 70
     1
102
RTVSPropertyOp6
 70
     1
102
RTVSPropertyOp7
 70
     1
102
RTVSPropertyOp8
 70
     1
102
RTVSPropertyOp9
 70
     1
102
RTVSPropertyOp10
 70
     1
102
RTVSPropertyOp11
 70
     1
102
RTVSPropertyOp12
 70
     1
102
RTVSPropertyOp13
 70
     1
102
RTVSPropertyOp14
 70
     1
102
RTVSPropertyOp15
 70
     1
102
RTVSPropertyOp16
 70
     1
102
RTVSPropertyOp17
 70
     1
102
RTVSPropertyOp18
 70
     1
102
RTVSPropertyOp19
 70
     1
102
RTVSPropertyOp20
 70
     1
102
RTVSPropertyOp21
 70
     1
102
RTVSPropertyOp22
 70
     1
102
RTVSPropertyOp23
 70
     1
102
RTVSPropertyOp24
 70
     1
102
RTVSPropertyOp25
 70
     1
102
RTVSPropertyOp26
 70
     1
102
RTVSPropertyOp27
 70
     1
102
RTVSPropertyOp28
 70
     1
102
RTVSPropertyOp29
 70
     1
102
RTVSPropertyOp30
 70
     1
102
RTVSPropertyOp31
 70
     1
102
RTVSPropertyOp32
 70
     1
102
RTVSPropertyOp33
 70
     1
102
RTVSPropertyOp34
 70
     1
102
RTVSPropertyOp35
 70
     1
102
RTVSPropertyOp36
 70
     1
102
RTVSPropertyOp37
 70
     1
102
RTVSPropertyOp38
 70
     1
102
RTVSPropertyOp39
 70
     1
102
RTVSPropertyOp40
 70
     1
102
RTVSPropertyOp41
 70
     1
102
RTVSPropertyOp42
 70
     1
102
RTVSPropertyOp43
 70
     1
102
RTVSPropertyOp44
 70
     1
102
RTVSPropertyOp45
 70
     1
102
RTVSPropertyOp46
 70
     1
102
RTVSPropertyOp47
 70
     1
102
RTVSPropertyOp48
 70
     1
102
RTVSPropertyOp49
 70
     1
102
RTVSPropertyOp50
 70
     1
102
RTVSPropertyOp51
 70
     0
102
RTVSPropertyOp52
 70
     0
102
RTVSPropertyOp53
 70
     1
102
RTVSPropertyOp54
 70
     1
102
RTVSPropertyOp55
 70
     1
102
RTVSPropertyOp56
 70
     1
102
RTVSPropertyOp57
 70
     1
102
RTVSPropertyOp58
 70
     1
102
RTVSPropertyOp59
 70
     1
102
RTVSPropertyOp60
 70
     1
102
RTVSPropertyOp61
 70
     1
102
RTVSPropertyOp62
 70
     1
  0
XRECORD
  5
108FF
102
{ACAD_REACTORS
330
108FE
102
}
330
108FE
100
AcDbXrecord
280
     1
102
RTVSPost2010Prop28
280
     0
102
RTVSPost2010PropOp28
 70
     1
102
RTVSPost2010Prop29
280
     1
102
RTVSPost2010PropOp29
 70
     1
102
RTVSPost2010Prop30
280
     1
102
RTVSPost2010PropOp30
 70
     1
102
RTVSPost2010Prop31
280
     0
102
RTVSPost2010PropOp31
 70
     1
102
RTVSPost2010Prop32
280
     0
102
RTVSPost2010PropOp32
 70
     1
102
RTVSPost2010Prop33
280
     0
102
RTVSPost2010PropOp33
 70
     1
102
RTVSPost2010Prop34
280
     0
102
RTVSPost2010PropOp34
 70
     1
102
RTVSPost2010Prop35
280
     0
102
RTVSPost2010PropOp35
 70
     1
102
RTVSPost2010Prop36
280
     0
102
RTVSPost2010PropOp36
 70
     1
102
RTVSPost2010Prop37
 90
       50
102
RTVSPost2010PropOp37
 70
     1
102
RTVSPost2010Prop38
140
0.0
102
RTVSPost2010PropOp38
 70
     1
102
RTVSPost2010Prop39
140
1.0
102
RTVSPost2010PropOp39
 70
     1
102
RTVSPost2010Prop40
 90
        0
102
RTVSPost2010PropOp40
 70
     1
102
RTVSPost2010Prop41ColorIndex
 90
       18
102
RTVSPost2010Prop41ColorRGB
 90
        0
102
RTVSPost2010PropOp41
 70
     1
102
RTVSPost2010Prop42
 90
       50
102
RTVSPost2010PropOp42
 70
     1
102
RTVSPost2010Prop43
 90
        3
102
RTVSPost2010PropOp43
 70
     1
102
RTVSPost2010Prop44ColorIndex
 90
        5
102
RTVSPost2010Prop44ColorRGB
 90
      255
102
RTVSPost2010PropOp44
 70
     1
102
RTVSPost2010Prop45
280
     0
102
RTVSPost2010PropOp45
 70
     1
102
RTVSPost2010Prop46
 90
       50
102
RTVSPost2010PropOp46
 70
     1
102
RTVSPost2010Prop47
 90
       50
102
RTVSPost2010PropOp47
 70
     1
102
RTVSPost2010Prop48
 90
       50
102
RTVSPost2010PropOp48
 70
     1
102
RTVSPost2010Prop49
280
     0
102
RTVSPost2010PropOp49
 70
     1
102
RTVSPost2010Prop50
 90
       50
102
RTVSPost2010PropOp50
 70
     1
102
RTVSPost2010Prop51ColorIndex
 90
      256
102
RTVSPost2010Prop51ColorRGB
 90
-16777216
102
RTVSPost2010PropOp51
 70
     0
102
RTVSPost2010Prop52
140
1.0
102
RTVSPost2010PropOp52
 70
     0
102
RTVSPost2010Prop53
 90
        2
102
RTVSPost2010PropOp53
 70
     1
102
RTVSPost2010Prop54
  1
strokes_ogs.tif
102
RTVSPost2010PropOp54
 70
     1
102
RTVSPost2010Prop55
280
     0
102
RTVSPost2010PropOp55
 70
     1
102
RTVSPost2010Prop56
140
1.0
102
RTVSPost2010PropOp56
 70
     1
102
RTVSPost2010Prop57
140
1.0
102
RTVSPost2010PropOp57
 70
     1
102
RTVSPropertyOp0
 70
     1
102
RTVSPropertyOp1
 70
     1
102
RTVSPropertyOp2
 70
     1
102
RTVSPropertyOp3
 70
     1
102
RTVSPropertyOp4
 70
     1
102
RTVSPropertyOp5
 70
     1
102
RTVSPropertyOp6
 70
     1
102
RTVSPropertyOp7
 70
     1
102
RTVSPropertyOp8
 70
     1
102
RTVSPropertyOp9
 70
     1
102
RTVSPropertyOp10
 70
     1
102
RTVSPropertyOp11
 70
     1
102
RTVSPropertyOp12
 70
     1
102
RTVSPropertyOp13
 70
     1
102
RTVSPropertyOp14
 70
     1
102
RTVSPropertyOp15
 70
     1
102
RTVSPropertyOp16
 70
     1
102
RTVSPropertyOp17
 70
     1
102
RTVSPropertyOp18
 70
     1
102
RTVSPropertyOp19
 70
     1
102
RTVSPropertyOp20
 70
     1
102
RTVSPropertyOp21
 70
     1
102
RTVSPropertyOp22
 70
     1
102
RTVSPropertyOp23
 70
     1
102
RTVSPropertyOp24
 70
     1
102
RTVSPropertyOp25
 70
     1
102
RTVSPropertyOp26
 70
     1
102
RTVSPropertyOp27
 70
     1
102
RTVSPropertyOp28
 70
     1
102
RTVSPropertyOp29
 70
     1
102
RTVSPropertyOp30
 70
     1
102
RTVSPropertyOp31
 70
     1
102
RTVSPropertyOp32
 70
     1
102
RTVSPropertyOp33
 70
     1
102
RTVSPropertyOp34
 70
     1
102
RTVSPropertyOp35
 70
     1
102
RTVSPropertyOp36
 70
     1
102
RTVSPropertyOp37
 70
     1
102
RTVSPropertyOp38
 70
     1
102
RTVSPropertyOp39
 70
     1
102
RTVSPropertyOp40
 70
     1
102
RTVSPropertyOp41
 70
     1
102
RTVSPropertyOp42
 70
     1
102
RTVSPropertyOp43
 70
     1
102
RTVSPropertyOp44
 70
     1
102
RTVSPropertyOp45
 70
     1
102
RTVSPropertyOp46
 70
     1
102
RTVSPropertyOp47
 70
     1
102
RTVSPropertyOp48
 70
     1
102
RTVSPropertyOp49
 70
     1
102
RTVSPropertyOp50
 70
     1
102
RTVSPropertyOp51
 70
     0
102
RTVSPropertyOp52
 70
     0
102
RTVSPropertyOp53
 70
     1
102
RTVSPropertyOp54
 70
     1
102
RTVSPropertyOp55
 70
     1
102
RTVSPropertyOp56
 70
     1
102
RTVSPropertyOp57
 70
     1
102
RTVSPropertyOp58
 70
     1
102
RTVSPropertyOp59
 70
     1
102
RTVSPropertyOp60
 70
     1
102
RTVSPropertyOp61
 70
     1
102
RTVSPropertyOp62
 70
     1
  0
ENDSEC
  0
EOF
