  0
SECTION
  2
HEADER
  9
$ACADVER
  1
AC1009
  9
$INSBASE
 10
0.0
 20
0.0
 30
0.0
  9
$EXTMIN
 10
1007.313325654261
 20
-1791.929727274917
 30
0.0
  9
$EXTMAX
 10
1707.4583542811761
 20
-1355.3616126372399
 30
0.0
  9
$LIMMIN
 10
0.0
 20
0.0
  9
$LIMMAX
 10
12.0
 20
9.0
  9
$ORTHOMODE
 70
     0
  9
$REGENMODE
 70
     1
  9
$FILLMODE
 70
     1
  9
$QTEXTMODE
 70
     0
  9
$MIRRTEXT
 70
     0
  9
$DRAGMODE
 70
     2
  9
$LTSCALE
 40
0.5
  9
$OSMODE
 70
    63
  9
$ATTMODE
 70
     1
  9
$TEXTSIZE
 40
12.0
  9
$TRACEWID
 40
0.05
  9
$TEXTSTYLE
  7
STANDARD
  9
$CLAYER
  8
1TEXT
  9
$CELTYPE
  6
BYLAYER
  9
$CECOLOR
 62
   256
  9
$DIMSCALE
 40
2.0
  9
$DIMASZ
 40
2.0
  9
$DIMEXO
 40
0.0
  9
$DIMDLI
 40
7.0
  9
$DIMRND
 40
0.0
  9
$DIMDLE
 40
0.0
  9
$DIMEXE
 40
1.0
  9
$DIMTP
 40
0.0
  9
$DIMTM
 40
0.0
  9
$DIMTXT
 40
3.5
  9
$DIMCEN
 40
0.0
  9
$DIMTSZ
 40
0.0
  9
$DIMTOL
 70
     0
  9
$DIMLIM
 70
     0
  9
$DIMTIH
 70
     0
  9
$DIMTOH
 70
     0
  9
$DIMSE1
 70
     0
  9
$DIMSE2
 70
     0
  9
$DIMTAD
 70
     1
  9
$DIMZIN
 70
     8
  9
$DIMBLK
  1

  9
$DIMASO
 70
     1
  9
$DIMSHO
 70
     1
  9
$DIMPOST
  1
 
  9
$DIMAPOST
  1

  9
$DIMALT
 70
     0
  9
$DIMALTD
 70
     2
  9
$DIMALTF
 40
25.399999999999999
  9
$DIMLFAC
 40
1.0
  9
$DIMTOFL
 70
     1
  9
$DIMTVP
 40
0.0
  9
$DIMTIX
 70
     0
  9
$DIMSOXD
 70
     0
  9
$DIMSAH
 70
     1
  9
$DIMBLK1
  1
OPEN30
  9
$DIMBLK2
  1
OPEN30
  9
$DIMSTYLE
  2
NEWX10
  9
$DIMCLRD
 70
   256
  9
$DIMCLRE
 70
   256
  9
$DIMCLRT
 70
   201
  9
$DIMTFAC
 40
0.7
  9
$DIMGAP
 40
0.7
  9
$LUNITS
 70
     2
  9
$LUPREC
 70
     4
  9
$SKETCHINC
 40
0.1
  9
$FILLETRAD
 40
0.0
  9
$AUNITS
 70
     0
  9
$AUPREC
 70
     2
  9
$MENU
  1
acad
  9
$ELEVATION
 40
0.0
  9
$PELEVATION
 40
0.0
  9
$THICKNESS
 40
0.0
  9
$LIMCHECK
 70
     0
  9
$BLIPMODE
 70
     0
  9
$CHAMFERA
 40
0.0
  9
$CHAMFERB
 40
0.0
  9
$SKPOLY
 70
     0
  9
$TDCREATE
 40
2448750.4870892358
  9
$TDUPDATE
 40
2456722.462003761
  9
$TDINDWG
 40
1.5310064236000001
  9
$TDUSRTIMER
 40
1.5310064236000001
  9
$USRTIMER
 70
     1
  9
$ANGBASE
 50
0.0
  9
$ANGDIR
 70
     0
  9
$PDMODE
 70
     0
  9
$PDSIZE
 40
0.0
  9
$PLINEWID
 40
1.0
  9
$COORDS
 70
     0
  9
$SPLFRAME
 70
     0
  9
$SPLINETYPE
 70
     6
  9
$SPLINESEGS
 70
     8
  9
$ATTDIA
 70
     0
  9
$ATTREQ
 70
     1
  9
$HANDLING
 70
     1
  9
$HANDSEED
  5
DBB6
  9
$SURFTAB1
 70
     6
  9
$SURFTAB2
 70
     6
  9
$SURFTYPE
 70
     6
  9
$SURFU
 70
     6
  9
$SURFV
 70
     6
  9
$UCSNAME
  2

  9
$UCSORG
 10
0.0
 20
0.0
 30
0.0
  9
$UCSXDIR
 10
1.0
 20
0.0
 30
0.0
  9
$UCSYDIR
 10
0.0
 20
1.0
 30
0.0
  9
$PUCSNAME
  2

  9
$PUCSORG
 10
0.0
 20
0.0
 30
0.0
  9
$PUCSXDIR
 10
1.0
 20
0.0
 30
0.0
  9
$PUCSYDIR
 10
0.0
 20
1.0
 30
0.0
  9
$USERI1
 70
     0
  9
$USERI2
 70
     0
  9
$USERI3
 70
     0
  9
$USERI4
 70
     0
  9
$USERI5
 70
     0
  9
$USERR1
 40
0.0
  9
$USERR2
 40
0.0
  9
$USERR3
 40
0.0
  9
$USERR4
 40
0.0
  9
$USERR5
 40
0.0
  9
$WORLDVIEW
 70
     1
  9
$SHADEDGE
 70
     3
  9
$SHADEDIF
 70
    70
  9
$TILEMODE
 70
     1
  9
$MAXACTVP
 70
    16
  9
$PLIMCHECK
 70
     0
  9
$PEXTMIN
 10
1.0000000000000000E+020
 20
1.0000000000000000E+020
 30
1.0000000000000000E+020
  9
$PEXTMAX
 10
-1.0000000000000000E+020
 20
-1.0000000000000000E+020
 30
-1.0000000000000000E+020
  9
$PLIMMIN
 10
-220.1847950731335
 20
-136.082518103414
  9
$PLIMMAX
 10
199.761860200304
 20
160.84347676963279
  9
$UNITMODE
 70
     0
  9
$VISRETAIN
 70
     0
  9
$PLINEGEN
 70
     0
  9
$PSLTSCALE
 70
     1
  0
ENDSEC
  0
SECTION
  2
TABLES
  0
TABLE
  2
VPORT
 70
     1
  0
VPORT
  2
*ACTIVE
 70
     0
 10
0.0
 20
0.0
 11
1.0
 21
1.0
 12
1357.348108525104
 22
-1573.6560296660041
 13
0.0
 23
0.0
 14
1.0
 24
1.0
 15
0.0
 25
0.0
 16
0.0
 26
0.0
 36
1.0
 17
0.0
 27
0.0
 37
0.0
 40
463.02727482787492
 41
2.1771217712177111
 42
50.0
 43
0.0
 44
0.0
 50
0.0
 51
0.0
 71
     0
 72
  1000
 73
     1
 74
     1
 75
     0
 76
     0
 77
     0
 78
     0
  0
ENDTAB
  0
TABLE
  2
LTYPE
 70
    15
  0
LTYPE
  2
CONTINUOUS
 70
     0
  3
Solid line
 72
    65
 73
     0
 40
0.0
  0
LTYPE
  2
A3WAKUDAKE|CENTER2
 70
    48
  3
Center (.5x) ___ _ ___ _ ___ _ ___ _ ___ _ ___
 72
    65
 73
     4
 40
28.574999999999999
 49
19.050000000000001
 49
-3.1749999999999989
 49
3.1749999999999989
 49
-3.1749999999999989
  0
LTYPE
  2
XREF1|CENTER2
 70
    48
  3
Center (.5x) ___ _ ___ _ ___ _ ___ _ ___ _ ___
 72
    65
 73
     4
 40
28.574999999999999
 49
19.050000000000001
 49
-3.1749999999999989
 49
3.1749999999999989
 49
-3.1749999999999989
  0
ENDTAB
  0
TABLE
  2
LAYER
 70
    49
  0
LAYER
  2
0
 70
     0
 62
     7
  6
CONTINUOUS
  0
LAYER
  2
1TEXT
 70
     0
 62
     7
  6
CONTINUOUS
  0
LAYER
  2
01
 70
     0
 62
     1
  6
CONTINUOUS
  0
LAYER
  2
A3WAKUDAKE|THICK
 70
    48
 62
     7
  6
CONTINUOUS
  0
LAYER
  2
A3WAKUDAKE|POINT
 70
    48
 62
     7
  6
CONTINUOUS
  0
LAYER
  2
A3WAKUDAKE|1CENTER
 70
    48
 62
     7
  6
CONTINUOUS
  0
LAYER
  2
A3WAKUDAKE|0-6
 70
    48
 62
     7
  6
CONTINUOUS
  0
LAYER
  2
A3WAKUDAKE|1DIM
 70
    48
 62
     7
  6
CONTINUOUS
  0
LAYER
  2
XREF1|1CENTER
 70
    48
 62
     7
  6
CONTINUOUS
  0
ENDTAB
  0
TABLE
  2
STYLE
 70
     8
  0
STYLE
  2
STANDARD
 70
     0
 40
0.0
 41
1.0
 50
0.0
 71
     0
 42
12.0
  3
romans.shx
  4
extfont2.shx
  0
ENDTAB
  0
TABLE
  2
VIEW
 70
     5
  0
ENDTAB
  0
TABLE
  2
UCS
 70
     5
  0
UCS
  2
U
 70
     0
 10
0.0
 20
0.0
 30
0.0
 11
1.0
 21
0.0
 31
0.0
 12
0.0
 22
0.0000000000000002
 32
1.0
  0
UCS
  2
L
 70
     0
 10
0.0
 20
0.0
 30
0.0
 11
-0.0000000000000002
 21
-1.0
 31
0.0000000000000002
 12
0.0
 22
0.0000000000000002
 32
1.0
  0
UCS
  2
R
 70
     0
 10
0.0
 20
0.0
 30
0.0
 11
0.0000000000000003
 21
1.0
 31
-0.0000000000000002
 12
0.0
 22
0.0000000000000002
 32
1.0
  0
UCS
  2
ISOME
 70
     0
 10
0.0
 20
0.0
 30
0.0
 11
0.7071450863198266
 21
-0.7070684729403536
 31
-0.0000383082461947
 12
0.4082704059428735
 22
0.4082704077401152
 32
0.8164744636514736
  0
UCS
  2
PERSPECTIVE
 70
     0
 10
0.0
 20
0.0
 30
0.0
 11
0.8191477691768963
 21
-0.5735823260466403
 31
-0.0004974931557765
 12
0.1584844715982971
 22
0.225502028986108
 32
0.961265575782966
  0
ENDTAB
  0
TABLE
  2
APPID
 70
    21
  0
APPID
  2
ACAD
 70
     0
  0
APPID
  2
CONTENTTABDATA
 70
     0
  0
APPID
  2
CONTENTCURRENTTAB
 70
     0
  0
APPID
  2
CONTENTBLOCKDESCRIPTION
 70
     0
  0
APPID
  2
CONTENTBLOCKICON
 70
     0
  0
APPID
  2
DRAWINGVARIABLESXDATA
 70
     0
  0
APPID
  2
CONTENTLONGBLOCKNAME
 70
     0
  0
APPID
  2
ACAD_MLEADERVER
 70
     0
  0
APPID
  2
ACAD_PSEXT
 70
     0
  0
APPID
  2
ACADANNOTATIVE
 70
     0
  0
APPID
  2
ACDBBLOCKREPETAG
 70
     0
  0
APPID
  2
ACDBDYNAMICBLOCKGUID
 70
     0
  0
APPID
  2
ACAUTHENVIRON
 70
     0
  0
APPID
  2
ACDBDYNAMICBLOCKTRUENAME
 70
     0
  0
APPID
  2
ACAD_EXEMPT_FROM_CAD_STANDARDS
 70
     0
  0
APPID
  2
ACADANNOAV
 70
     0
  0
APPID
  2
ACAD_DSTYLE_DIMRADIAL_EXTENSION
 70
     0
  0
APPID
  2
ACAD_DIMASSOC_CALC_DIMLFAC
 70
     0
  0
APPID
  2
ACAD_DIMASSOC_DIMLFAC
 70
     0
  0
APPID
  2
ACAD_DIMASSOC_OVERRIDDEN_D
 70
     0
  0
APPID
  2
ACAD_NAV_VCDISPLAY
 70
     0
  0
ENDTAB
  0
TABLE
  2
DIMSTYLE
 70
     8
  0
DIMSTYLE
  2
NEWX10
 70
     0
  3
 
  4

  5

  6
OPEN30
  7
OPEN30
 40
1.0
 41
2.0
 42
0.0
 43
7.0
 44
1.0
 45
0.0
 46
0.0
 47
0.0
 48
0.0
140
3.5
141
0.0
142
0.0
143
25.399999999999999
144
1.0
145
0.0
146
0.7
147
0.7
 71
     0
 72
     0
 73
     0
 74
     0
 75
     0
 76
     0
 77
     1
 78
     8
170
     0
171
     2
172
     1
173
     1
174
     0
175
     0
176
   256
177
   256
178
   201
  0
ENDTAB
  0
ENDSEC
  0
SECTION
  2
BLOCKS
  0
BLOCK
  8
0
  2
$MODEL_SPACE
 70
     0
 10
0.0
 20
0.0
 30
0.0
  3
$MODEL_SPACE
  1

  0
ENDBLK
  5
1B
  8
0
  0
BLOCK
 67
     1
  8
0
  2
$PAPER_SPACE
 70
     0
 10
0.0
 20
0.0
 30
0.0
  3
$PAPER_SPACE
  1

  0
ENDBLK
  5
18
 67
     1
  8
0
  0
BLOCK
  8
0
  2
_OPEN30
 70
     0
 10
0.0
 20
0.0
 30
0.0
  3
_OPEN30
  1

  0
LINE
  5
391
  8
0
  6
BYBLOCK
 62
     0
 10
-1.0
 20
0.26794919
 30
0.0
 11
0.0
 21
0.0
 31
0.0
  0
LINE
  5
392
  8
0
  6
BYBLOCK
 62
     0
 10
0.0
 20
0.0
 30
0.0
 11
-1.0
 21
-0.26794919
 31
0.0
  0
LINE
  5
393
  8
0
  6
BYBLOCK
 62
     0
 10
0.0
 20
0.0
 30
0.0
 11
-1.0
 21
0.0
 31
0.0
  0
ENDBLK
  5
394
  8
0
  0
BLOCK
  8
0
  2
A3WAKUDAKE
 70
    36
 10
0.0
 20
0.0
 30
0.0
  3
A3WAKUDAKE
  1
D:\ACLT\FORMAT\A3WAKUdake.dwg
  0
ENDBLK
  5
B8D1
  8
0
  0
BLOCK
  8
0
  2
XREF1
 70
    36
 10
0.0
 20
0.0
 30
0.0
  3
XREF1
  1
D:\ACLT\FORMAT\KAWAJUN(9)図面用.dwg
  0
ENDBLK
  5
D75E
  8
0
  0
ENDSEC
  0
SECTION
  2
ENTITIES
  0
LINE
  5
D06F
  8
01
 10
1574.6371838045709
 20
-1691.9900359135299
 30
0.0
 11
1606.7325230746451
 21
-1691.9900359135311
 31
0.0
  0
ARC
  5
D070
  8
01
 10
1606.7325230746451
 20
-1689.9900359135311
 30
0.0
 40
2.0
 50
270.0
 51
0.0000025044165917
  0
LINE
  5
D071
  8
01
 10
1574.6371838045709
 20
-1707.9900359135299
 30
0.0
 11
1606.7325239488609
 21
-1707.9900359135311
 31
0.0
  0
ARC
  5
D072
  8
01
 10
1606.7325239488609
 20
-1709.9900359135311
 30
0.0
 40
2.0
 50
0.0000025044165917
 51
90.0
  0
LINE
  5
D074
  8
01
 10
1609.7325241674141
 20
-1714.9900359135299
 30
0.0
 11
1619.732524167413
 21
-1714.990035913532
 31
0.0
  0
LINE
  5
D075
  8
01
 10
1608.732524123704
 20
-1713.9900359135311
 30
0.0
 11
1609.7325241674141
 21
-1714.9900359135311
 31
0.0
  0
LINE
  5
D076
  8
01
 10
1609.732522856094
 20
-1684.9900359135329
 30
0.0
 11
1619.7325228560901
 21
-1684.9900359135299
 31
0.0
  0
LINE
  5
D077
  8
01
 10
1608.732522899805
 20
-1685.9900359135311
 30
0.0
 11
1609.732522856094
 21
-1684.9900359135311
 31
0.0
  0
LINE
  5
D078
  8
01
 10
1619.7325228560901
 20
-1684.9900359135299
 30
0.0
 11
1619.732524167413
 21
-1714.990035913532
 31
0.0
  0
LINE
  5
D079
  8
01
 10
1608.732522899805
 20
-1685.9900359135311
 30
0.0
 11
1608.732524123704
 21
-1713.9900359135311
 31
0.0
  0
LINE
  5
D07A
  8
01
 10
1037.1531404497409
 20
-1573.7542785621749
 30
0.0
 11
1037.1531404497439
 21
-1512.864059747536
 31
0.0
  0
LINE
  5
D07D
  8
01
  6
BYBLOCK
 10
1012.153140449741
 20
-1607.9595648584379
 30
0.0
 11
1012.153140449741
 21
-1584.959564858437
 31
0.0
  0
LINE
  5
D07E
  8
01
  6
BYBLOCK
 10
1013.15314044974
 20
-1608.9595648584379
 30
0.0
 11
1012.153140449741
 21
-1607.9595648584379
 31
0.0
  0
LINE
  5
D080
  8
01
  6
BYBLOCK
 10
1512.1531404497409
 20
-1607.959564858437
 30
0.0
 11
1512.1531404497409
 21
-1584.959564858437
 31
0.0
  0
LINE
  5
D081
  8
01
  6
BYBLOCK
 10
1511.1531404497409
 20
-1608.9595648584379
 30
0.0
 11
1512.1531404497409
 21
-1607.959564858437
 31
0.0
  0
LINE
  5
D084
  8
01
 10
1511.1531404497409
 20
-1608.9595648584379
 30
0.0
 11
1013.15314044974
 21
-1608.9595648584379
 31
0.0
  0
LINE
  5
D085
  8
01
 10
1511.1531404497409
 20
-1583.959564858437
 30
0.0
 11
1495.1531404497391
 21
-1583.959564858437
 31
0.0
  0
LINE
  5
D086
  8
01
 10
1479.15314044974
 20
-1583.959564858437
 30
0.0
 11
1045.1531404497409
 21
-1583.959564858437
 31
0.0
  0
LINE
  5
D087
  8
01
 10
1029.1531404497421
 20
-1583.959564858437
 30
0.0
 11
1013.15314044974
 21
-1583.959564858437
 31
0.0
  0
LINE
  5
D088
  8
01
 10
1482.15314044974
 20
-1588.9595648584379
 30
0.0
 11
1481.15314044974
 21
-1587.9595648584379
 31
0.0
  0
LINE
  5
D089
  8
01
 10
1491.453140449742
 20
-1599.9595648584379
 30
0.0
 11
1482.8531404497421
 21
-1599.9595648584379
 31
0.0
  0
LINE
  5
D08A
  8
01
 10
1491.453140449742
 20
-1601.9595648584379
 30
0.0
 11
1482.8531404497421
 21
-1601.9595648584379
 31
0.0
  0
LINE
  5
D08B
  8
01
  6
BYBLOCK
 10
1012.153140449741
 20
-1584.959564858437
 30
0.0
 11
1013.15314044974
 21
-1583.959564858437
 31
0.0
  0
LINE
  5
D08C
  8
01
  6
BYBLOCK
 10
1512.1531404497409
 20
-1584.959564858437
 30
0.0
 11
1511.1531404497409
 21
-1583.959564858437
 31
0.0
  0
ARC
  5
D099
  8
01
 10
1037.1531404497421
 20
-1699.9900359135279
 30
0.0
 40
14.99999999999954
 50
56.442690238126687
 51
123.55730976193109
  0
ARC
  5
D09A
  8
01
 10
1037.1531404497421
 20
-1699.9900359135279
 30
0.0
 40
14.99999999999954
 50
236.44269023812669
 51
303.55730976187328
  0
LINE
  5
D09B
  8
01
 10
1013.153140449739
 20
-1687.4900359135279
 30
0.0
 11
1511.153140449743
 21
-1687.4900359135279
 31
0.0
  0
LINE
  5
D09C
  8
01
 10
1013.153140449748
 20
-1712.4900359135311
 30
0.0
 11
1511.153140449735
 21
-1712.4900359135311
 31
0.0
  0
LINE
  5
D09E
  8
01
 10
1472.1531404497391
 20
-1551.7595381394649
 30
0.0
 11
1472.1531404497371
 21
-1541.759538139441
 31
0.0
  0
LINE
  5
D09F
  8
01
 10
1473.1531404497391
 20
-1552.759538183175
 30
0.0
 11
1472.1531404497391
 21
-1551.7595381394649
 31
0.0
  0
LINE
  5
D0A0
  8
01
 10
1502.1531404497371
 20
-1551.759539450763
 30
0.0
 11
1502.1531404497391
 21
-1541.7595394507639
 31
0.0
  0
LINE
  5
D0A1
  8
01
 10
1501.1531404497359
 20
-1552.7595394070529
 30
0.0
 11
1502.1531404497371
 21
-1551.759539450763
 31
0.0
  0
LINE
  5
D0A2
  8
01
 10
1481.1531404191401
 20
-1542.459538532845
 30
0.0
 11
1481.1531404497371
 21
-1541.759538532845
 31
0.0
  0
LINE
  5
D0A3
  8
01
 10
1502.1531404497391
 20
-1541.7595394507639
 30
0.0
 11
1500.653148693724
 21
-1541.7595393851991
 31
0.0
  0
LINE
  5
D0A4
  8
01
 10
1501.1531404497359
 20
-1552.7595394070529
 30
0.0
 11
1497.1531405371591
 21
-1552.759539232213
 31
0.0
  0
ARC
  5
D0A5
  8
01
 10
1497.1531404497391
 20
-1554.7595392322139
 30
0.0
 40
2.0
 50
89.999997495609463
 51
180.0
  0
LINE
  5
D0A6
  8
01
 10
1477.15314053716
 20
-1552.7595383580151
 30
0.0
 11
1473.1531404497391
 21
-1552.759538183175
 31
0.0
  0
LINE
  5
D0A7
  8
01
 10
1493.6531323936979
 20
-1541.759539079223
 30
0.0
 11
1491.1536787712721
 21
-1541.75953896997
 31
0.0
  0
LINE
  5
D0A8
  8
01
 10
1483.1536787709399
 20
-1541.7595386202829
 30
0.0
 11
1480.653139676039
 21
-1541.759538510983
 31
0.0
  0
LINE
  5
D0A9
  8
01
 10
1473.6531323674719
 20
-1541.7595382050069
 30
0.0
 11
1472.1531404497371
 21
-1541.759538139441
 31
0.0
  0
LINE
  5
D0AA
  8
01
 10
1501.1531404497371
 20
-1541.759539407072
 30
0.0
 11
1501.153140419138
 21
-1542.459539407072
 31
0.0
  0
LINE
  5
D0AB
  8
01
 10
1473.1531404191401
 20
-1542.4595381831521
 30
0.0
 11
1473.1531404497391
 21
-1541.759538183152
 31
0.0
  0
LINE
  5
D0AC
  8
01
 10
1473.1531404191401
 20
-1542.4595381831521
 30
0.0
 11
1481.1531404191401
 21
-1542.459538532845
 31
0.0
  0
LINE
  5
D0AD
  8
01
 10
1493.153140419138
 20
-1542.4595390573811
 30
0.0
 11
1501.153140419138
 21
-1542.459539407072
 31
0.0
  0
LINE
  5
D0AE
  8
01
 10
1493.153140419136
 20
-1542.4595390573811
 30
0.0
 11
1493.153140449733
 21
-1541.7595390573811
 31
0.0
  0
LINE
  5
D0AF
  8
01
 10
1483.778138245593
 20
-1542.8845387131439
 30
0.0
 11
1482.6531379669291
 21
-1541.7595383361329
 31
0.0
  0
LINE
  5
D0B0
  8
01
 10
1490.5281382455839
 20
-1542.8845402364959
 30
0.0
 11
1491.653139850898
 21
-1541.7595385328341
 31
0.0
  0
ARC
  5
D0B2
  8
01
 10
1487.1531404497391
 20
-1699.9900359135279
 30
0.0
 40
14.99999999999954
 50
236.4426902380545
 51
303.55730976187328
  0
ARC
  5
D0B3
  8
01
 10
1487.1531404497391
 20
-1699.9900359135279
 30
0.0
 40
14.99999999999954
 50
56.442690238068877
 51
123.5573097619455
  0
LINE
  5
D0B4
  8
01
 10
1620.0325241801529
 20
-1713.4900441706291
 30
0.0
 11
1619.732524101847
 21
-1713.490044157516
 31
0.0
  0
LINE
  5
D0B5
  8
01
 10
1620.0325241801529
 20
-1713.4900441706291
 30
0.0
 11
1620.0325253603651
 21
-1686.490027844377
 31
0.0
  0
LINE
  5
D0B6
  8
01
 10
1620.0325253603619
 20
-1686.490027844377
 30
0.0
 11
1619.732522921656
 21
-1686.490027831263
 31
0.0
  0
LINE
  5
D0B7
  8
01
  6
BYBLOCK
 10
1632.0325247702599
 20
-1692.2400359135299
 30
0.0
 11
1620.0325247702599
 21
-1692.2400369626041
 31
0.0
  0
LINE
  5
D0B8
  8
01
  6
BYBLOCK
 10
1620.0325247702599
 20
-1707.740036962603
 30
0.0
 11
1632.0325247702599
 21
-1707.7400359135299
 31
0.0
  0
LINE
  5
D0BA
  8
01
 10
1048.5396484976541
 20
-1526.1595370356649
 30
0.0
 11
1048.5396487867411
 21
-1519.5460359684171
 31
0.0
  0
LINE
  5
D0BB
  8
01
 10
1025.7666484976551
 20
-1526.1595360402259
 30
0.0
 11
1025.76664878674
 21
-1519.5460349729769
 31
0.0
  0
LINE
  5
D0BD
  8
01
 10
1025.1531490566269
 20
-1517.1595330846781
 30
0.0
 11
1049.1531490566269
 21
-1517.159534133752
 31
0.0
  0
LINE
  5
D0BE
  8
01
 10
1025.653148947375
 20
-1519.659533106535
 30
0.0
 11
1048.6520036413931
 21
-1519.6595341118459
 31
0.0
  0
LINE
  5
D0BF
  8
01
 10
1023.153149122233
 20
-1515.659534693169
 30
0.0
 11
1051.153149122154
 21
-1515.6595359170869
 31
0.0
  0
LINE
  5
D0C0
  8
01
 10
1052.1531490784459
 20
-1516.6595359607991
 30
0.0
 11
1051.153149122154
 21
-1515.6595359170869
 31
0.0
  0
LINE
  5
D0C1
  8
01
 10
1023.153149122233
 20
-1515.659534693169
 30
0.0
 11
1022.153149078519
 21
-1516.6595346494571
 31
0.0
  0
LINE
  5
D0C2
  8
01
 10
1052.153148628219
 20
-1526.9595342619059
 30
0.0
 11
1052.1531490784459
 21
-1516.6595359607991
 31
0.0
  0
LINE
  5
D0C3
  8
01
 10
1022.153149078517
 20
-1516.6595346494571
 30
0.0
 11
1022.153148628292
 21
-1526.9595329505639
 31
0.0
  0
LINE
  5
D0C4
  8
01
 10
1051.9531486164969
 20
-1527.1595342561441
 30
0.0
 11
1052.153148628219
 21
-1526.9595342619059
 31
0.0
  0
LINE
  5
D0C5
  8
01
 10
1022.153148628292
 20
-1526.9595329505639
 30
0.0
 11
1022.3531486225299
 21
-1527.159532962286
 31
0.0
  0
LINE
  5
D0C6
  8
01
 10
1025.653148663285
 20
-1526.1595331283911
 30
0.0
 11
1025.653149056687
 21
-1517.159533106533
 31
0.0
  0
LINE
  5
D0C7
  8
01
 10
1030.653148947408
 20
-1519.6595333250909
 30
0.0
 11
1030.653149056687
 21
-1517.1595333250909
 31
0.0
  0
LINE
  5
D0C8
  8
01
 10
1048.6531490565651
 20
-1517.1595341118959
 30
0.0
 11
1048.653148663162
 21
-1526.1595340900451
 31
0.0
  0
LINE
  5
D0C9
  8
01
 10
1048.653148663162
 20
-1526.1595340900451
 30
0.0
 11
1049.6531486194531
 21
-1527.1595341337511
 31
0.0
  0
LINE
  5
D0CA
  8
01
 10
1024.6531486195711
 20
-1527.1595330846781
 30
0.0
 11
1025.653148663285
 21
-1526.1595331283911
 31
0.0
  0
LINE
  5
D0CB
  8
01
 10
1049.1531486413701
 20
-1526.6595341119601
 30
0.0
 11
1049.1531490566269
 21
-1517.159534133752
 31
0.0
  0
LINE
  5
D0CC
  8
01
 10
1025.1531486413701
 20
-1526.659533106593
 30
0.0
 11
1025.1531490566269
 21
-1517.1595330846781
 31
0.0
  0
LINE
  5
D0CD
  8
01
 10
1049.153148663225
 20
-1526.159536896911
 30
0.0
 11
1049.153148925493
 21
-1520.1595358296629
 31
0.0
  0
LINE
  5
D0CE
  8
01
 10
1049.153148925493
 20
-1520.1595358296629
 30
0.0
 11
1048.1531489692049
 21
-1519.159535785951
 31
0.0
  0
LINE
  5
D0CF
  8
01
 10
1032.9031486850811
 20
-1525.6595353291691
 30
0.0
 11
1032.903148553946
 21
-1528.659534551497
 31
0.0
  0
LINE
  5
D0D0
  8
01
 10
1032.4031485320911
 20
-1529.159534529641
 30
0.0
 11
1032.9031485539481
 21
-1528.659534551497
 31
0.0
  0
LINE
  5
D0D1
  8
01
 10
1041.403148553946
 20
-1528.659534923044
 30
0.0
 11
1041.152443076357
 21
-1528.6595349120851
 31
0.0
  0
LINE
  5
D0D2
  8
01
 10
1033.152443076001
 20
-1528.659534562393
 30
0.0
 11
1032.903148553946
 21
-1528.659534551497
 31
0.0
  0
LINE
  5
D0D3
  8
01
 10
1022.153153178664
 20
-1529.1595340816009
 30
0.0
 11
1023.153142211445
 21
-1529.1595341253119
 31
0.0
  0
LINE
  5
D0D4
  8
01
 10
1051.153154852735
 20
-1529.1595353492321
 30
0.0
 11
1052.153143885515
 21
-1529.1595353929431
 31
0.0
  0
LINE
  5
D0D5
  8
01
 10
1027.1531486632939
 20
-1526.1595359352621
 30
0.0
 11
1027.153148619582
 21
-1527.1595359352621
 31
0.0
  0
LINE
  5
D0D6
  8
01
 10
1047.1531486194419
 20
-1527.15953680949
 30
0.0
 11
1047.1531486631541
 21
-1526.15953680949
 31
0.0
  0
LINE
  5
D0D7
  8
01
 10
1049.153148663225
 20
-1526.159536896911
 30
0.0
 11
1047.1531486631541
 21
-1526.15953680949
 31
0.0
  0
LINE
  5
D0D8
  8
01
 10
1027.1531486632939
 20
-1526.1595359352621
 30
0.0
 11
1025.153148663225
 21
-1526.159535847838
 31
0.0
  0
LINE
  5
D0D9
  8
01
 10
1044.6531489691099
 20
-1519.1595356329631
 30
0.0
 11
1044.653148684986
 21
-1525.6595358427719
 31
0.0
  0
LINE
  5
D0DA
  8
01
 10
1029.6531486851729
 20
-1525.659535187109
 30
0.0
 11
1029.653148969297
 21
-1519.159534977292
 31
0.0
  0
LINE
  5
D0DB
  8
01
 10
1029.6531486851729
 20
-1525.659535187109
 30
0.0
 11
1044.653148684986
 21
-1525.6595358427719
 31
0.0
  0
LINE
  5
D0DC
  8
01
 10
1026.1531489691899
 20
-1519.159534824315
 30
0.0
 11
1031.5064096448989
 21
-1519.15953505831
 31
0.0
  0
LINE
  5
D0DD
  8
01
 10
1042.7979117908269
 20
-1519.15953555187
 30
0.0
 11
1048.1531489692049
 21
-1519.159535785951
 31
0.0
  0
LINE
  5
D0DE
  8
01
 10
1025.153148925551
 20
-1520.159534780591
 30
0.0
 11
1025.1531486632821
 21
-1526.1595358478401
 31
0.0
  0
LINE
  5
D0DF
  8
01
 10
1025.153148925493
 20
-1520.159534780591
 30
0.0
 11
1026.1531489692029
 21
-1519.1595348243029
 31
0.0
  0
LINE
  5
D0E0
  8
01
 10
1041.403148684913
 20
-1525.6595357007179
 30
0.0
 11
1041.403148553778
 21
-1528.6595349230449
 31
0.0
  0
LINE
  5
D0E1
  8
01
 10
1031.153145808958
 20
-1529.159534474991
 30
0.0
 11
1033.1524478231479
 21
-1529.1595345623859
 31
0.0
  0
LINE
  5
D0E2
  8
01
 10
1041.1524478235031
 20
-1529.1595349120851
 30
0.0
 11
1043.153151255221
 21
-1529.15953499954
 31
0.0
  0
LINE
  5
D0E3
  8
01
 10
1041.403148553946
 20
-1528.6595349230449
 30
0.0
 11
1041.9031485320891
 21
-1529.1595349449001
 31
0.0
  0
LINE
  5
D0E4
  8
01
 10
1051.953143969957
 20
-1527.159537019304
 30
0.0
 11
1047.1531486194419
 21
-1527.15953680949
 31
0.0
  0
LINE
  5
D0E5
  8
01
 10
1027.153148619582
 20
-1527.1595359352621
 30
0.0
 11
1022.353153269069
 21
-1527.1595357254471
 31
0.0
  0
LINE
  5
D0E6
  8
01
 10
1052.153143885515
 20
-1529.1595353929431
 30
0.0
 11
1052.1531439641949
 21
-1527.3595370310279
 31
0.0
  0
LINE
  5
D0E7
  8
01
 10
1022.153153257345
 20
-1527.359535719685
 30
0.0
 11
1022.153153178664
 21
-1529.1595340816009
 31
0.0
  0
LINE
  5
D0E8
  8
01
 10
1052.1531439641949
 20
-1527.3595370310279
 30
0.0
 11
1051.953143969957
 21
-1527.159537019304
 31
0.0
  0
LINE
  5
D0E9
  8
01
 10
1022.353153269069
 20
-1527.1595357254471
 30
0.0
 11
1022.153153257345
 21
-1527.359535719685
 31
0.0
  0
LINE
  5
D0EA
  8
01
 10
1023.153142242042
 20
-1528.459535383809
 30
0.0
 11
1031.153145839555
 21
-1528.4595357335011
 31
0.0
  0
LINE
  5
D0EB
  8
01
 10
1043.1531512858189
 20
-1528.4595362580369
 30
0.0
 11
1051.153154883332
 21
-1528.459536607729
 31
0.0
  0
LINE
  5
D0EC
  8
01
 10
1051.153154883332
 20
-1528.459536607729
 30
0.0
 11
1051.153154852735
 21
-1529.1595353492321
 31
0.0
  0
LINE
  5
D0ED
  8
01
 10
1023.153142211445
 20
-1529.1595341253119
 30
0.0
 11
1023.153142242042
 21
-1528.459535383809
 31
0.0
  0
LINE
  5
D0EE
  8
01
 10
1043.153151255221
 20
-1529.15953499954
 30
0.0
 11
1043.1531512858189
 21
-1528.4595362580369
 31
0.0
  0
LINE
  5
D0EF
  8
01
 10
1031.153145839555
 20
-1528.4595357335011
 30
0.0
 11
1031.153145808958
 21
-1529.159534474991
 31
0.0
  0
LINE
  5
D0F0
  8
01
 10
1025.653149056654
 20
-1517.1595331065339
 30
0.0
 11
1025.653148947375
 21
-1519.659533106535
 31
0.0
  0
LINE
  5
D0F1
  8
01
 10
1050.653151884801
 20
-1529.459536717007
 30
0.0
 11
1050.6531518410891
 21
-1528.459536717007
 31
0.0
  0
LINE
  5
D0F2
  8
01
 10
1043.653144602461
 20
-1529.459537022987
 30
0.0
 11
1043.65314455875
 21
-1528.459537022987
 31
0.0
  0
LINE
  5
D0F3
  8
01
 10
1050.653151884801
 20
-1529.459536717007
 30
0.0
 11
1043.653144602461
 21
-1529.459537022987
 31
0.0
  0
LINE
  5
D0F4
  8
01
 10
1043.65314455875
 20
-1528.459537399594
 30
0.0
 11
1050.6531518410891
 21
-1528.459537093614
 31
0.0
  0
LINE
  5
D0F5
  8
01
 10
1030.6531428408889
 20
-1529.4595375912349
 30
0.0
 11
1030.653142797177
 21
-1528.4595375912349
 31
0.0
  0
LINE
  5
D0F6
  8
01
 10
1023.653135558549
 20
-1529.4595378972149
 30
0.0
 11
1023.653135514837
 21
-1528.4595378972149
 31
0.0
  0
LINE
  5
D0F7
  8
01
 10
1030.6531428408889
 20
-1529.4595375912349
 30
0.0
 11
1023.653135558549
 21
-1529.4595378972149
 31
0.0
  0
LINE
  5
D0F8
  8
01
 10
1023.653135514837
 20
-1528.4595382738221
 30
0.0
 11
1030.653142797177
 21
-1528.4595379678419
 31
0.0
  0
LINE
  5
D0FA
  8
01
 10
1044.903140974279
 20
-1541.459536968347
 30
0.0
 11
1044.9031404497421
 21
-1529.459536968347
 31
0.0
  0
LINE
  5
D0FB
  8
01
 10
1029.4031404497439
 20
-1529.459537645876
 30
0.0
 11
1029.403140974279
 21
-1541.459537645876
 31
0.0
  0
LINE
  5
D0FC
  8
01
 10
1029.4031404497439
 20
-1529.459537645876
 30
0.0
 11
1033.1531404497421
 21
-1529.459537481958
 31
0.0
  0
LINE
  5
D0FD
  8
01
 10
1041.1524506718131
 20
-1529.459537132296
 30
0.0
 11
1044.9031404497421
 21
-1529.459536968347
 31
0.0
  0
LINE
  5
D0FF
  8
01
 10
1041.152814018446
 20
-1567.729532069945
 30
0.0
 11
1041.152414593475
 21
-1525.6595355149409
 31
0.0
  0
LINE
  5
D100
  8
01
 10
1040.5231521822359
 20
-1568.3595276717101
 30
0.0
 11
1041.153146318781
 21
-1567.729532069294
 31
0.0
  0
LINE
  5
D101
  8
01
 10
1033.783152182089
 20
-1568.3595433543051
 30
0.0
 11
1040.5231521822359
 21
-1568.3595276717101
 31
0.0
  0
LINE
  5
D102
  8
01
 10
1044.152152523028
 20
-1522.1595285346709
 30
0.0
 11
1044.152152523028
 21
-1523.359535514938
 31
0.0
  0
LINE
  5
D103
  8
01
 10
1033.783152182089
 20
-1568.3595433543051
 30
0.0
 11
1033.15267159933
 21
-1567.7290730404541
 31
0.0
  0
ARC
  5
D104
  8
01
 10
1040.152152523028
 20
-1522.1595285346709
 30
0.0
 40
4.0
 50
0.0
 51
90.000133315525076
  0
LINE
  5
D105
  8
01
 10
1033.1528140151279
 20
-1567.7292154539309
 30
0.0
 11
1033.1524145931189
 21
-1525.65953551494
 31
0.0
  0
LINE
  5
D106
  8
01
 10
1034.1521432158479
 20
-1518.159542495451
 30
0.0
 11
1040.1521432158479
 21
-1518.1595285346821
 31
0.0
  0
ARC
  5
D107
  8
01
 10
1034.152152523028
 20
-1522.1595424954401
 30
0.0
 40
4.0
 50
90.000133315525076
 51
180.0
  0
LINE
  5
D108
  8
01
 10
1030.152152523028
 20
-1522.1595424954401
 30
0.0
 11
1030.152152523028
 21
-1523.359535514938
 31
0.0
  0
LINE
  5
D109
  8
01
 10
1030.7522028705009
 20
-1525.6595355149409
 30
0.0
 11
1030.7522028704991
 21
-1523.359535514938
 31
0.0
  0
LINE
  5
D10A
  8
01
 10
1043.5522028705
 20
-1523.359535514938
 30
0.0
 11
1043.5522028705
 21
-1525.6595355149409
 31
0.0
  0
LINE
  5
D10B
  8
01
 10
1030.7522028705009
 20
-1525.6595355149409
 30
0.0
 11
1043.5522028705
 21
-1525.6595355149409
 31
0.0
  0
LINE
  5
D10C
  8
01
 10
1044.152152523028
 20
-1523.359535514938
 30
0.0
 11
1030.152152523028
 21
-1523.359535514938
 31
0.0
  0
LINE
  5
D10D
  8
01
 10
1037.251757593406
 20
-1523.359535514938
 30
0.0
 11
1037.519706785836
 21
-1525.6595355149409
 31
0.0
  0
LINE
  5
D10E
  8
01
 10
1036.80144694317
 20
-1523.359535514938
 30
0.0
 11
1037.0693961356001
 21
-1525.6595355149409
 31
0.0
  0
LINE
  5
D10F
  8
01
 10
1040.5224875815661
 20
-1568.359527673256
 30
0.0
 11
1040.5224875815661
 21
-1525.6595355149409
 31
0.0
  0
LINE
  5
D110
  8
01
 10
1033.782487581419
 20
-1568.358878764459
 30
0.0
 11
1033.782487581419
 21
-1525.6595355149409
 31
0.0
  0
LINE
  5
D111
  8
01
 10
1041.153146318781
 20
-1567.729532069294
 30
0.0
 11
1033.1531463185811
 21
-1567.7295477519731
 31
0.0
  0
LINE
  5
D112
  8
01
 10
1043.6520035184631
 20
-1519.6587742666959
 30
0.0
 11
1043.651711437921
 21
-1517.1587742837571
 31
0.0
  0
LINE
  5
D113
  8
01
 10
1048.6517114038311
 20
-1517.158190122678
 30
0.0
 11
1048.6520036413931
 21
-1519.6595341118459
 31
0.0
  0
LINE
  5
D114
  8
01
 10
1025.653149056654
 20
-1517.159533106533
 30
0.0
 11
1048.652003750673
 21
-1517.159534111845
 31
0.0
  0
LINE
  5
D116
  8
01
 10
1022.3531486225299
 20
-1527.159532962286
 30
0.0
 11
1024.6531486195711
 21
-1527.1595330846781
 31
0.0
  0
LINE
  5
D117
  8
01
 10
1049.6531486194531
 20
-1527.1595341337511
 30
0.0
 11
1051.9531486164969
 21
-1527.1595342561441
 31
0.0
  0
LINE
  5
D119
  8
01
 10
1494.9031409742761
 20
-1541.459536968347
 30
0.0
 11
1494.9031404497391
 21
-1529.459536968347
 31
0.0
  0
LINE
  5
D11A
  8
01
 10
1479.40314044974
 20
-1529.459537645876
 30
0.0
 11
1479.4031409742761
 21
-1541.459537645876
 31
0.0
  0
LINE
  5
D11B
  8
01
 10
1479.403140974277
 20
-1541.459537645876
 30
0.0
 11
1483.153140974277
 21
-1541.459537481958
 31
0.0
  0
LINE
  5
D11C
  8
01
 10
1491.152451196348
 20
-1541.459537132296
 30
0.0
 11
1494.9031409742761
 21
-1541.459536968347
 31
0.0
  0
LINE
  5
D11D
  8
01
 10
1473.653132380585
 20
-1541.459536946493
 30
0.0
 11
1473.6531324242981
 21
-1542.459536946493
 31
0.0
  0
LINE
  5
D11E
  8
01
 10
1480.6531397066369
 20
-1542.4595366405131
 30
0.0
 11
1480.6531396629259
 21
-1541.4595366405131
 31
0.0
  0
LINE
  5
D11F
  8
01
 10
1480.6531396629259
 20
-1541.4595366405131
 30
0.0
 11
1473.653132380585
 21
-1541.459536946493
 31
0.0
  0
LINE
  5
D120
  8
01
 10
1473.6531324242981
 20
-1542.459536946491
 30
0.0
 11
1480.6531397066369
 21
-1542.459536946493
 31
0.0
  0
LINE
  5
D121
  8
01
 10
1493.6531323805841
 20
-1541.459536946493
 30
0.0
 11
1493.653132424296
 21
-1542.459536946493
 31
0.0
  0
LINE
  5
D122
  8
01
 10
1500.653139706636
 20
-1542.4595366405131
 30
0.0
 11
1500.6531396629241
 21
-1541.4595366405131
 31
0.0
  0
LINE
  5
D123
  8
01
 10
1500.6531396629241
 20
-1541.4595366405131
 30
0.0
 11
1493.6531323805841
 21
-1541.459536946493
 31
0.0
  0
LINE
  5
D124
  8
01
 10
1493.653132424296
 20
-1542.459536946491
 30
0.0
 11
1500.653139706636
 21
-1542.459536946493
 31
0.0
  0
CIRCLE
  5
D125
  8
01
 10
1565.0324974484211
 20
-1699.9900359135299
 30
0.0
 40
12.500000000000909
  0
CIRCLE
  5
D126
  8
01
 10
1565.0324974484211
 20
-1699.9900359135299
 30
0.0
 40
11.500000000000909
  0
LINE
  5
D128
  8
01
 10
1482.8531404497401
 20
-1601.9595648584341
 30
0.0
 11
1482.8531404497401
 21
-1587.9595648584379
 31
0.0
  0
LINE
  5
D129
  8
01
 10
1491.4531404497411
 20
-1601.9595648584391
 30
0.0
 11
1491.4531404497411
 21
-1587.9595648584379
 31
0.0
  0
LINE
  5
D12A
  8
01
 10
1482.1531404497421
 20
-1599.2595648584399
 30
0.0
 11
1482.15314044974
 21
-1588.9595648584379
 31
0.0
  0
LINE
  5
D12B
  8
01
 10
1492.1531404497409
 20
-1599.259564858437
 30
0.0
 11
1492.1531404497409
 21
-1588.9595648584379
 31
0.0
  0
LINE
  5
D12C
  8
01
 10
1479.15314044974
 20
-1587.9595648584379
 30
0.0
 11
1479.15314044974
 21
-1554.7595383580151
 31
0.0
  0
ARC
  5
D12D
  8
01
 10
1477.15314044974
 20
-1554.7595383580151
 30
0.0
 40
2.0
 50
0.0
 51
89.999997495609463
  0
LINE
  5
D12F
  8
01
  6
BYBLOCK
 10
1479.053140449741
 20
-1587.9595648584379
 30
0.0
 11
1479.053140449741
 21
-1583.959564858437
 31
0.0
  0
LINE
  5
D130
  8
01
 10
1495.1531404497391
 20
-1587.9595648584379
 30
0.0
 11
1495.15314044974
 21
-1554.7595392322139
 31
0.0
  0
LINE
  5
D131
  8
01
  6
BYBLOCK
 10
1495.253140449739
 20
-1587.9595648584379
 30
0.0
 11
1495.2531404497399
 21
-1583.9595648584379
 31
0.0
  0
LINE
  5
D132
  8
01
 10
1487.1531404497371
 20
-1584.9027694357701
 30
0.0
 11
1487.15314044974
 21
-1515.1542747412041
 31
0.0
  0
LINE
  5
D134
  8
01
 10
1498.5396484976509
 20
-1526.1595370356649
 30
0.0
 11
1498.539648786737
 21
-1519.5460359684171
 31
0.0
  0
LINE
  5
D135
  8
01
 10
1475.766648497651
 20
-1526.1595360402259
 30
0.0
 11
1475.7666487867359
 21
-1519.5460349729769
 31
0.0
  0
LINE
  5
D136
  8
01
 10
1499.1531486632221
 20
-1526.159536896911
 30
0.0
 11
1499.1531489254889
 21
-1520.1595358296629
 31
0.0
  0
LINE
  5
D137
  8
01
 10
1499.1531489254889
 20
-1520.1595358296629
 30
0.0
 11
1498.1531489692011
 21
-1519.159535785951
 31
0.0
  0
LINE
  5
D138
  8
01
 10
1482.903148685077
 20
-1525.6595353291691
 30
0.0
 11
1482.9031485539419
 21
-1528.659534551497
 31
0.0
  0
LINE
  5
D139
  8
01
 10
1482.403148532087
 20
-1529.159534529641
 30
0.0
 11
1482.903148553944
 21
-1528.659534551497
 31
0.0
  0
LINE
  5
D13A
  8
01
 10
1491.4031485539419
 20
-1528.659534923044
 30
0.0
 11
1491.1524430763541
 21
-1528.6595349120851
 31
0.0
  0
LINE
  5
D13B
  8
01
 10
1483.1524430759971
 20
-1528.659534562393
 30
0.0
 11
1482.9031485539419
 21
-1528.659534551497
 31
0.0
  0
LINE
  5
D13C
  8
01
 10
1472.1531531786609
 20
-1529.1595340816009
 30
0.0
 11
1473.153142211441
 21
-1529.1595341253119
 31
0.0
  0
LINE
  5
D13D
  8
01
 10
1501.1531548527309
 20
-1529.1595353492321
 30
0.0
 11
1502.1531438855111
 21
-1529.1595353929431
 31
0.0
  0
LINE
  5
D13E
  8
01
 10
1477.1531486632909
 20
-1526.1595359352621
 30
0.0
 11
1477.153148619579
 21
-1527.1595359352621
 31
0.0
  0
LINE
  5
D13F
  8
01
 10
1497.153148619439
 20
-1527.15953680949
 30
0.0
 11
1497.1531486631509
 21
-1526.15953680949
 31
0.0
  0
LINE
  5
D140
  8
01
 10
1499.1531486632221
 20
-1526.159536896911
 30
0.0
 11
1497.1531486631509
 21
-1526.15953680949
 31
0.0
  0
LINE
  5
D141
  8
01
 10
1477.1531486632909
 20
-1526.1595359352621
 30
0.0
 11
1475.1531486632221
 21
-1526.159535847838
 31
0.0
  0
LINE
  5
D142
  8
01
 10
1494.653148969107
 20
-1519.1595356329631
 30
0.0
 11
1494.6531486849819
 21
-1525.6595358427719
 31
0.0
  0
LINE
  5
D143
  8
01
 10
1479.65314868517
 20
-1525.659535187109
 30
0.0
 11
1479.6531489692941
 21
-1519.159534977292
 31
0.0
  0
LINE
  5
D144
  8
01
 10
1479.65314868517
 20
-1525.659535187109
 30
0.0
 11
1494.6531486849819
 21
-1525.6595358427719
 31
0.0
  0
LINE
  5
D145
  8
01
 10
1476.153148969187
 20
-1519.159534824315
 30
0.0
 11
1481.5064096448959
 21
-1519.15953505831
 31
0.0
  0
LINE
  5
D146
  8
01
 10
1492.7979117908239
 20
-1519.15953555187
 30
0.0
 11
1498.1531489692011
 21
-1519.159535785951
 31
0.0
  0
LINE
  5
D147
  8
01
 10
1475.1531489255469
 20
-1520.159534780591
 30
0.0
 11
1475.153148663278
 21
-1526.1595358478401
 31
0.0
  0
LINE
  5
D148
  8
01
 10
1475.1531489254889
 20
-1520.159534780591
 30
0.0
 11
1476.153148969199
 21
-1519.1595348243029
 31
0.0
  0
LINE
  5
D149
  8
01
 10
1491.403148684909
 20
-1525.6595357007179
 30
0.0
 11
1491.4031485537751
 21
-1528.6595349230449
 31
0.0
  0
LINE
  5
D14A
  8
01
 10
1481.1531458089551
 20
-1529.159534474991
 30
0.0
 11
1483.1524478231449
 21
-1529.1595345623859
 31
0.0
  0
LINE
  5
D14B
  8
01
 10
1491.152447823499
 20
-1529.1595349120851
 30
0.0
 11
1493.1531512552181
 21
-1529.15953499954
 31
0.0
  0
LINE
  5
D14C
  8
01
 10
1491.4031485539419
 20
-1528.6595349230449
 30
0.0
 11
1491.903148532085
 21
-1529.1595349449001
 31
0.0
  0
LINE
  5
D14D
  8
01
 10
1501.953143969954
 20
-1527.159537019304
 30
0.0
 11
1497.153148619439
 21
-1527.15953680949
 31
0.0
  0
LINE
  5
D14E
  8
01
 10
1477.153148619579
 20
-1527.1595359352621
 30
0.0
 11
1472.3531532690661
 21
-1527.1595357254471
 31
0.0
  0
LINE
  5
D14F
  8
01
 10
1502.1531438855111
 20
-1529.1595353929431
 30
0.0
 11
1502.1531439641919
 21
-1527.3595370310279
 31
0.0
  0
LINE
  5
D150
  8
01
 10
1472.153153257341
 20
-1527.359535719685
 30
0.0
 11
1472.1531531786609
 21
-1529.1595340816009
 31
0.0
  0
LINE
  5
D151
  8
01
 10
1502.1531439641919
 20
-1527.3595370310279
 30
0.0
 11
1501.953143969954
 21
-1527.159537019304
 31
0.0
  0
LINE
  5
D152
  8
01
 10
1472.3531532690661
 20
-1527.1595357254471
 30
0.0
 11
1472.153153257341
 21
-1527.359535719685
 31
0.0
  0
LINE
  5
D153
  8
01
 10
1473.153142242038
 20
-1528.459535383809
 30
0.0
 11
1481.1531458395521
 21
-1528.4595357335011
 31
0.0
  0
LINE
  5
D154
  8
01
 10
1493.1531512858151
 20
-1528.4595362580369
 30
0.0
 11
1501.1531548833291
 21
-1528.459536607729
 31
0.0
  0
LINE
  5
D155
  8
01
 10
1501.1531548833291
 20
-1528.459536607729
 30
0.0
 11
1501.1531548527309
 21
-1529.1595353492321
 31
0.0
  0
LINE
  5
D156
  8
01
 10
1473.153142211441
 20
-1529.1595341253119
 30
0.0
 11
1473.153142242038
 21
-1528.459535383809
 31
0.0
  0
LINE
  5
D157
  8
01
 10
1493.1531512552181
 20
-1529.15953499954
 30
0.0
 11
1493.1531512858151
 21
-1528.4595362580369
 31
0.0
  0
LINE
  5
D158
  8
01
 10
1481.1531458395521
 20
-1528.4595357335011
 30
0.0
 11
1481.1531458089551
 21
-1529.159534474991
 31
0.0
  0
LINE
  5
D159
  8
01
 10
1500.653151884798
 20
-1529.459536717007
 30
0.0
 11
1500.653151841085
 21
-1528.459536717007
 31
0.0
  0
LINE
  5
D15A
  8
01
 10
1493.6531446024569
 20
-1529.459537022987
 30
0.0
 11
1493.653144558747
 21
-1528.459537022987
 31
0.0
  0
LINE
  5
D15B
  8
01
 10
1500.653151884798
 20
-1529.459536717007
 30
0.0
 11
1493.6531446024569
 21
-1529.459537022987
 31
0.0
  0
LINE
  5
D15C
  8
01
 10
1493.653144558747
 20
-1528.459537399594
 30
0.0
 11
1500.653151841085
 21
-1528.459537093614
 31
0.0
  0
LINE
  5
D15D
  8
01
 10
1480.6531428408859
 20
-1529.4595375912349
 30
0.0
 11
1480.653142797174
 21
-1528.4595375912349
 31
0.0
  0
LINE
  5
D15E
  8
01
 10
1473.653135558545
 20
-1529.4595378972149
 30
0.0
 11
1473.6531355148329
 21
-1528.4595378972149
 31
0.0
  0
LINE
  5
D15F
  8
01
 10
1480.6531428408859
 20
-1529.4595375912349
 30
0.0
 11
1473.653135558545
 21
-1529.4595378972149
 31
0.0
  0
LINE
  5
D160
  8
01
 10
1473.6531355148329
 20
-1528.4595382738221
 30
0.0
 11
1480.653142797174
 21
-1528.4595379678419
 31
0.0
  0
LINE
  5
D161
  8
01
 10
1479.4031404497409
 20
-1529.459537645876
 30
0.0
 11
1483.1531404497391
 21
-1529.459537481958
 31
0.0
  0
LINE
  5
D162
  8
01
 10
1491.152450671809
 20
-1529.459537132296
 30
0.0
 11
1494.9031404497391
 21
-1529.459536968347
 31
0.0
  0
LINE
  5
D163
  8
01
 10
1491.1528140184421
 20
-1567.729532069945
 30
0.0
 11
1491.152414593472
 21
-1525.6595355149409
 31
0.0
  0
LINE
  5
D164
  8
01
 10
1490.523152182232
 20
-1568.3595276717101
 30
0.0
 11
1491.1531463187771
 21
-1567.729532069294
 31
0.0
  0
LINE
  5
D165
  8
01
 10
1483.7831521820849
 20
-1568.3595433543051
 30
0.0
 11
1490.523152182232
 21
-1568.3595276717101
 31
0.0
  0
LINE
  5
D166
  8
01
 10
1483.1537086952869
 20
-1575.3595448189101
 30
0.0
 11
1491.152572204192
 21
-1575.359526207197
 31
0.0
  0
LINE
  5
D167
  8
01
 10
1483.783793317916
 20
-1578.3595433528401
 30
0.0
 11
1490.5224875815629
 21
-1578.3595276732819
 31
0.0
  0
LINE
  5
D168
  8
01
 10
1494.1521525230239
 20
-1522.1595285346709
 30
0.0
 11
1494.1521525230239
 21
-1523.359535514938
 31
0.0
  0
LINE
  5
D169
  8
01
 10
1483.7831521820849
 20
-1568.3595433543051
 30
0.0
 11
1483.152671599327
 21
-1567.7290730404541
 31
0.0
  0
ARC
  5
D16A
  8
01
 10
1490.1521525230239
 20
-1522.1595285346709
 30
0.0
 40
4.0
 50
0.0
 51
90.000133315525076
  0
LINE
  5
D16B
  8
01
 10
1483.1528140151249
 20
-1567.7292154539309
 30
0.0
 11
1483.1524145931151
 21
-1525.65953551494
 31
0.0
  0
LINE
  5
D16C
  8
01
 10
1484.1521432158449
 20
-1518.159542495451
 30
0.0
 11
1490.1521432158449
 21
-1518.1595285346821
 31
0.0
  0
ARC
  5
D16D
  8
01
 10
1484.1521525230239
 20
-1522.1595424954401
 30
0.0
 40
4.0
 50
90.000133315525076
 51
180.0
  0
LINE
  5
D16E
  8
01
 10
1480.1521525230239
 20
-1522.1595424954401
 30
0.0
 11
1480.1521525230239
 21
-1523.359535514938
 31
0.0
  0
LINE
  5
D16F
  8
01
 10
1480.752202870498
 20
-1525.6595355149409
 30
0.0
 11
1480.7522028704959
 21
-1523.359535514938
 31
0.0
  0
LINE
  5
D170
  8
01
 10
1493.552202870497
 20
-1523.359535514938
 30
0.0
 11
1493.552202870497
 21
-1525.6595355149409
 31
0.0
  0
LINE
  5
D171
  8
01
 10
1480.752202870498
 20
-1525.6595355149409
 30
0.0
 11
1493.552202870497
 21
-1525.6595355149409
 31
0.0
  0
LINE
  5
D172
  8
01
 10
1494.1521525230239
 20
-1523.359535514938
 30
0.0
 11
1480.1521525230239
 21
-1523.359535514938
 31
0.0
  0
LINE
  5
D173
  8
01
 10
1487.2517575934021
 20
-1523.359535514938
 30
0.0
 11
1487.5197067858321
 21
-1525.6595355149409
 31
0.0
  0
LINE
  5
D174
  8
01
 10
1486.801446943166
 20
-1523.359535514938
 30
0.0
 11
1487.069396135596
 21
-1525.6595355149409
 31
0.0
  0
LINE
  5
D175
  8
01
 10
1490.5224875815629
 20
-1568.359527673256
 30
0.0
 11
1490.5224875815629
 21
-1525.6595355149409
 31
0.0
  0
LINE
  5
D176
  8
01
 10
1483.782487581416
 20
-1568.358878764459
 30
0.0
 11
1483.782487581416
 21
-1525.6595355149409
 31
0.0
  0
LINE
  5
D177
  8
01
 10
1491.1531463187771
 20
-1567.729532069294
 30
0.0
 11
1483.153146318577
 21
-1567.7295477519731
 31
0.0
  0
LINE
  5
D179
  8
01
 10
1482.8531404497401
 20
-1589.9595648584379
 30
0.0
 11
1482.1531404497409
 21
-1590.659564858438
 31
0.0
  0
LINE
  5
D17A
  8
01
 10
1492.1531404497409
 20
-1590.659564858438
 30
0.0
 11
1491.4531404497411
 21
-1589.959564858437
 31
0.0
  0
LINE
  5
D17B
  8
01
 10
1482.8531404497421
 20
-1599.9595648584379
 30
0.0
 11
1482.1531404497421
 21
-1599.2595648584399
 31
0.0
  0
LINE
  5
D17C
  8
01
 10
1492.1531404497409
 20
-1599.259564858437
 30
0.0
 11
1491.453140449742
 21
-1599.9595648584379
 31
0.0
  0
LINE
  5
D17D
  8
01
 10
1492.1531404497409
 20
-1599.259564858437
 30
0.0
 11
1482.1531404497421
 21
-1599.2595648584399
 31
0.0
  0
LINE
  5
D17F
  8
01
 10
1495.253140449739
 20
-1587.9595648584379
 30
0.0
 11
1491.4531404497411
 21
-1587.9595648584379
 31
0.0
  0
LINE
  5
D180
  8
01
 10
1492.1531404497409
 20
-1588.9595648584379
 30
0.0
 11
1493.1531404497421
 21
-1587.9595648584379
 31
0.0
  0
LINE
  5
D181
  8
01
 10
1491.152572204192
 20
-1542.2601062233
 30
0.0
 11
1491.152572204192
 21
-1575.359526207197
 31
0.0
  0
LINE
  5
D182
  8
01
 10
1490.5224875815629
 20
-1542.884540235221
 30
0.0
 11
1490.5224875815629
 21
-1578.3595276732819
 31
0.0
  0
LINE
  5
D183
  8
01
 10
1483.1537086952869
 20
-1542.2601062233
 30
0.0
 11
1483.1537086952869
 21
-1575.3595448189101
 31
0.0
  0
LINE
  5
D184
  8
01
 10
1483.7837933179169
 20
-1542.884540235221
 30
0.0
 11
1483.783793317916
 21
-1578.3595433528401
 31
0.0
  0
LINE
  5
D185
  8
01
 10
1483.7841892780459
 20
-1575.9900151327611
 30
0.0
 11
1483.1537086952869
 21
-1575.3595448189101
 31
0.0
  0
LINE
  5
D186
  8
01
 10
1487.15314044974
 20
-1581.728835606664
 30
0.0
 11
1483.783793317916
 21
-1578.3595433528401
 31
0.0
  0
LINE
  5
D187
  8
01
 10
1490.522091621428
 20
-1575.990015132759
 30
0.0
 11
1491.1525722041861
 21
-1575.3595448189069
 31
0.0
  0
LINE
  5
D188
  8
01
 10
1487.15314044974
 20
-1581.728835606664
 30
0.0
 11
1490.52248758156
 21
-1578.359543352838
 31
0.0
  0
LINE
  5
D189
  8
01
 10
1490.5224875815629
 20
-1575.9896191790731
 30
0.0
 11
1483.783793317916
 21
-1575.9896191790799
 31
0.0
  0
LINE
  5
D18A
  8
01
 10
1634.5325280449511
 20
-1714.990044092011
 30
0.0
 11
1643.3325246518709
 21
-1714.9900444766749
 31
0.0
  0
LINE
  5
D18B
  8
01
 10
1643.33252465187
 20
-1684.99004447674
 30
0.0
 11
1634.532529356293
 21
-1684.990044092084
 31
0.0
  0
LINE
  5
D18C
  8
01
 10
1634.3325280507131
 20
-1714.7900440802889
 30
0.0
 11
1634.5325280449511
 21
-1714.990044092011
 31
0.0
  0
LINE
  5
D18D
  8
01
 10
1634.532529356293
 20
-1684.990044092084
 30
0.0
 11
1634.3325296258511
 21
-1685.1900438050429
 31
0.0
  0
LINE
  5
D18E
  8
01
 10
1632.332528225264
 20
-1684.990048642456
 30
0.0
 11
1632.3325269139129
 21
-1714.9900393493081
 31
0.0
  0
LINE
  5
D18F
  8
01
 10
1634.332525287552
 20
-1714.7900394337501
 30
0.0
 11
1634.3325265814069
 21
-1685.1900487328589
 31
0.0
  0
LINE
  5
D190
  8
01
 10
1632.3325269139129
 20
-1714.9900393493081
 30
0.0
 11
1634.132525275829
 21
-1714.990039427988
 31
0.0
  0
LINE
  5
D191
  8
01
 10
1634.132526587171
 20
-1684.9900487211371
 30
0.0
 11
1632.332528225264
 21
-1684.990048642456
 31
0.0
  0
LINE
  5
D192
  8
01
 10
1634.132525275829
 20
-1714.990039427988
 30
0.0
 11
1634.332525287552
 21
-1714.7900394337501
 31
0.0
  0
LINE
  5
D193
  8
01
 10
1634.3325265814069
 20
-1685.1900487328589
 30
0.0
 11
1634.132526587171
 21
-1684.9900487211371
 31
0.0
  0
LINE
  5
D194
  8
01
 10
1632.0325255898499
 20
-1713.4900473485941
 30
0.0
 11
1632.3325269794809
 21
-1713.4900473354789
 31
0.0
  0
LINE
  5
D195
  8
01
 10
1632.0325255898499
 20
-1713.4900473485941
 30
0.0
 11
1632.03252440964
 21
-1686.4900310223411
 31
0.0
  0
LINE
  5
D196
  8
01
 10
1632.03252440964
 20
-1686.4900310223411
 30
0.0
 11
1632.3325281596969
 21
-1686.4900310092271
 31
0.0
  0
LINE
  5
D197
  8
01
 10
1634.3325296258511
 20
-1685.1900438050429
 30
0.0
 11
1634.3325280507131
 21
-1714.7900440802889
 31
0.0
  0
LINE
  5
D198
  8
01
 10
1643.33252465187
 20
-1684.99004447674
 30
0.0
 11
1643.3325246518709
 21
-1714.9900444766749
 31
0.0
  0
LINE
  5
D199
  8
01
 10
1052.1531404497439
 20
-1551.759538139466
 30
0.0
 11
1052.1531404497439
 21
-1541.759538139441
 31
0.0
  0
LINE
  5
D19A
  8
01
 10
1051.1531404497439
 20
-1552.7595381831759
 30
0.0
 11
1052.1531404497439
 21
-1551.759538139466
 31
0.0
  0
LINE
  5
D19B
  8
01
 10
1022.153140449742
 20
-1551.7595394507639
 30
0.0
 11
1022.153140449742
 21
-1541.7595394507639
 31
0.0
  0
LINE
  5
D19C
  8
01
 10
1023.153140449742
 20
-1552.759539407054
 30
0.0
 11
1022.153140449742
 21
-1551.7595394507639
 31
0.0
  0
LINE
  5
D19D
  8
01
 10
1043.1531404803411
 20
-1542.459538532845
 30
0.0
 11
1043.1531404497439
 21
-1541.759538532845
 31
0.0
  0
LINE
  5
D19E
  8
01
 10
1022.153140449742
 20
-1541.7595394507639
 30
0.0
 11
1023.6531322057569
 21
-1541.7595393851991
 31
0.0
  0
LINE
  5
D19F
  8
01
 10
1023.153140449742
 20
-1552.759539407054
 30
0.0
 11
1027.1531403623201
 21
-1552.759539232213
 31
0.0
  0
LINE
  5
D1A0
  8
01
 10
1047.1531403623219
 20
-1552.7595383580151
 30
0.0
 11
1051.1531404497439
 21
-1552.7595381831759
 31
0.0
  0
LINE
  5
D1A1
  8
01
 10
1030.6531485057831
 20
-1541.759539079223
 30
0.0
 11
1033.1526021282079
 21
-1541.75953896997
 31
0.0
  0
LINE
  5
D1A2
  8
01
 10
1041.152602128541
 20
-1541.7595386202829
 30
0.0
 11
1043.6531412234419
 21
-1541.759538510983
 31
0.0
  0
LINE
  5
D1A3
  8
01
 10
1050.653148532009
 20
-1541.7595382050069
 30
0.0
 11
1052.1531404497439
 21
-1541.759538139441
 31
0.0
  0
LINE
  5
D1A4
  8
01
 10
1023.153140449744
 20
-1541.759539407072
 30
0.0
 11
1023.153140480343
 21
-1542.459539407072
 31
0.0
  0
LINE
  5
D1A5
  8
01
 10
1051.1531404803411
 20
-1542.4595381831521
 30
0.0
 11
1051.1531404497421
 21
-1541.759538183152
 31
0.0
  0
LINE
  5
D1A6
  8
01
 10
1051.1531404803411
 20
-1542.4595381831521
 30
0.0
 11
1043.1531404803411
 21
-1542.459538532845
 31
0.0
  0
LINE
  5
D1A7
  8
01
 10
1031.1531404803429
 20
-1542.4595390573811
 30
0.0
 11
1023.153140480343
 21
-1542.459539407072
 31
0.0
  0
LINE
  5
D1A8
  8
01
 10
1031.153140480345
 20
-1542.4595390573811
 30
0.0
 11
1031.153140449748
 21
-1541.7595390573811
 31
0.0
  0
LINE
  5
D1A9
  8
01
 10
1040.5281426538879
 20
-1542.8845387131439
 30
0.0
 11
1041.6531429325521
 21
-1541.7595383361329
 31
0.0
  0
LINE
  5
D1AA
  8
01
 10
1033.778142653897
 20
-1542.8845402364959
 30
0.0
 11
1032.6531410485829
 21
-1541.7595385328341
 31
0.0
  0
LINE
  5
D1AB
  8
01
 10
1033.778142653897
 20
-1542.8845402364959
 30
0.0
 11
1040.5281426538879
 21
-1542.8845387131439
 31
0.0
  0
LINE
  5
D1AC
  8
01
 10
1044.903139925204
 20
-1541.459537645876
 30
0.0
 11
1041.153139925204
 21
-1541.459537481958
 31
0.0
  0
LINE
  5
D1AD
  8
01
 10
1033.1538297031329
 20
-1541.459537132296
 30
0.0
 11
1029.403139925206
 21
-1541.459536968347
 31
0.0
  0
LINE
  5
D1AE
  8
01
 10
1050.6531485188959
 20
-1541.459536946493
 30
0.0
 11
1050.6531484751829
 21
-1542.459536946493
 31
0.0
  0
LINE
  5
D1AF
  8
01
 10
1043.6531411928449
 20
-1542.4595366405131
 30
0.0
 11
1043.653141236555
 21
-1541.4595366405131
 31
0.0
  0
LINE
  5
D1B0
  8
01
 10
1043.653141236555
 20
-1541.4595366405131
 30
0.0
 11
1050.6531485188959
 21
-1541.459536946493
 31
0.0
  0
LINE
  5
D1B1
  8
01
 10
1050.6531484751829
 20
-1542.459536946491
 30
0.0
 11
1043.6531411928449
 21
-1542.459536946493
 31
0.0
  0
LINE
  5
D1B2
  8
01
 10
1030.653148518898
 20
-1541.459536946493
 30
0.0
 11
1030.6531484751849
 21
-1542.459536946493
 31
0.0
  0
LINE
  5
D1B3
  8
01
 10
1023.6531411928451
 20
-1542.4595366405131
 30
0.0
 11
1023.653141236557
 21
-1541.4595366405131
 31
0.0
  0
LINE
  5
D1B4
  8
01
 10
1023.653141236557
 20
-1541.4595366405131
 30
0.0
 11
1030.653148518898
 21
-1541.459536946493
 31
0.0
  0
LINE
  5
D1B5
  8
01
 10
1030.6531484751849
 20
-1542.459536946491
 30
0.0
 11
1023.6531411928451
 21
-1542.459536946493
 31
0.0
  0
LINE
  5
D1B6
  8
01
 10
1045.15314044974
 20
-1583.959564858437
 30
0.0
 11
1045.1531404497421
 21
-1554.7595383580151
 31
0.0
  0
ARC
  5
D1B7
  8
01
 10
1047.1531404497421
 20
-1554.7595383580151
 30
0.0
 40
2.0
 50
90.000002504390537
 51
180.0
  0
LINE
  5
D1B8
  8
01
 10
1029.1531404497421
 20
-1583.959564858437
 30
0.0
 11
1029.15314044974
 21
-1554.759539232213
 31
0.0
  0
ARC
  5
D1B9
  8
01
 10
1027.15314044974
 20
-1554.759539232213
 30
0.0
 40
2.0
 50
0.0
 51
90.000002504416585
  0
LINE
  5
D1BA
  8
01
 10
1033.7831287172489
 20
-1568.3595276717101
 30
0.0
 11
1033.1531345807041
 21
-1567.729532069294
 31
0.0
  0
LINE
  5
D1BB
  8
01
 10
1040.523128717396
 20
-1568.3595433543051
 30
0.0
 11
1033.7831287172489
 21
-1568.3595276717101
 31
0.0
  0
LINE
  5
D1BC
  8
01
 10
1040.523128717396
 20
-1568.3595433543051
 30
0.0
 11
1041.1536093001539
 21
-1567.7290730404541
 31
0.0
  0
LINE
  5
D1BD
  8
01
 10
1033.1531345807041
 20
-1567.729532069294
 30
0.0
 11
1041.153134580904
 21
-1567.7295477519731
 31
0.0
  0
LINE
  5
D1BE
  8
01
 10
1033.153708695289
 20
-1542.2601062233
 30
0.0
 11
1033.153708695289
 21
-1570.6666057377131
 31
0.0
  0
LINE
  5
D1BF
  8
01
 10
1033.7837933179189
 20
-1542.884540235221
 30
0.0
 11
1033.7837933179189
 21
-1570.5893100959061
 31
0.0
  0
LINE
  5
D1C0
  8
01
 10
1041.152572204194
 20
-1542.2601062233
 30
0.0
 11
1041.152572204194
 21
-1572.5692456710631
 31
0.0
  0
LINE
  5
D1C1
  8
01
 10
1040.5224875815641
 20
-1542.884540235221
 30
0.0
 11
1040.5224875815661
 21
-1572.4101231686179
 31
0.0
  0
LINE
  5
D1C2
  8
01
  6
BYBLOCK
 10
1012.153140449741
 20
-1711.4900359135261
 30
0.0
 11
1012.153140449741
 21
-1688.4900359135249
 31
0.0
  0
LINE
  5
D1C3
  8
01
  6
BYBLOCK
 10
1013.15314044974
 20
-1712.4900359135261
 30
0.0
 11
1012.153140449741
 21
-1711.4900359135261
 31
0.0
  0
LINE
  5
D1C4
  8
01
  6
BYBLOCK
 10
1512.1531404497409
 20
-1711.4900359135249
 30
0.0
 11
1512.1531404497409
 21
-1688.4900359135249
 31
0.0
  0
LINE
  5
D1C5
  8
01
  6
BYBLOCK
 10
1511.1531404497409
 20
-1712.4900359135249
 30
0.0
 11
1512.1531404497409
 21
-1711.4900359135249
 31
0.0
  0
LINE
  5
D1C6
  8
01
  6
BYBLOCK
 10
1012.153140449741
 20
-1688.4900359135249
 30
0.0
 11
1013.15314044974
 21
-1687.4900359135249
 31
0.0
  0
LINE
  5
D1C7
  8
01
  6
BYBLOCK
 10
1512.1531404497409
 20
-1688.4900359135249
 30
0.0
 11
1511.1531404497409
 21
-1687.4900359135249
 31
0.0
  0
LINE
  5
D1D0
  8
01
  6
BYBLOCK
 10
1013.153140449748
 20
-1712.4900359135311
 30
0.0
 11
1013.153140449739
 21
-1687.4900359135279
 31
0.0
  0
LINE
  5
D1D1
  8
01
  6
BYBLOCK
 10
1013.153140449738
 20
-1608.959564858435
 30
0.0
 11
1013.153140449738
 21
-1583.95956485844
 31
0.0
  0
LINE
  5
D1D4
  8
01
  6
BYBLOCK
 10
1511.1531404497409
 20
-1712.4900359135249
 30
0.0
 11
1511.1531404497409
 21
-1687.4900359135249
 31
0.0
  0
POLYLINE
  8
01
  5
D9B0
  66
     1
 10
0.000000
 20
0.000000
 30
0.000000
  70
     8
  0
VERTEX
  8
01
  5
D9B1
 10
1045.15
 20
-1570.90
 30
0.000000
  70
    32
  0
VERTEX
  8
01
  5
D9B2
 10
1045.09
 20
-1570.98
 30
0.000000
  70
    32
  0
VERTEX
  8
01
  5
D9B3
 10
1045.03
 20
-1571.05
 30
0.000000
  70
    32
  0
VERTEX
  8
01
  5
D9B4
 10
1044.96
 20
-1571.12
 30
0.000000
  70
    32
  0
VERTEX
  8
01
  5
D9B5
 10
1044.90
 20
-1571.19
 30
0.000000
  70
    32
  0
VERTEX
  8
01
  5
D9B6
 10
1044.84
 20
-1571.25
 30
0.000000
  70
    32
  0
VERTEX
  8
01
  5
D9B7
 10
1044.77
 20
-1571.32
 30
0.000000
  70
    32
  0
VERTEX
  8
01
  5
D9B8
 10
1044.71
 20
-1571.38
 30
0.000000
  70
    32
  0
VERTEX
  8
01
  5
D9B9
 10
1044.65
 20
-1571.45
 30
0.000000
  70
    32
  0
VERTEX
  8
01
  5
D9BA
 10
1044.58
 20
-1571.51
 30
0.000000
  70
    32
  0
VERTEX
  8
01
  5
D9BB
 10
1044.52
 20
-1571.57
 30
0.000000
  70
    32
  0
VERTEX
  8
01
  5
D9BC
 10
1044.45
 20
-1571.63
 30
0.000000
  70
    32
  0
VERTEX
  8
01
  5
D9BD
 10
1044.39
 20
-1571.69
 30
0.000000
  70
    32
  0
VERTEX
  8
01
  5
D9BE
 10
1044.32
 20
-1571.75
 30
0.000000
  70
    32
  0
VERTEX
  8
01
  5
D9BF
 10
1044.25
 20
-1571.80
 30
0.000000
  70
    32
  0
VERTEX
  8
01
  5
D9C0
 10
1044.19
 20
-1571.86
 30
0.000000
  70
    32
  0
VERTEX
  8
01
  5
D9C1
 10
1044.12
 20
-1571.91
 30
0.000000
  70
    32
  0
VERTEX
  8
01
  5
D9C2
 10
1044.05
 20
-1571.96
 30
0.000000
  70
    32
  0
VERTEX
  8
01
  5
D9C3
 10
1043.98
 20
-1572.01
 30
0.000000
  70
    32
  0
VERTEX
  8
01
  5
D9C4
 10
1043.92
 20
-1572.06
 30
0.000000
  70
    32
  0
VERTEX
  8
01
  5
D9C5
 10
1043.85
 20
-1572.11
 30
0.000000
  70
    32
  0
VERTEX
  8
01
  5
D9C6
 10
1043.78
 20
-1572.15
 30
0.000000
  70
    32
  0
VERTEX
  8
01
  5
D9C7
 10
1043.71
 20
-1572.20
 30
0.000000
  70
    32
  0
VERTEX
  8
01
  5
D9C8
 10
1043.64
 20
-1572.24
 30
0.000000
  70
    32
  0
VERTEX
  8
01
  5
D9C9
 10
1043.57
 20
-1572.28
 30
0.000000
  70
    32
  0
VERTEX
  8
01
  5
D9CA
 10
1043.50
 20
-1572.32
 30
0.000000
  70
    32
  0
VERTEX
  8
01
  5
D9CB
 10
1043.43
 20
-1572.35
 30
0.000000
  70
    32
  0
VERTEX
  8
01
  5
D9CC
 10
1043.36
 20
-1572.39
 30
0.000000
  70
    32
  0
VERTEX
  8
01
  5
D9CD
 10
1043.28
 20
-1572.42
 30
0.000000
  70
    32
  0
VERTEX
  8
01
  5
D9CE
 10
1043.21
 20
-1572.45
 30
0.000000
  70
    32
  0
VERTEX
  8
01
  5
D9CF
 10
1043.14
 20
-1572.48
 30
0.000000
  70
    32
  0
VERTEX
  8
01
  5
D9D0
 10
1043.07
 20
-1572.51
 30
0.000000
  70
    32
  0
VERTEX
  8
01
  5
D9D1
 10
1042.99
 20
-1572.53
 30
0.000000
  70
    32
  0
VERTEX
  8
01
  5
D9D2
 10
1042.92
 20
-1572.55
 30
0.000000
  70
    32
  0
VERTEX
  8
01
  5
D9D3
 10
1042.84
 20
-1572.58
 30
0.000000
  70
    32
  0
VERTEX
  8
01
  5
D9D4
 10
1042.77
 20
-1572.59
 30
0.000000
  70
    32
  0
VERTEX
  8
01
  5
D9D5
 10
1042.69
 20
-1572.61
 30
0.000000
  70
    32
  0
VERTEX
  8
01
  5
D9D6
 10
1042.62
 20
-1572.62
 30
0.000000
  70
    32
  0
VERTEX
  8
01
  5
D9D7
 10
1042.54
 20
-1572.64
 30
0.000000
  70
    32
  0
VERTEX
  8
01
  5
D9D8
 10
1042.46
 20
-1572.65
 30
0.000000
  70
    32
  0
VERTEX
  8
01
  5
D9D9
 10
1042.38
 20
-1572.66
 30
0.000000
  70
    32
  0
VERTEX
  8
01
  5
D9DA
 10
1042.31
 20
-1572.66
 30
0.000000
  70
    32
  0
VERTEX
  8
01
  5
D9DB
 10
1042.23
 20
-1572.67
 30
0.000000
  70
    32
  0
VERTEX
  8
01
  5
D9DC
 10
1042.15
 20
-1572.67
 30
0.000000
  70
    32
  0
VERTEX
  8
01
  5
D9DD
 10
1042.07
 20
-1572.67
 30
0.000000
  70
    32
  0
VERTEX
  8
01
  5
D9DE
 10
1041.99
 20
-1572.67
 30
0.000000
  70
    32
  0
VERTEX
  8
01
  5
D9DF
 10
1041.91
 20
-1572.67
 30
0.000000
  70
    32
  0
VERTEX
  8
01
  5
D9E0
 10
1041.83
 20
-1572.66
 30
0.000000
  70
    32
  0
VERTEX
  8
01
  5
D9E1
 10
1041.74
 20
-1572.66
 30
0.000000
  70
    32
  0
VERTEX
  8
01
  5
D9E2
 10
1041.66
 20
-1572.65
 30
0.000000
  70
    32
  0
VERTEX
  8
01
  5
D9E3
 10
1041.58
 20
-1572.64
 30
0.000000
  70
    32
  0
VERTEX
  8
01
  5
D9E4
 10
1041.50
 20
-1572.63
 30
0.000000
  70
    32
  0
VERTEX
  8
01
  5
D9E5
 10
1041.41
 20
-1572.62
 30
0.000000
  70
    32
  0
VERTEX
  8
01
  5
D9E6
 10
1041.33
 20
-1572.60
 30
0.000000
  70
    32
  0
VERTEX
  8
01
  5
D9E7
 10
1041.25
 20
-1572.59
 30
0.000000
  70
    32
  0
VERTEX
  8
01
  5
D9E8
 10
1041.16
 20
-1572.57
 30
0.000000
  70
    32
  0
VERTEX
  8
01
  5
D9E9
 10
1041.08
 20
-1572.55
 30
0.000000
  70
    32
  0
VERTEX
  8
01
  5
D9EA
 10
1040.99
 20
-1572.53
 30
0.000000
  70
    32
  0
VERTEX
  8
01
  5
D9EB
 10
1040.91
 20
-1572.51
 30
0.000000
  70
    32
  0
VERTEX
  8
01
  5
D9EC
 10
1040.82
 20
-1572.49
 30
0.000000
  70
    32
  0
VERTEX
  8
01
  5
D9ED
 10
1040.74
 20
-1572.47
 30
0.000000
  70
    32
  0
VERTEX
  8
01
  5
D9EE
 10
1040.65
 20
-1572.45
 30
0.000000
  70
    32
  0
VERTEX
  8
01
  5
D9EF
 10
1040.57
 20
-1572.42
 30
0.000000
  70
    32
  0
VERTEX
  8
01
  5
D9F0
 10
1040.48
 20
-1572.40
 30
0.000000
  70
    32
  0
VERTEX
  8
01
  5
D9F1
 10
1040.39
 20
-1572.37
 30
0.000000
  70
    32
  0
VERTEX
  8
01
  5
D9F2
 10
1040.30
 20
-1572.34
 30
0.000000
  70
    32
  0
VERTEX
  8
01
  5
D9F3
 10
1040.22
 20
-1572.31
 30
0.000000
  70
    32
  0
VERTEX
  8
01
  5
D9F4
 10
1040.13
 20
-1572.29
 30
0.000000
  70
    32
  0
VERTEX
  8
01
  5
D9F5
 10
1040.04
 20
-1572.25
 30
0.000000
  70
    32
  0
VERTEX
  8
01
  5
D9F6
 10
1039.95
 20
-1572.22
 30
0.000000
  70
    32
  0
VERTEX
  8
01
  5
D9F7
 10
1039.86
 20
-1572.19
 30
0.000000
  70
    32
  0
VERTEX
  8
01
  5
D9F8
 10
1039.77
 20
-1572.16
 30
0.000000
  70
    32
  0
VERTEX
  8
01
  5
D9F9
 10
1039.69
 20
-1572.13
 30
0.000000
  70
    32
  0
VERTEX
  8
01
  5
D9FA
 10
1039.60
 20
-1572.09
 30
0.000000
  70
    32
  0
VERTEX
  8
01
  5
D9FB
 10
1039.51
 20
-1572.06
 30
0.000000
  70
    32
  0
VERTEX
  8
01
  5
D9FC
 10
1039.42
 20
-1572.03
 30
0.000000
  70
    32
  0
VERTEX
  8
01
  5
D9FD
 10
1039.33
 20
-1571.99
 30
0.000000
  70
    32
  0
VERTEX
  8
01
  5
D9FE
 10
1039.24
 20
-1571.96
 30
0.000000
  70
    32
  0
VERTEX
  8
01
  5
D9FF
 10
1039.15
 20
-1571.92
 30
0.000000
  70
    32
  0
VERTEX
  8
01
  5
DA00
 10
1039.06
 20
-1571.88
 30
0.000000
  70
    32
  0
VERTEX
  8
01
  5
DA01
 10
1038.97
 20
-1571.85
 30
0.000000
  70
    32
  0
VERTEX
  8
01
  5
DA02
 10
1038.87
 20
-1571.81
 30
0.000000
  70
    32
  0
VERTEX
  8
01
  5
DA03
 10
1038.78
 20
-1571.77
 30
0.000000
  70
    32
  0
VERTEX
  8
01
  5
DA04
 10
1038.69
 20
-1571.74
 30
0.000000
  70
    32
  0
VERTEX
  8
01
  5
DA05
 10
1038.60
 20
-1571.70
 30
0.000000
  70
    32
  0
VERTEX
  8
01
  5
DA06
 10
1038.51
 20
-1571.66
 30
0.000000
  70
    32
  0
VERTEX
  8
01
  5
DA07
 10
1038.42
 20
-1571.62
 30
0.000000
  70
    32
  0
VERTEX
  8
01
  5
DA08
 10
1038.33
 20
-1571.59
 30
0.000000
  70
    32
  0
VERTEX
  8
01
  5
DA09
 10
1038.24
 20
-1571.55
 30
0.000000
  70
    32
  0
VERTEX
  8
01
  5
DA0A
 10
1038.14
 20
-1571.51
 30
0.000000
  70
    32
  0
VERTEX
  8
01
  5
DA0B
 10
1038.05
 20
-1571.48
 30
0.000000
  70
    32
  0
VERTEX
  8
01
  5
DA0C
 10
1037.96
 20
-1571.44
 30
0.000000
  70
    32
  0
VERTEX
  8
01
  5
DA0D
 10
1037.87
 20
-1571.40
 30
0.000000
  70
    32
  0
VERTEX
  8
01
  5
DA0E
 10
1037.78
 20
-1571.37
 30
0.000000
  70
    32
  0
VERTEX
  8
01
  5
DA0F
 10
1037.68
 20
-1571.33
 30
0.000000
  70
    32
  0
VERTEX
  8
01
  5
DA10
 10
1037.59
 20
-1571.29
 30
0.000000
  70
    32
  0
VERTEX
  8
01
  5
DA11
 10
1037.50
 20
-1571.26
 30
0.000000
  70
    32
  0
VERTEX
  8
01
  5
DA12
 10
1037.41
 20
-1571.22
 30
0.000000
  70
    32
  0
VERTEX
  8
01
  5
DA13
 10
1037.32
 20
-1571.19
 30
0.000000
  70
    32
  0
VERTEX
  8
01
  5
DA14
 10
1037.22
 20
-1571.16
 30
0.000000
  70
    32
  0
VERTEX
  8
01
  5
DA15
 10
1037.13
 20
-1571.12
 30
0.000000
  70
    32
  0
VERTEX
  8
01
  5
DA16
 10
1037.04
 20
-1571.09
 30
0.000000
  70
    32
  0
VERTEX
  8
01
  5
DA17
 10
1036.95
 20
-1571.06
 30
0.000000
  70
    32
  0
VERTEX
  8
01
  5
DA18
 10
1036.85
 20
-1571.03
 30
0.000000
  70
    32
  0
VERTEX
  8
01
  5
DA19
 10
1036.76
 20
-1570.99
 30
0.000000
  70
    32
  0
VERTEX
  8
01
  5
DA1A
 10
1036.67
 20
-1570.96
 30
0.000000
  70
    32
  0
VERTEX
  8
01
  5
DA1B
 10
1036.58
 20
-1570.94
 30
0.000000
  70
    32
  0
VERTEX
  8
01
  5
DA1C
 10
1036.49
 20
-1570.91
 30
0.000000
  70
    32
  0
VERTEX
  8
01
  5
DA1D
 10
1036.39
 20
-1570.88
 30
0.000000
  70
    32
  0
VERTEX
  8
01
  5
DA1E
 10
1036.30
 20
-1570.85
 30
0.000000
  70
    32
  0
VERTEX
  8
01
  5
DA1F
 10
1036.21
 20
-1570.83
 30
0.000000
  70
    32
  0
VERTEX
  8
01
  5
DA20
 10
1036.12
 20
-1570.80
 30
0.000000
  70
    32
  0
VERTEX
  8
01
  5
DA21
 10
1036.03
 20
-1570.78
 30
0.000000
  70
    32
  0
VERTEX
  8
01
  5
DA22
 10
1035.94
 20
-1570.76
 30
0.000000
  70
    32
  0
VERTEX
  8
01
  5
DA23
 10
1035.84
 20
-1570.74
 30
0.000000
  70
    32
  0
VERTEX
  8
01
  5
DA24
 10
1035.75
 20
-1570.72
 30
0.000000
  70
    32
  0
VERTEX
  8
01
  5
DA25
 10
1035.66
 20
-1570.70
 30
0.000000
  70
    32
  0
VERTEX
  8
01
  5
DA26
 10
1035.57
 20
-1570.68
 30
0.000000
  70
    32
  0
VERTEX
  8
01
  5
DA27
 10
1035.48
 20
-1570.66
 30
0.000000
  70
    32
  0
VERTEX
  8
01
  5
DA28
 10
1035.39
 20
-1570.65
 30
0.000000
  70
    32
  0
VERTEX
  8
01
  5
DA29
 10
1035.30
 20
-1570.63
 30
0.000000
  70
    32
  0
VERTEX
  8
01
  5
DA2A
 10
1035.21
 20
-1570.62
 30
0.000000
  70
    32
  0
VERTEX
  8
01
  5
DA2B
 10
1035.12
 20
-1570.61
 30
0.000000
  70
    32
  0
VERTEX
  8
01
  5
DA2C
 10
1035.03
 20
-1570.60
 30
0.000000
  70
    32
  0
VERTEX
  8
01
  5
DA2D
 10
1034.94
 20
-1570.59
 30
0.000000
  70
    32
  0
VERTEX
  8
01
  5
DA2E
 10
1034.85
 20
-1570.59
 30
0.000000
  70
    32
  0
VERTEX
  8
01
  5
DA2F
 10
1034.76
 20
-1570.58
 30
0.000000
  70
    32
  0
VERTEX
  8
01
  5
DA30
 10
1034.67
 20
-1570.57
 30
0.000000
  70
    32
  0
VERTEX
  8
01
  5
DA31
 10
1034.58
 20
-1570.57
 30
0.000000
  70
    32
  0
VERTEX
  8
01
  5
DA32
 10
1034.49
 20
-1570.57
 30
0.000000
  70
    32
  0
VERTEX
  8
01
  5
DA33
 10
1034.40
 20
-1570.57
 30
0.000000
  70
    32
  0
VERTEX
  8
01
  5
DA34
 10
1034.31
 20
-1570.57
 30
0.000000
  70
    32
  0
VERTEX
  8
01
  5
DA35
 10
1034.22
 20
-1570.57
 30
0.000000
  70
    32
  0
VERTEX
  8
01
  5
DA36
 10
1034.13
 20
-1570.57
 30
0.000000
  70
    32
  0
VERTEX
  8
01
  5
DA37
 10
1034.05
 20
-1570.57
 30
0.000000
  70
    32
  0
VERTEX
  8
01
  5
DA38
 10
1033.96
 20
-1570.58
 30
0.000000
  70
    32
  0
VERTEX
  8
01
  5
DA39
 10
1033.87
 20
-1570.58
 30
0.000000
  70
    32
  0
VERTEX
  8
01
  5
DA3A
 10
1033.78
 20
-1570.59
 30
0.000000
  70
    32
  0
VERTEX
  8
01
  5
DA3B
 10
1033.69
 20
-1570.60
 30
0.000000
  70
    32
  0
VERTEX
  8
01
  5
DA3C
 10
1033.60
 20
-1570.61
 30
0.000000
  70
    32
  0
VERTEX
  8
01
  5
DA3D
 10
1033.52
 20
-1570.62
 30
0.000000
  70
    32
  0
VERTEX
  8
01
  5
DA3E
 10
1033.43
 20
-1570.63
 30
0.000000
  70
    32
  0
VERTEX
  8
01
  5
DA3F
 10
1033.34
 20
-1570.64
 30
0.000000
  70
    32
  0
VERTEX
  8
01
  5
DA40
 10
1033.25
 20
-1570.65
 30
0.000000
  70
    32
  0
VERTEX
  8
01
  5
DA41
 10
1033.17
 20
-1570.66
 30
0.000000
  70
    32
  0
VERTEX
  8
01
  5
DA42
 10
1033.08
 20
-1570.68
 30
0.000000
  70
    32
  0
VERTEX
  8
01
  5
DA43
 10
1032.99
 20
-1570.70
 30
0.000000
  70
    32
  0
VERTEX
  8
01
  5
DA44
 10
1032.90
 20
-1570.71
 30
0.000000
  70
    32
  0
VERTEX
  8
01
  5
DA45
 10
1032.82
 20
-1570.73
 30
0.000000
  70
    32
  0
VERTEX
  8
01
  5
DA46
 10
1032.73
 20
-1570.75
 30
0.000000
  70
    32
  0
VERTEX
  8
01
  5
DA47
 10
1032.64
 20
-1570.77
 30
0.000000
  70
    32
  0
VERTEX
  8
01
  5
DA48
 10
1032.56
 20
-1570.79
 30
0.000000
  70
    32
  0
VERTEX
  8
01
  5
DA49
 10
1032.47
 20
-1570.81
 30
0.000000
  70
    32
  0
VERTEX
  8
01
  5
DA4A
 10
1032.38
 20
-1570.83
 30
0.000000
  70
    32
  0
VERTEX
  8
01
  5
DA4B
 10
1032.30
 20
-1570.85
 30
0.000000
  70
    32
  0
VERTEX
  8
01
  5
DA4C
 10
1032.21
 20
-1570.88
 30
0.000000
  70
    32
  0
VERTEX
  8
01
  5
DA4D
 10
1032.12
 20
-1570.90
 30
0.000000
  70
    32
  0
VERTEX
  8
01
  5
DA4E
 10
1032.04
 20
-1570.93
 30
0.000000
  70
    32
  0
VERTEX
  8
01
  5
DA4F
 10
1031.95
 20
-1570.96
 30
0.000000
  70
    32
  0
VERTEX
  8
01
  5
DA50
 10
1031.87
 20
-1570.98
 30
0.000000
  70
    32
  0
VERTEX
  8
01
  5
DA51
 10
1031.78
 20
-1571.01
 30
0.000000
  70
    32
  0
VERTEX
  8
01
  5
DA52
 10
1031.69
 20
-1571.04
 30
0.000000
  70
    32
  0
VERTEX
  8
01
  5
DA53
 10
1031.61
 20
-1571.07
 30
0.000000
  70
    32
  0
VERTEX
  8
01
  5
DA54
 10
1031.52
 20
-1571.10
 30
0.000000
  70
    32
  0
VERTEX
  8
01
  5
DA55
 10
1031.44
 20
-1571.13
 30
0.000000
  70
    32
  0
VERTEX
  8
01
  5
DA56
 10
1031.35
 20
-1571.16
 30
0.000000
  70
    32
  0
VERTEX
  8
01
  5
DA57
 10
1031.27
 20
-1571.20
 30
0.000000
  70
    32
  0
VERTEX
  8
01
  5
DA58
 10
1031.18
 20
-1571.23
 30
0.000000
  70
    32
  0
VERTEX
  8
01
  5
DA59
 10
1031.10
 20
-1571.26
 30
0.000000
  70
    32
  0
VERTEX
  8
01
  5
DA5A
 10
1031.01
 20
-1571.30
 30
0.000000
  70
    32
  0
VERTEX
  8
01
  5
DA5B
 10
1030.93
 20
-1571.33
 30
0.000000
  70
    32
  0
VERTEX
  8
01
  5
DA5C
 10
1030.84
 20
-1571.37
 30
0.000000
  70
    32
  0
VERTEX
  8
01
  5
DA5D
 10
1030.76
 20
-1571.41
 30
0.000000
  70
    32
  0
VERTEX
  8
01
  5
DA5E
 10
1030.67
 20
-1571.44
 30
0.000000
  70
    32
  0
VERTEX
  8
01
  5
DA5F
 10
1030.59
 20
-1571.48
 30
0.000000
  70
    32
  0
VERTEX
  8
01
  5
DA60
 10
1030.50
 20
-1571.52
 30
0.000000
  70
    32
  0
VERTEX
  8
01
  5
DA61
 10
1030.42
 20
-1571.56
 30
0.000000
  70
    32
  0
VERTEX
  8
01
  5
DA62
 10
1030.33
 20
-1571.60
 30
0.000000
  70
    32
  0
VERTEX
  8
01
  5
DA63
 10
1030.25
 20
-1571.64
 30
0.000000
  70
    32
  0
VERTEX
  8
01
  5
DA64
 10
1030.16
 20
-1571.68
 30
0.000000
  70
    32
  0
VERTEX
  8
01
  5
DA65
 10
1030.08
 20
-1571.72
 30
0.000000
  70
    32
  0
VERTEX
  8
01
  5
DA66
 10
1029.99
 20
-1571.77
 30
0.000000
  70
    32
  0
VERTEX
  8
01
  5
DA67
 10
1029.91
 20
-1571.81
 30
0.000000
  70
    32
  0
VERTEX
  8
01
  5
DA68
 10
1029.83
 20
-1571.85
 30
0.000000
  70
    32
  0
VERTEX
  8
01
  5
DA69
 10
1029.74
 20
-1571.90
 30
0.000000
  70
    32
  0
VERTEX
  8
01
  5
DA6A
 10
1029.66
 20
-1571.94
 30
0.000000
  70
    32
  0
VERTEX
  8
01
  5
DA6B
 10
1029.57
 20
-1571.99
 30
0.000000
  70
    32
  0
VERTEX
  8
01
  5
DA6C
 10
1029.49
 20
-1572.03
 30
0.000000
  70
    32
  0
VERTEX
  8
01
  5
DA6D
 10
1029.40
 20
-1572.08
 30
0.000000
  70
    32
  0
VERTEX
  8
01
  5
DA6E
 10
1029.32
 20
-1572.12
 30
0.000000
  70
    32
  0
VERTEX
  8
01
  5
DA6F
 10
1029.24
 20
-1572.17
 30
0.000000
  70
    32
  0
VERTEX
  8
01
  5
DA70
 10
1029.15
 20
-1572.22
 30
0.000000
  70
    32
  0
SEQEND
  8
01
  5
DA71
  0
POLYLINE
  8
01
  5
DA72
  66
     1
 10
0.000000
 20
0.000000
 30
0.000000
  70
     8
  0
VERTEX
  8
01
  5
DA73
 10
1469.76
 20
-1608.96
 30
0.000000
  70
    32
  0
VERTEX
  8
01
  5
DA74
 10
1469.59
 20
-1608.85
 30
0.000000
  70
    32
  0
VERTEX
  8
01
  5
DA75
 10
1469.42
 20
-1608.74
 30
0.000000
  70
    32
  0
VERTEX
  8
01
  5
DA76
 10
1469.25
 20
-1608.63
 30
0.000000
  70
    32
  0
VERTEX
  8
01
  5
DA77
 10
1469.09
 20
-1608.52
 30
0.000000
  70
    32
  0
VERTEX
  8
01
  5
DA78
 10
1468.92
 20
-1608.41
 30
0.000000
  70
    32
  0
VERTEX
  8
01
  5
DA79
 10
1468.76
 20
-1608.30
 30
0.000000
  70
    32
  0
VERTEX
  8
01
  5
DA7A
 10
1468.59
 20
-1608.19
 30
0.000000
  70
    32
  0
VERTEX
  8
01
  5
DA7B
 10
1468.43
 20
-1608.08
 30
0.000000
  70
    32
  0
VERTEX
  8
01
  5
DA7C
 10
1468.27
 20
-1607.97
 30
0.000000
  70
    32
  0
VERTEX
  8
01
  5
DA7D
 10
1468.12
 20
-1607.86
 30
0.000000
  70
    32
  0
VERTEX
  8
01
  5
DA7E
 10
1467.96
 20
-1607.75
 30
0.000000
  70
    32
  0
VERTEX
  8
01
  5
DA7F
 10
1467.81
 20
-1607.64
 30
0.000000
  70
    32
  0
VERTEX
  8
01
  5
DA80
 10
1467.65
 20
-1607.53
 30
0.000000
  70
    32
  0
VERTEX
  8
01
  5
DA81
 10
1467.50
 20
-1607.42
 30
0.000000
  70
    32
  0
VERTEX
  8
01
  5
DA82
 10
1467.35
 20
-1607.30
 30
0.000000
  70
    32
  0
VERTEX
  8
01
  5
DA83
 10
1467.21
 20
-1607.19
 30
0.000000
  70
    32
  0
VERTEX
  8
01
  5
DA84
 10
1467.06
 20
-1607.08
 30
0.000000
  70
    32
  0
VERTEX
  8
01
  5
DA85
 10
1466.92
 20
-1606.97
 30
0.000000
  70
    32
  0
VERTEX
  8
01
  5
DA86
 10
1466.78
 20
-1606.85
 30
0.000000
  70
    32
  0
VERTEX
  8
01
  5
DA87
 10
1466.64
 20
-1606.74
 30
0.000000
  70
    32
  0
VERTEX
  8
01
  5
DA88
 10
1466.51
 20
-1606.63
 30
0.000000
  70
    32
  0
VERTEX
  8
01
  5
DA89
 10
1466.37
 20
-1606.51
 30
0.000000
  70
    32
  0
VERTEX
  8
01
  5
DA8A
 10
1466.24
 20
-1606.40
 30
0.000000
  70
    32
  0
VERTEX
  8
01
  5
DA8B
 10
1466.12
 20
-1606.29
 30
0.000000
  70
    32
  0
VERTEX
  8
01
  5
DA8C
 10
1465.99
 20
-1606.17
 30
0.000000
  70
    32
  0
VERTEX
  8
01
  5
DA8D
 10
1465.87
 20
-1606.06
 30
0.000000
  70
    32
  0
VERTEX
  8
01
  5
DA8E
 10
1465.74
 20
-1605.94
 30
0.000000
  70
    32
  0
VERTEX
  8
01
  5
DA8F
 10
1465.63
 20
-1605.83
 30
0.000000
  70
    32
  0
VERTEX
  8
01
  5
DA90
 10
1465.51
 20
-1605.71
 30
0.000000
  70
    32
  0
VERTEX
  8
01
  5
DA91
 10
1465.40
 20
-1605.59
 30
0.000000
  70
    32
  0
VERTEX
  8
01
  5
DA92
 10
1465.29
 20
-1605.48
 30
0.000000
  70
    32
  0
VERTEX
  8
01
  5
DA93
 10
1465.18
 20
-1605.36
 30
0.000000
  70
    32
  0
VERTEX
  8
01
  5
DA94
 10
1465.07
 20
-1605.24
 30
0.000000
  70
    32
  0
VERTEX
  8
01
  5
DA95
 10
1464.97
 20
-1605.13
 30
0.000000
  70
    32
  0
VERTEX
  8
01
  5
DA96
 10
1464.87
 20
-1605.01
 30
0.000000
  70
    32
  0
VERTEX
  8
01
  5
DA97
 10
1464.78
 20
-1604.89
 30
0.000000
  70
    32
  0
VERTEX
  8
01
  5
DA98
 10
1464.68
 20
-1604.77
 30
0.000000
  70
    32
  0
VERTEX
  8
01
  5
DA99
 10
1464.59
 20
-1604.65
 30
0.000000
  70
    32
  0
VERTEX
  8
01
  5
DA9A
 10
1464.51
 20
-1604.53
 30
0.000000
  70
    32
  0
VERTEX
  8
01
  5
DA9B
 10
1464.43
 20
-1604.41
 30
0.000000
  70
    32
  0
VERTEX
  8
01
  5
DA9C
 10
1464.35
 20
-1604.29
 30
0.000000
  70
    32
  0
VERTEX
  8
01
  5
DA9D
 10
1464.27
 20
-1604.17
 30
0.000000
  70
    32
  0
VERTEX
  8
01
  5
DA9E
 10
1464.20
 20
-1604.05
 30
0.000000
  70
    32
  0
VERTEX
  8
01
  5
DA9F
 10
1464.13
 20
-1603.93
 30
0.000000
  70
    32
  0
VERTEX
  8
01
  5
DAA0
 10
1464.06
 20
-1603.81
 30
0.000000
  70
    32
  0
VERTEX
  8
01
  5
DAA1
 10
1464.00
 20
-1603.68
 30
0.000000
  70
    32
  0
VERTEX
  8
01
  5
DAA2
 10
1463.94
 20
-1603.56
 30
0.000000
  70
    32
  0
VERTEX
  8
01
  5
DAA3
 10
1463.88
 20
-1603.44
 30
0.000000
  70
    32
  0
VERTEX
  8
01
  5
DAA4
 10
1463.83
 20
-1603.31
 30
0.000000
  70
    32
  0
VERTEX
  8
01
  5
DAA5
 10
1463.78
 20
-1603.19
 30
0.000000
  70
    32
  0
VERTEX
  8
01
  5
DAA6
 10
1463.74
 20
-1603.07
 30
0.000000
  70
    32
  0
VERTEX
  8
01
  5
DAA7
 10
1463.70
 20
-1602.94
 30
0.000000
  70
    32
  0
VERTEX
  8
01
  5
DAA8
 10
1463.66
 20
-1602.82
 30
0.000000
  70
    32
  0
VERTEX
  8
01
  5
DAA9
 10
1463.63
 20
-1602.69
 30
0.000000
  70
    32
  0
VERTEX
  8
01
  5
DAAA
 10
1463.60
 20
-1602.56
 30
0.000000
  70
    32
  0
VERTEX
  8
01
  5
DAAB
 10
1463.57
 20
-1602.44
 30
0.000000
  70
    32
  0
VERTEX
  8
01
  5
DAAC
 10
1463.55
 20
-1602.31
 30
0.000000
  70
    32
  0
VERTEX
  8
01
  5
DAAD
 10
1463.53
 20
-1602.18
 30
0.000000
  70
    32
  0
VERTEX
  8
01
  5
DAAE
 10
1463.52
 20
-1602.05
 30
0.000000
  70
    32
  0
VERTEX
  8
01
  5
DAAF
 10
1463.51
 20
-1601.92
 30
0.000000
  70
    32
  0
VERTEX
  8
01
  5
DAB0
 10
1463.51
 20
-1601.79
 30
0.000000
  70
    32
  0
VERTEX
  8
01
  5
DAB1
 10
1463.51
 20
-1601.66
 30
0.000000
  70
    32
  0
VERTEX
  8
01
  5
DAB2
 10
1463.51
 20
-1601.53
 30
0.000000
  70
    32
  0
VERTEX
  8
01
  5
DAB3
 10
1463.52
 20
-1601.40
 30
0.000000
  70
    32
  0
VERTEX
  8
01
  5
DAB4
 10
1463.54
 20
-1601.27
 30
0.000000
  70
    32
  0
VERTEX
  8
01
  5
DAB5
 10
1463.56
 20
-1601.14
 30
0.000000
  70
    32
  0
VERTEX
  8
01
  5
DAB6
 10
1463.58
 20
-1601.00
 30
0.000000
  70
    32
  0
VERTEX
  8
01
  5
DAB7
 10
1463.61
 20
-1600.87
 30
0.000000
  70
    32
  0
VERTEX
  8
01
  5
DAB8
 10
1463.64
 20
-1600.74
 30
0.000000
  70
    32
  0
VERTEX
  8
01
  5
DAB9
 10
1463.67
 20
-1600.60
 30
0.000000
  70
    32
  0
VERTEX
  8
01
  5
DABA
 10
1463.72
 20
-1600.47
 30
0.000000
  70
    32
  0
VERTEX
  8
01
  5
DABB
 10
1463.76
 20
-1600.33
 30
0.000000
  70
    32
  0
VERTEX
  8
01
  5
DABC
 10
1463.81
 20
-1600.20
 30
0.000000
  70
    32
  0
VERTEX
  8
01
  5
DABD
 10
1463.86
 20
-1600.06
 30
0.000000
  70
    32
  0
VERTEX
  8
01
  5
DABE
 10
1463.92
 20
-1599.92
 30
0.000000
  70
    32
  0
VERTEX
  8
01
  5
DABF
 10
1463.98
 20
-1599.78
 30
0.000000
  70
    32
  0
VERTEX
  8
01
  5
DAC0
 10
1464.04
 20
-1599.65
 30
0.000000
  70
    32
  0
VERTEX
  8
01
  5
DAC1
 10
1464.11
 20
-1599.51
 30
0.000000
  70
    32
  0
VERTEX
  8
01
  5
DAC2
 10
1464.18
 20
-1599.37
 30
0.000000
  70
    32
  0
VERTEX
  8
01
  5
DAC3
 10
1464.25
 20
-1599.23
 30
0.000000
  70
    32
  0
VERTEX
  8
01
  5
DAC4
 10
1464.32
 20
-1599.09
 30
0.000000
  70
    32
  0
VERTEX
  8
01
  5
DAC5
 10
1464.40
 20
-1598.95
 30
0.000000
  70
    32
  0
VERTEX
  8
01
  5
DAC6
 10
1464.48
 20
-1598.81
 30
0.000000
  70
    32
  0
VERTEX
  8
01
  5
DAC7
 10
1464.57
 20
-1598.67
 30
0.000000
  70
    32
  0
VERTEX
  8
01
  5
DAC8
 10
1464.65
 20
-1598.53
 30
0.000000
  70
    32
  0
VERTEX
  8
01
  5
DAC9
 10
1464.74
 20
-1598.39
 30
0.000000
  70
    32
  0
VERTEX
  8
01
  5
DACA
 10
1464.83
 20
-1598.25
 30
0.000000
  70
    32
  0
VERTEX
  8
01
  5
DACB
 10
1464.92
 20
-1598.10
 30
0.000000
  70
    32
  0
VERTEX
  8
01
  5
DACC
 10
1465.02
 20
-1597.96
 30
0.000000
  70
    32
  0
VERTEX
  8
01
  5
DACD
 10
1465.11
 20
-1597.82
 30
0.000000
  70
    32
  0
VERTEX
  8
01
  5
DACE
 10
1465.21
 20
-1597.68
 30
0.000000
  70
    32
  0
VERTEX
  8
01
  5
DACF
 10
1465.31
 20
-1597.53
 30
0.000000
  70
    32
  0
VERTEX
  8
01
  5
DAD0
 10
1465.41
 20
-1597.39
 30
0.000000
  70
    32
  0
VERTEX
  8
01
  5
DAD1
 10
1465.51
 20
-1597.25
 30
0.000000
  70
    32
  0
VERTEX
  8
01
  5
DAD2
 10
1465.61
 20
-1597.10
 30
0.000000
  70
    32
  0
VERTEX
  8
01
  5
DAD3
 10
1465.72
 20
-1596.96
 30
0.000000
  70
    32
  0
VERTEX
  8
01
  5
DAD4
 10
1465.82
 20
-1596.82
 30
0.000000
  70
    32
  0
VERTEX
  8
01
  5
DAD5
 10
1465.93
 20
-1596.67
 30
0.000000
  70
    32
  0
VERTEX
  8
01
  5
DAD6
 10
1466.03
 20
-1596.53
 30
0.000000
  70
    32
  0
VERTEX
  8
01
  5
DAD7
 10
1466.14
 20
-1596.38
 30
0.000000
  70
    32
  0
VERTEX
  8
01
  5
DAD8
 10
1466.24
 20
-1596.24
 30
0.000000
  70
    32
  0
VERTEX
  8
01
  5
DAD9
 10
1466.35
 20
-1596.09
 30
0.000000
  70
    32
  0
VERTEX
  8
01
  5
DADA
 10
1466.45
 20
-1595.95
 30
0.000000
  70
    32
  0
VERTEX
  8
01
  5
DADB
 10
1466.56
 20
-1595.80
 30
0.000000
  70
    32
  0
VERTEX
  8
01
  5
DADC
 10
1466.66
 20
-1595.66
 30
0.000000
  70
    32
  0
VERTEX
  8
01
  5
DADD
 10
1466.77
 20
-1595.51
 30
0.000000
  70
    32
  0
VERTEX
  8
01
  5
DADE
 10
1466.87
 20
-1595.37
 30
0.000000
  70
    32
  0
VERTEX
  8
01
  5
DADF
 10
1466.98
 20
-1595.23
 30
0.000000
  70
    32
  0
VERTEX
  8
01
  5
DAE0
 10
1467.08
 20
-1595.08
 30
0.000000
  70
    32
  0
VERTEX
  8
01
  5
DAE1
 10
1467.18
 20
-1594.94
 30
0.000000
  70
    32
  0
VERTEX
  8
01
  5
DAE2
 10
1467.28
 20
-1594.79
 30
0.000000
  70
    32
  0
VERTEX
  8
01
  5
DAE3
 10
1467.38
 20
-1594.65
 30
0.000000
  70
    32
  0
VERTEX
  8
01
  5
DAE4
 10
1467.48
 20
-1594.50
 30
0.000000
  70
    32
  0
VERTEX
  8
01
  5
DAE5
 10
1467.57
 20
-1594.36
 30
0.000000
  70
    32
  0
VERTEX
  8
01
  5
DAE6
 10
1467.67
 20
-1594.21
 30
0.000000
  70
    32
  0
VERTEX
  8
01
  5
DAE7
 10
1467.76
 20
-1594.07
 30
0.000000
  70
    32
  0
VERTEX
  8
01
  5
DAE8
 10
1467.85
 20
-1593.92
 30
0.000000
  70
    32
  0
VERTEX
  8
01
  5
DAE9
 10
1467.94
 20
-1593.78
 30
0.000000
  70
    32
  0
VERTEX
  8
01
  5
DAEA
 10
1468.03
 20
-1593.64
 30
0.000000
  70
    32
  0
VERTEX
  8
01
  5
DAEB
 10
1468.11
 20
-1593.49
 30
0.000000
  70
    32
  0
VERTEX
  8
01
  5
DAEC
 10
1468.20
 20
-1593.35
 30
0.000000
  70
    32
  0
VERTEX
  8
01
  5
DAED
 10
1468.27
 20
-1593.20
 30
0.000000
  70
    32
  0
VERTEX
  8
01
  5
DAEE
 10
1468.35
 20
-1593.06
 30
0.000000
  70
    32
  0
VERTEX
  8
01
  5
DAEF
 10
1468.42
 20
-1592.92
 30
0.000000
  70
    32
  0
VERTEX
  8
01
  5
DAF0
 10
1468.50
 20
-1592.78
 30
0.000000
  70
    32
  0
VERTEX
  8
01
  5
DAF1
 10
1468.56
 20
-1592.63
 30
0.000000
  70
    32
  0
VERTEX
  8
01
  5
DAF2
 10
1468.63
 20
-1592.49
 30
0.000000
  70
    32
  0
VERTEX
  8
01
  5
DAF3
 10
1468.69
 20
-1592.35
 30
0.000000
  70
    32
  0
VERTEX
  8
01
  5
DAF4
 10
1468.75
 20
-1592.21
 30
0.000000
  70
    32
  0
VERTEX
  8
01
  5
DAF5
 10
1468.80
 20
-1592.06
 30
0.000000
  70
    32
  0
VERTEX
  8
01
  5
DAF6
 10
1468.85
 20
-1591.92
 30
0.000000
  70
    32
  0
VERTEX
  8
01
  5
DAF7
 10
1468.90
 20
-1591.78
 30
0.000000
  70
    32
  0
VERTEX
  8
01
  5
DAF8
 10
1468.94
 20
-1591.64
 30
0.000000
  70
    32
  0
VERTEX
  8
01
  5
DAF9
 10
1468.98
 20
-1591.50
 30
0.000000
  70
    32
  0
VERTEX
  8
01
  5
DAFA
 10
1469.01
 20
-1591.36
 30
0.000000
  70
    32
  0
VERTEX
  8
01
  5
DAFB
 10
1469.04
 20
-1591.22
 30
0.000000
  70
    32
  0
VERTEX
  8
01
  5
DAFC
 10
1469.07
 20
-1591.08
 30
0.000000
  70
    32
  0
VERTEX
  8
01
  5
DAFD
 10
1469.09
 20
-1590.94
 30
0.000000
  70
    32
  0
VERTEX
  8
01
  5
DAFE
 10
1469.11
 20
-1590.81
 30
0.000000
  70
    32
  0
VERTEX
  8
01
  5
DAFF
 10
1469.12
 20
-1590.67
 30
0.000000
  70
    32
  0
VERTEX
  8
01
  5
DB00
 10
1469.13
 20
-1590.53
 30
0.000000
  70
    32
  0
VERTEX
  8
01
  5
DB01
 10
1469.14
 20
-1590.39
 30
0.000000
  70
    32
  0
VERTEX
  8
01
  5
DB02
 10
1469.14
 20
-1590.25
 30
0.000000
  70
    32
  0
VERTEX
  8
01
  5
DB03
 10
1469.14
 20
-1590.12
 30
0.000000
  70
    32
  0
VERTEX
  8
01
  5
DB04
 10
1469.14
 20
-1589.98
 30
0.000000
  70
    32
  0
VERTEX
  8
01
  5
DB05
 10
1469.13
 20
-1589.84
 30
0.000000
  70
    32
  0
VERTEX
  8
01
  5
DB06
 10
1469.12
 20
-1589.71
 30
0.000000
  70
    32
  0
VERTEX
  8
01
  5
DB07
 10
1469.11
 20
-1589.57
 30
0.000000
  70
    32
  0
VERTEX
  8
01
  5
DB08
 10
1469.09
 20
-1589.44
 30
0.000000
  70
    32
  0
VERTEX
  8
01
  5
DB09
 10
1469.07
 20
-1589.30
 30
0.000000
  70
    32
  0
VERTEX
  8
01
  5
DB0A
 10
1469.05
 20
-1589.17
 30
0.000000
  70
    32
  0
VERTEX
  8
01
  5
DB0B
 10
1469.02
 20
-1589.03
 30
0.000000
  70
    32
  0
VERTEX
  8
01
  5
DB0C
 10
1468.99
 20
-1588.90
 30
0.000000
  70
    32
  0
VERTEX
  8
01
  5
DB0D
 10
1468.95
 20
-1588.76
 30
0.000000
  70
    32
  0
VERTEX
  8
01
  5
DB0E
 10
1468.92
 20
-1588.63
 30
0.000000
  70
    32
  0
VERTEX
  8
01
  5
DB0F
 10
1468.87
 20
-1588.50
 30
0.000000
  70
    32
  0
VERTEX
  8
01
  5
DB10
 10
1468.83
 20
-1588.36
 30
0.000000
  70
    32
  0
VERTEX
  8
01
  5
DB11
 10
1468.78
 20
-1588.23
 30
0.000000
  70
    32
  0
VERTEX
  8
01
  5
DB12
 10
1468.73
 20
-1588.10
 30
0.000000
  70
    32
  0
VERTEX
  8
01
  5
DB13
 10
1468.68
 20
-1587.96
 30
0.000000
  70
    32
  0
VERTEX
  8
01
  5
DB14
 10
1468.63
 20
-1587.83
 30
0.000000
  70
    32
  0
VERTEX
  8
01
  5
DB15
 10
1468.57
 20
-1587.70
 30
0.000000
  70
    32
  0
VERTEX
  8
01
  5
DB16
 10
1468.50
 20
-1587.57
 30
0.000000
  70
    32
  0
VERTEX
  8
01
  5
DB17
 10
1468.44
 20
-1587.44
 30
0.000000
  70
    32
  0
VERTEX
  8
01
  5
DB18
 10
1468.37
 20
-1587.30
 30
0.000000
  70
    32
  0
VERTEX
  8
01
  5
DB19
 10
1468.30
 20
-1587.17
 30
0.000000
  70
    32
  0
VERTEX
  8
01
  5
DB1A
 10
1468.23
 20
-1587.04
 30
0.000000
  70
    32
  0
VERTEX
  8
01
  5
DB1B
 10
1468.15
 20
-1586.91
 30
0.000000
  70
    32
  0
VERTEX
  8
01
  5
DB1C
 10
1468.07
 20
-1586.78
 30
0.000000
  70
    32
  0
VERTEX
  8
01
  5
DB1D
 10
1467.99
 20
-1586.65
 30
0.000000
  70
    32
  0
VERTEX
  8
01
  5
DB1E
 10
1467.91
 20
-1586.52
 30
0.000000
  70
    32
  0
VERTEX
  8
01
  5
DB1F
 10
1467.82
 20
-1586.39
 30
0.000000
  70
    32
  0
VERTEX
  8
01
  5
DB20
 10
1467.73
 20
-1586.26
 30
0.000000
  70
    32
  0
VERTEX
  8
01
  5
DB21
 10
1467.64
 20
-1586.13
 30
0.000000
  70
    32
  0
VERTEX
  8
01
  5
DB22
 10
1467.55
 20
-1586.00
 30
0.000000
  70
    32
  0
VERTEX
  8
01
  5
DB23
 10
1467.45
 20
-1585.87
 30
0.000000
  70
    32
  0
VERTEX
  8
01
  5
DB24
 10
1467.35
 20
-1585.74
 30
0.000000
  70
    32
  0
VERTEX
  8
01
  5
DB25
 10
1467.25
 20
-1585.62
 30
0.000000
  70
    32
  0
VERTEX
  8
01
  5
DB26
 10
1467.15
 20
-1585.49
 30
0.000000
  70
    32
  0
VERTEX
  8
01
  5
DB27
 10
1467.04
 20
-1585.36
 30
0.000000
  70
    32
  0
VERTEX
  8
01
  5
DB28
 10
1466.93
 20
-1585.23
 30
0.000000
  70
    32
  0
VERTEX
  8
01
  5
DB29
 10
1466.82
 20
-1585.10
 30
0.000000
  70
    32
  0
VERTEX
  8
01
  5
DB2A
 10
1466.71
 20
-1584.97
 30
0.000000
  70
    32
  0
VERTEX
  8
01
  5
DB2B
 10
1466.60
 20
-1584.85
 30
0.000000
  70
    32
  0
VERTEX
  8
01
  5
DB2C
 10
1466.48
 20
-1584.72
 30
0.000000
  70
    32
  0
VERTEX
  8
01
  5
DB2D
 10
1466.36
 20
-1584.59
 30
0.000000
  70
    32
  0
VERTEX
  8
01
  5
DB2E
 10
1466.24
 20
-1584.47
 30
0.000000
  70
    32
  0
VERTEX
  8
01
  5
DB2F
 10
1466.12
 20
-1584.34
 30
0.000000
  70
    32
  0
VERTEX
  8
01
  5
DB30
 10
1465.99
 20
-1584.21
 30
0.000000
  70
    32
  0
VERTEX
  8
01
  5
DB31
 10
1465.87
 20
-1584.09
 30
0.000000
  70
    32
  0
VERTEX
  8
01
  5
DB32
 10
1465.74
 20
-1583.96
 30
0.000000
  70
    32
  0
SEQEND
  8
01
  5
DB33
  0
LINE
  5
D1D7
  8
01
 10
1487.153140449753
 20
-1606.2595648584361
 30
0.0
 11
1482.8531404497401
 21
-1601.9595648584341
 31
0.0
  0
LINE
  5
D1D8
  8
01
 10
1491.4531404497411
 20
-1601.9595648584391
 30
0.0
 11
1487.153140449753
 21
-1606.2595648584361
 31
0.0
  0
LINE
  5
D1D9
  8
01
 10
1482.8531404497401
 20
-1587.9595648584379
 30
0.0
 11
1479.053140449741
 21
-1587.9595648584379
 31
0.0
  0
POLYLINE
  5
D1DA
  8
01
 10
1029.1531404497391
 20
-1583.959564858437
 30
0.0
 66
     1
 70
     8
  0
VERTEX
  8
01
  5
DB34
 10
1029.15
 20
-1583.96
 30
0.000000
  70
    32
  0
VERTEX
  8
01
  5
DB35
 10
1029.16
 20
-1584.03
 30
0.000000
  70
    32
  0
VERTEX
  8
01
  5
DB36
 10
1029.16
 20
-1584.10
 30
0.000000
  70
    32
  0
VERTEX
  8
01
  5
DB37
 10
1029.17
 20
-1584.17
 30
0.000000
  70
    32
  0
VERTEX
  8
01
  5
DB38
 10
1029.19
 20
-1584.24
 30
0.000000
  70
    32
  0
VERTEX
  8
01
  5
DB39
 10
1029.21
 20
-1584.31
 30
0.000000
  70
    32
  0
VERTEX
  8
01
  5
DB3A
 10
1029.24
 20
-1584.38
 30
0.000000
  70
    32
  0
VERTEX
  8
01
  5
DB3B
 10
1029.27
 20
-1584.45
 30
0.000000
  70
    32
  0
VERTEX
  8
01
  5
DB3C
 10
1029.31
 20
-1584.52
 30
0.000000
  70
    32
  0
VERTEX
  8
01
  5
DB3D
 10
1029.35
 20
-1584.59
 30
0.000000
  70
    32
  0
VERTEX
  8
01
  5
DB3E
 10
1029.39
 20
-1584.66
 30
0.000000
  70
    32
  0
VERTEX
  8
01
  5
DB3F
 10
1029.44
 20
-1584.73
 30
0.000000
  70
    32
  0
VERTEX
  8
01
  5
DB40
 10
1029.50
 20
-1584.80
 30
0.000000
  70
    32
  0
VERTEX
  8
01
  5
DB41
 10
1029.56
 20
-1584.87
 30
0.000000
  70
    32
  0
VERTEX
  8
01
  5
DB42
 10
1029.62
 20
-1584.93
 30
0.000000
  70
    32
  0
VERTEX
  8
01
  5
DB43
 10
1029.69
 20
-1585.00
 30
0.000000
  70
    32
  0
VERTEX
  8
01
  5
DB44
 10
1029.76
 20
-1585.07
 30
0.000000
  70
    32
  0
VERTEX
  8
01
  5
DB45
 10
1029.84
 20
-1585.13
 30
0.000000
  70
    32
  0
VERTEX
  8
01
  5
DB46
 10
1029.92
 20
-1585.20
 30
0.000000
  70
    32
  0
VERTEX
  8
01
  5
DB47
 10
1030.01
 20
-1585.26
 30
0.000000
  70
    32
  0
VERTEX
  8
01
  5
DB48
 10
1030.10
 20
-1585.32
 30
0.000000
  70
    32
  0
VERTEX
  8
01
  5
DB49
 10
1030.19
 20
-1585.39
 30
0.000000
  70
    32
  0
VERTEX
  8
01
  5
DB4A
 10
1030.29
 20
-1585.45
 30
0.000000
  70
    32
  0
VERTEX
  8
01
  5
DB4B
 10
1030.39
 20
-1585.51
 30
0.000000
  70
    32
  0
VERTEX
  8
01
  5
DB4C
 10
1030.50
 20
-1585.57
 30
0.000000
  70
    32
  0
VERTEX
  8
01
  5
DB4D
 10
1030.61
 20
-1585.63
 30
0.000000
  70
    32
  0
VERTEX
  8
01
  5
DB4E
 10
1030.73
 20
-1585.68
 30
0.000000
  70
    32
  0
VERTEX
  8
01
  5
DB4F
 10
1030.85
 20
-1585.74
 30
0.000000
  70
    32
  0
VERTEX
  8
01
  5
DB50
 10
1030.97
 20
-1585.80
 30
0.000000
  70
    32
  0
VERTEX
  8
01
  5
DB51
 10
1031.10
 20
-1585.85
 30
0.000000
  70
    32
  0
VERTEX
  8
01
  5
DB52
 10
1031.23
 20
-1585.90
 30
0.000000
  70
    32
  0
VERTEX
  8
01
  5
DB53
 10
1031.36
 20
-1585.96
 30
0.000000
  70
    32
  0
VERTEX
  8
01
  5
DB54
 10
1031.50
 20
-1586.01
 30
0.000000
  70
    32
  0
VERTEX
  8
01
  5
DB55
 10
1031.64
 20
-1586.06
 30
0.000000
  70
    32
  0
VERTEX
  8
01
  5
DB56
 10
1031.78
 20
-1586.10
 30
0.000000
  70
    32
  0
VERTEX
  8
01
  5
DB57
 10
1031.93
 20
-1586.15
 30
0.000000
  70
    32
  0
VERTEX
  8
01
  5
DB58
 10
1032.08
 20
-1586.20
 30
0.000000
  70
    32
  0
VERTEX
  8
01
  5
DB59
 10
1032.23
 20
-1586.24
 30
0.000000
  70
    32
  0
VERTEX
  8
01
  5
DB5A
 10
1032.39
 20
-1586.29
 30
0.000000
  70
    32
  0
VERTEX
  8
01
  5
DB5B
 10
1032.55
 20
-1586.33
 30
0.000000
  70
    32
  0
VERTEX
  8
01
  5
DB5C
 10
1032.71
 20
-1586.37
 30
0.000000
  70
    32
  0
VERTEX
  8
01
  5
DB5D
 10
1032.87
 20
-1586.41
 30
0.000000
  70
    32
  0
VERTEX
  8
01
  5
DB5E
 10
1033.04
 20
-1586.44
 30
0.000000
  70
    32
  0
VERTEX
  8
01
  5
DB5F
 10
1033.21
 20
-1586.48
 30
0.000000
  70
    32
  0
VERTEX
  8
01
  5
DB60
 10
1033.38
 20
-1586.51
 30
0.000000
  70
    32
  0
VERTEX
  8
01
  5
DB61
 10
1033.56
 20
-1586.55
 30
0.000000
  70
    32
  0
VERTEX
  8
01
  5
DB62
 10
1033.73
 20
-1586.58
 30
0.000000
  70
    32
  0
VERTEX
  8
01
  5
DB63
 10
1033.91
 20
-1586.61
 30
0.000000
  70
    32
  0
VERTEX
  8
01
  5
DB64
 10
1034.09
 20
-1586.63
 30
0.000000
  70
    32
  0
VERTEX
  8
01
  5
DB65
 10
1034.27
 20
-1586.66
 30
0.000000
  70
    32
  0
VERTEX
  8
01
  5
DB66
 10
1034.46
 20
-1586.69
 30
0.000000
  70
    32
  0
VERTEX
  8
01
  5
DB67
 10
1034.64
 20
-1586.71
 30
0.000000
  70
    32
  0
VERTEX
  8
01
  5
DB68
 10
1034.83
 20
-1586.73
 30
0.000000
  70
    32
  0
VERTEX
  8
01
  5
DB69
 10
1035.02
 20
-1586.75
 30
0.000000
  70
    32
  0
VERTEX
  8
01
  5
DB6A
 10
1035.21
 20
-1586.77
 30
0.000000
  70
    32
  0
VERTEX
  8
01
  5
DB6B
 10
1035.40
 20
-1586.78
 30
0.000000
  70
    32
  0
VERTEX
  8
01
  5
DB6C
 10
1035.59
 20
-1586.80
 30
0.000000
  70
    32
  0
VERTEX
  8
01
  5
DB6D
 10
1035.79
 20
-1586.81
 30
0.000000
  70
    32
  0
VERTEX
  8
01
  5
DB6E
 10
1035.98
 20
-1586.82
 30
0.000000
  70
    32
  0
VERTEX
  8
01
  5
DB6F
 10
1036.17
 20
-1586.83
 30
0.000000
  70
    32
  0
VERTEX
  8
01
  5
DB70
 10
1036.37
 20
-1586.84
 30
0.000000
  70
    32
  0
VERTEX
  8
01
  5
DB71
 10
1036.56
 20
-1586.85
 30
0.000000
  70
    32
  0
VERTEX
  8
01
  5
DB72
 10
1036.76
 20
-1586.85
 30
0.000000
  70
    32
  0
VERTEX
  8
01
  5
DB73
 10
1036.96
 20
-1586.85
 30
0.000000
  70
    32
  0
VERTEX
  8
01
  5
DB74
 10
1037.15
 20
-1586.85
 30
0.000000
  70
    32
  0
VERTEX
  8
01
  5
DB75
 10
1037.35
 20
-1586.85
 30
0.000000
  70
    32
  0
VERTEX
  8
01
  5
DB76
 10
1037.55
 20
-1586.85
 30
0.000000
  70
    32
  0
VERTEX
  8
01
  5
DB77
 10
1037.74
 20
-1586.85
 30
0.000000
  70
    32
  0
VERTEX
  8
01
  5
DB78
 10
1037.94
 20
-1586.84
 30
0.000000
  70
    32
  0
VERTEX
  8
01
  5
DB79
 10
1038.13
 20
-1586.83
 30
0.000000
  70
    32
  0
VERTEX
  8
01
  5
DB7A
 10
1038.33
 20
-1586.82
 30
0.000000
  70
    32
  0
VERTEX
  8
01
  5
DB7B
 10
1038.52
 20
-1586.81
 30
0.000000
  70
    32
  0
VERTEX
  8
01
  5
DB7C
 10
1038.71
 20
-1586.80
 30
0.000000
  70
    32
  0
VERTEX
  8
01
  5
DB7D
 10
1038.91
 20
-1586.78
 30
0.000000
  70
    32
  0
VERTEX
  8
01
  5
DB7E
 10
1039.10
 20
-1586.77
 30
0.000000
  70
    32
  0
VERTEX
  8
01
  5
DB7F
 10
1039.29
 20
-1586.75
 30
0.000000
  70
    32
  0
VERTEX
  8
01
  5
DB80
 10
1039.48
 20
-1586.73
 30
0.000000
  70
    32
  0
VERTEX
  8
01
  5
DB81
 10
1039.66
 20
-1586.71
 30
0.000000
  70
    32
  0
VERTEX
  8
01
  5
DB82
 10
1039.85
 20
-1586.69
 30
0.000000
  70
    32
  0
VERTEX
  8
01
  5
DB83
 10
1040.03
 20
-1586.66
 30
0.000000
  70
    32
  0
VERTEX
  8
01
  5
DB84
 10
1040.21
 20
-1586.63
 30
0.000000
  70
    32
  0
VERTEX
  8
01
  5
DB85
 10
1040.40
 20
-1586.61
 30
0.000000
  70
    32
  0
VERTEX
  8
01
  5
DB86
 10
1040.57
 20
-1586.58
 30
0.000000
  70
    32
  0
VERTEX
  8
01
  5
DB87
 10
1040.75
 20
-1586.55
 30
0.000000
  70
    32
  0
VERTEX
  8
01
  5
DB88
 10
1040.92
 20
-1586.51
 30
0.000000
  70
    32
  0
VERTEX
  8
01
  5
DB89
 10
1041.10
 20
-1586.48
 30
0.000000
  70
    32
  0
VERTEX
  8
01
  5
DB8A
 10
1041.27
 20
-1586.44
 30
0.000000
  70
    32
  0
VERTEX
  8
01
  5
DB8B
 10
1041.43
 20
-1586.41
 30
0.000000
  70
    32
  0
VERTEX
  8
01
  5
DB8C
 10
1041.60
 20
-1586.37
 30
0.000000
  70
    32
  0
VERTEX
  8
01
  5
DB8D
 10
1041.76
 20
-1586.33
 30
0.000000
  70
    32
  0
VERTEX
  8
01
  5
DB8E
 10
1041.92
 20
-1586.29
 30
0.000000
  70
    32
  0
VERTEX
  8
01
  5
DB8F
 10
1042.07
 20
-1586.24
 30
0.000000
  70
    32
  0
VERTEX
  8
01
  5
DB90
 10
1042.23
 20
-1586.20
 30
0.000000
  70
    32
  0
VERTEX
  8
01
  5
DB91
 10
1042.38
 20
-1586.15
 30
0.000000
  70
    32
  0
VERTEX
  8
01
  5
DB92
 10
1042.53
 20
-1586.10
 30
0.000000
  70
    32
  0
VERTEX
  8
01
  5
DB93
 10
1042.67
 20
-1586.06
 30
0.000000
  70
    32
  0
VERTEX
  8
01
  5
DB94
 10
1042.81
 20
-1586.01
 30
0.000000
  70
    32
  0
VERTEX
  8
01
  5
DB95
 10
1042.95
 20
-1585.96
 30
0.000000
  70
    32
  0
VERTEX
  8
01
  5
DB96
 10
1043.08
 20
-1585.90
 30
0.000000
  70
    32
  0
VERTEX
  8
01
  5
DB97
 10
1043.21
 20
-1585.85
 30
0.000000
  70
    32
  0
VERTEX
  8
01
  5
DB98
 10
1043.34
 20
-1585.80
 30
0.000000
  70
    32
  0
VERTEX
  8
01
  5
DB99
 10
1043.46
 20
-1585.74
 30
0.000000
  70
    32
  0
VERTEX
  8
01
  5
DB9A
 10
1043.58
 20
-1585.68
 30
0.000000
  70
    32
  0
VERTEX
  8
01
  5
DB9B
 10
1043.69
 20
-1585.63
 30
0.000000
  70
    32
  0
VERTEX
  8
01
  5
DB9C
 10
1043.80
 20
-1585.57
 30
0.000000
  70
    32
  0
VERTEX
  8
01
  5
DB9D
 10
1043.91
 20
-1585.51
 30
0.000000
  70
    32
  0
VERTEX
  8
01
  5
DB9E
 10
1044.01
 20
-1585.45
 30
0.000000
  70
    32
  0
VERTEX
  8
01
  5
DB9F
 10
1044.11
 20
-1585.39
 30
0.000000
  70
    32
  0
VERTEX
  8
01
  5
DBA0
 10
1044.21
 20
-1585.32
 30
0.000000
  70
    32
  0
VERTEX
  8
01
  5
DBA1
 10
1044.30
 20
-1585.26
 30
0.000000
  70
    32
  0
VERTEX
  8
01
  5
DBA2
 10
1044.39
 20
-1585.20
 30
0.000000
  70
    32
  0
VERTEX
  8
01
  5
DBA3
 10
1044.47
 20
-1585.13
 30
0.000000
  70
    32
  0
VERTEX
  8
01
  5
DBA4
 10
1044.54
 20
-1585.07
 30
0.000000
  70
    32
  0
VERTEX
  8
01
  5
DBA5
 10
1044.62
 20
-1585.00
 30
0.000000
  70
    32
  0
VERTEX
  8
01
  5
DBA6
 10
1044.69
 20
-1584.93
 30
0.000000
  70
    32
  0
VERTEX
  8
01
  5
DBA7
 10
1044.75
 20
-1584.87
 30
0.000000
  70
    32
  0
VERTEX
  8
01
  5
DBA8
 10
1044.81
 20
-1584.80
 30
0.000000
  70
    32
  0
VERTEX
  8
01
  5
DBA9
 10
1044.86
 20
-1584.73
 30
0.000000
  70
    32
  0
VERTEX
  8
01
  5
DBAA
 10
1044.91
 20
-1584.66
 30
0.000000
  70
    32
  0
VERTEX
  8
01
  5
DBAB
 10
1044.96
 20
-1584.59
 30
0.000000
  70
    32
  0
VERTEX
  8
01
  5
DBAC
 10
1045.00
 20
-1584.52
 30
0.000000
  70
    32
  0
VERTEX
  8
01
  5
DBAD
 10
1045.04
 20
-1584.45
 30
0.000000
  70
    32
  0
VERTEX
  8
01
  5
DBAE
 10
1045.07
 20
-1584.38
 30
0.000000
  70
    32
  0
VERTEX
  8
01
  5
DBAF
 10
1045.09
 20
-1584.31
 30
0.000000
  70
    32
  0
VERTEX
  8
01
  5
DBB0
 10
1045.11
 20
-1584.24
 30
0.000000
  70
    32
  0
VERTEX
  8
01
  5
DBB1
 10
1045.13
 20
-1584.17
 30
0.000000
  70
    32
  0
VERTEX
  8
01
  5
DBB2
 10
1045.14
 20
-1584.10
 30
0.000000
  70
    32
  0
VERTEX
  8
01
  5
DBB3
 10
1045.15
 20
-1584.03
 30
0.000000
  70
    32
  0
VERTEX
  8
01
  5
DBB4
 10
1045.15
 20
-1583.96
 30
0.000000
  70
    32
  0
SEQEND
  8
01
  5
DBB5
  0
LINE
  5
D1DB
  8
01
 10
1609.7325241674141
 20
-1714.9900359135299
 30
0.0
 11
1609.732522856094
 21
-1684.9900359135329
 31
0.0
  0
LINE
  5
D1DD
  8
01
 10
1480.65314896926
 20
-1519.159535021013
 30
0.0
 11
1480.653149056684
 21
-1517.1595333250921
 31
0.0
  0
LINE
  5
D1DE
  8
01
 10
1475.653149056651
 20
-1517.159533106535
 30
0.0
 11
1475.6531489473709
 21
-1519.6595331065359
 31
0.0
  0
LINE
  5
D1DF
  8
01
 10
1493.651945191297
 20
-1519.1595355892
 30
0.0
 11
1493.6517114379169
 21
-1517.158774283758
 31
0.0
  0
LINE
  5
D1E0
  8
01
 10
1498.6517114038279
 20
-1517.1581901226789
 30
0.0
 11
1498.6520036413899
 21
-1519.6595341118471
 31
0.0
  0
LINE
  5
D1E1
  8
01
 10
1475.653149056651
 20
-1517.1595331065339
 30
0.0
 11
1498.6520037506691
 21
-1517.1595341118459
 31
0.0
  0
LINE
  5
D1E3
  8
01
 10
1475.153149056624
 20
-1517.159533084679
 30
0.0
 11
1499.153149056624
 21
-1517.159534133752
 31
0.0
  0
LINE
  5
D1E4
  8
01
 10
1502.1531486282149
 20
-1526.9595342619059
 30
0.0
 11
1502.15314901288
 21
-1518.159513242377
 31
0.0
  0
LINE
  5
D1E5
  8
01
 10
1502.153150499063
 20
-1499.1595632605381
 30
0.0
 11
1502.1531506739079
 21
-1495.15953884794
 31
0.0
  0
LINE
  5
D1E6
  8
01
 10
1472.153150673973
 20
-1495.15953884794
 30
0.0
 11
1472.1531504991301
 21
-1499.159543084864
 31
0.0
  0
LINE
  5
D1E7
  8
01
 10
1472.1531490129439
 20
-1518.1595376549881
 30
0.0
 11
1472.1531486282879
 21
-1526.9595329505639
 31
0.0
  0
LINE
  5
D1E8
  8
01
 10
1501.9531486164931
 20
-1527.1595342561441
 30
0.0
 11
1502.1531486282149
 21
-1526.9595342619059
 31
0.0
  0
LINE
  5
D1E9
  8
01
 10
1472.1531486282879
 20
-1526.9595329505639
 30
0.0
 11
1472.3531483412451
 21
-1527.1595326810061
 31
0.0
  0
LINE
  5
D1EA
  8
01
 10
1475.6531486632821
 20
-1526.159533128392
 30
0.0
 11
1475.6531490566831
 21
-1517.1595331065339
 31
0.0
  0
LINE
  5
D1EB
  8
01
 10
1498.6531490565619
 20
-1517.1595341118959
 30
0.0
 11
1498.6531486631579
 21
-1526.159534090046
 31
0.0
  0
LINE
  5
D1EC
  8
01
 10
1498.6531486631579
 20
-1526.159534090046
 30
0.0
 11
1499.653148619449
 21
-1527.159534133752
 31
0.0
  0
LINE
  5
D1ED
  8
01
 10
1474.6531486195679
 20
-1527.1595330846781
 30
0.0
 11
1475.6531486632821
 21
-1526.159533128392
 31
0.0
  0
LINE
  5
D1EE
  8
01
 10
1499.153148641366
 20
-1526.6595341119621
 30
0.0
 11
1499.153149056624
 21
-1517.159534133752
 31
0.0
  0
LINE
  5
D1EF
  8
01
 10
1475.153148641366
 20
-1526.659533106593
 30
0.0
 11
1475.153149056624
 21
-1517.159533084679
 31
0.0
  0
LINE
  5
D1F0
  8
01
 10
1472.3531483412451
 20
-1527.1595326810061
 30
0.0
 11
1474.653148900848
 21
-1527.159532803398
 31
0.0
  0
LINE
  5
D1F1
  8
01
 10
1499.653148619449
 20
-1527.159534133752
 30
0.0
 11
1501.9531486164931
 21
-1527.1595342561441
 31
0.0
  0
LINE
  5
D1F2
  8
01
 10
1501.1531507176189
 20
-1494.15953884794
 30
0.0
 11
1473.153150717684
 21
-1494.15953884794
 31
0.0
  0
LINE
  5
D1F3
  8
01
 10
1501.1531507176189
 20
-1494.15953884794
 30
0.0
 11
1502.1531506739079
 21
-1495.15953884794
 31
0.0
  0
LINE
  5
D1F4
  8
01
 10
1473.153150717684
 20
-1494.15953884794
 30
0.0
 11
1472.153150673973
 21
-1495.15953884794
 31
0.0
  0
LINE
  5
D1F5
  8
01
 10
1662.3325234589231
 20
-1714.9900459628591
 30
0.0
 11
1666.3325234589181
 21
-1714.9900461377031
 31
0.0
  0
LINE
  5
D1F6
  8
01
 10
1666.3325234589181
 20
-1684.9900461377681
 30
0.0
 11
1662.3325234589231
 21
-1684.990045962925
 31
0.0
  0
LINE
  5
D1F7
  8
01
 10
1667.3325234589181
 20
-1713.990046181415
 30
0.0
 11
1667.3325234589181
 21
-1685.9900461814791
 31
0.0
  0
LINE
  5
D1F8
  8
01
 10
1667.3325234589181
 20
-1713.990046181415
 30
0.0
 11
1666.3325234589181
 21
-1714.9900461377031
 31
0.0
  0
LINE
  5
D1F9
  8
01
 10
1667.3325234589181
 20
-1685.9900461814791
 30
0.0
 11
1666.3325234589181
 21
-1684.9900461377681
 31
0.0
  0
LINE
  5
D1FA
  8
01
 10
1662.332523458922
 20
-1684.990045962923
 30
0.0
 11
1662.332523458922
 21
-1714.990045962857
 31
0.0
  0
LINE
  5
D1FB
  8
01
 10
1666.3325234589181
 20
-1714.9900461377031
 30
0.0
 11
1666.3325234589181
 21
-1684.9900461377681
 31
0.0
  0
ARC
  5
D1FC
  8
01
 10
1652.8325229961649
 20
-1728.5317096360529
 30
0.0
 40
16.541664481857069
 50
54.948855985664942
 51
125.05113505097211
  0
ARC
  5
D1FD
  8
01
 10
1652.8325229961661
 20
-1671.4483621910069
 30
0.0
 40
16.541664481857069
 50
234.94886494902789
 51
305.05114401433508
  0
ARC
  5
D1FE
  8
01
 10
1515.694831298611
 20
-1508.6595393106929
 30
0.0
 40
16.541664481857069
 50
144.94895927710311
 51
215.05103175950549
  0
ARC
  5
D1FF
  8
01
 10
1458.611483853565
 20
-1508.6595393106929
 30
0.0
 40
16.541664481857069
 50
324.94886494902011
 51
35.051126087594831
  0
CIRCLE
  5
D209
  8
01
 10
1487.1531404497391
 20
-1699.9900359135299
 30
0.0
 40
4.2499918957964828
  0
LINE
  5
D20A
  8
01
 10
1478.6531566583401
 20
-1699.990035913534
 30
0.0
 11
1495.6531242411399
 21
-1699.990035913534
 31
0.0
  0
LINE
  5
D20B
  8
01
 10
1487.15314044974
 20
-1708.490019704934
 30
0.0
 11
1487.15314044974
 21
-1691.4900521221341
 31
0.0
  0
CIRCLE
  5
D20C
  8
01
 10
1037.1531404497421
 20
-1699.9900359135299
 30
0.0
 40
4.2499918957964828
  0
LINE
  5
D20D
  8
01
 10
1045.6531242411411
 20
-1699.990035913534
 30
0.0
 11
1028.653156658341
 21
-1699.990035913534
 31
0.0
  0
LINE
  5
D20E
  8
01
 10
1037.1531404497409
 20
-1708.490019704934
 30
0.0
 11
1037.1531404497409
 21
-1691.4900521221341
 31
0.0
  0
LINE
  5
D2EB
  8
01
 10
1007.313325654261
 20
-1541.4595363563869
 30
0.0
 11
1537.8104838972711
 21
-1541.4595363563869
 31
0.0
  0
LINE
  5
D2EC
  8
01
 10
1007.313325654261
 20
-1529.4595363563881
 30
0.0
 11
1537.8104838972711
 21
-1529.4595363563881
 31
0.0
  0
LINE
  5
D4D0
  8
01
 10
1620.0325253603651
 20
-1733.6767262235969
 30
0.0
 11
1620.0325253603651
 21
-1657.2068549347309
 31
0.0
  0
LINE
  5
D4D1
  8
01
 10
1632.0325253603651
 20
-1733.6767262235969
 30
0.0
 11
1632.0325253603651
 21
-1657.2068549347309
 31
0.0
  0
TEXT
  5
D707
  8
01
 10
1497.458354302174
 20
-1371.361612635641
 30
0.0
 40
15.9999999984
  1
SH-015-XX-3
 41
0.8
  0
LINE
  5
D708
  8
01
 10
1497.458354302174
 20
-1395.3616126332411
 30
0.0
 11
1567.4583542951741
 21
-1395.3616126332411
 31
0.0
  0
LINE
  5
D709
  8
01
 10
1567.4583542951741
 20
-1395.3616126332411
 30
0.0
 11
1707.4583542811761
 21
-1395.3616126332411
 31
0.0
  0
TEXT
  5
D70A
  8
01
 10
1502.8202590635431
 20
-1392.361612633541
 30
0.0
 40
7.999999999199999
  1
表面処理:脚部
 72
     1
 11
1532.4583542986741
 21
-1392.361612633541
 31
0.0
  0
LINE
  5
D70B
  8
01
 10
1497.458354302174
 20
-1381.361612634641
 30
0.0
 11
1567.4583542951741
 21
-1381.361612634641
 31
0.0
  0
LINE
  5
D70C
  8
01
 10
1567.4583542951741
 20
-1381.361612634641
 30
0.0
 11
1707.4583542811761
 21
-1381.361612634641
 31
0.0
  0
TEXT
  5
D70D
  8
01
 10
1658.9250209526949
 20
-1392.361612633541
 30
0.0
 40
7.999999999199999
  1
コード
 72
     1
 11
1672.2583542846951
 21
-1392.361612633541
 31
0.0
  0
LINE
  5
D70E
  8
01
 10
1567.4583542951741
 20
-1409.361612631842
 30
0.0
 11
1707.4583542811761
 21
-1409.36161263184
 31
0.0
  0
TEXT
  5
D70F
  8
01
 10
1514.3250209671539
 20
-1406.3174026721149
 30
0.0
 40
7.999999999199999
  1
クローム
 72
     1
 11
1532.4583542986741
 21
-1406.3174026721149
 31
0.0
  0
LINE
  5
D710
  8
01
 10
1567.4583542951741
 20
-1381.361612634641
 30
0.0
 11
1567.458354295175
 21
-1437.361612629044
 31
0.0
  0
LINE
  5
D711
  8
01
 10
1707.4583542811749
 20
-1381.361612634641
 30
0.0
 11
1707.4583542811761
 21
-1437.3616126290419
 31
0.0
  0
LINE
  5
D712
  8
01
 10
1497.458354302174
 20
-1381.361612634641
 30
0.0
 11
1497.458354302174
 21
-1437.3616126290431
 31
0.0
  0
TEXT
  5
D713
  8
01
 10
1640.1250209545769
 20
-1406.7903265993971
 30
0.0
 40
7.999999999199999
  1
SH-015-XC-3
 41
0.7
 72
     1
 11
1672.2583542846969
 21
-1406.7903265993971
 31
0.0
  0
LINE
  5
D714
  8
01
 10
1497.4583543021711
 20
-1409.361612631842
 30
0.0
 11
1567.458354295173
 21
-1409.3616126318429
 31
0.0
  0
TEXT
  5
D715
  8
01
 10
1572.8202590565429
 20
-1392.361612633541
 30
0.0
 40
7.999999999199999
  1
表面処理:握り
 72
     1
 11
1602.4583542916751
 21
-1392.361612633541
 31
0.0
  0
LINE
  5
D716
  8
01
 10
1637.4583542881751
 20
-1381.361612634641
 30
0.0
 11
1637.4583542881751
 21
-1437.3616126290419
 31
0.0
  0
LINE
  5
D717
  8
01
 10
1567.4583542951741
 20
-1423.361612630443
 30
0.0
 11
1707.4583542811761
 21
-1423.361612630441
 31
0.0
  0
TEXT
  5
D718
  8
01
 10
1502.5916876349941
 20
-1420.317402670715
 30
0.0
 40
7.999999999199999
  1
ブラストシルバー
 41
0.8
 72
     1
 11
1532.4583542986741
 21
-1420.317402670715
 31
0.0
  0
TEXT
  5
D719
  8
01
 10
1640.258354287897
 20
-1420.7903265979969
 30
0.0
 40
7.999999999199999
  1
SH-015-XS-3
 41
0.7
 72
     1
 11
1672.2583542846969
 21
-1420.7903265979969
 31
0.0
  0
LINE
  5
D71A
  8
01
 10
1497.4583543021711
 20
-1423.361612630443
 30
0.0
 11
1567.458354295173
 21
-1423.3616126304439
 31
0.0
  0
LINE
  5
D71B
  8
01
 10
1567.4583542951721
 20
-1437.3616126290431
 30
0.0
 11
1707.4583542811729
 21
-1437.3616126290419
 31
0.0
  0
TEXT
  5
D71C
  8
01
 10
1502.5916876349911
 20
-1434.3174026693159
 30
0.0
 40
7.999999999199999
  1
ブラストブラック
 41
0.8
 72
     1
 11
1532.4583542986711
 21
-1434.3174026693159
 31
0.0
  0
TEXT
  5
D71D
  8
01
 10
1640.125020954574
 20
-1434.7903265965981
 30
0.0
 40
7.999999999199999
  1
SH-015-XK-3
 41
0.7
 72
     1
 11
1672.258354284694
 21
-1434.7903265965981
 31
0.0
  0
LINE
  5
D71E
  8
01
 10
1497.4583543021679
 20
-1437.3616126290431
 30
0.0
 11
1567.45835429517
 21
-1437.361612629044
 31
0.0
  0
TEXT
  5
D71F
  8
01
 10
1584.3250209601549
 20
-1406.3174026721149
 30
0.0
 40
7.999999999199999
  1
クローム
 72
     1
 11
1602.4583542916751
 21
-1406.3174026721149
 31
0.0
  0
TEXT
  5
D720
  8
01
 10
1572.591687627995
 20
-1420.317402670715
 30
0.0
 40
7.999999999199999
  1
ブラストシルバー
 41
0.8
 72
     1
 11
1602.4583542916751
 21
-1420.317402670715
 31
0.0
  0
TEXT
  5
D721
  8
01
 10
1572.5916876279921
 20
-1434.3174026693159
 30
0.0
 40
7.999999999199999
  1
ブラストブラック
 41
0.8
 72
     1
 11
1602.4583542916721
 21
-1434.3174026693159
 31
0.0
  0
LINE
  5
D788
  8
01
 10
1052.1531490784459
 20
-1516.6595359607991
 30
0.0
 11
1052.1531490784459
 21
-1470.2309523564629
 31
0.0
  0
LINE
  5
D789
  8
01
 10
1022.153149078517
 20
-1516.659534649458
 30
0.0
 11
1022.153149078517
 21
-1470.2309523564629
 31
0.0
  0
LINE
  5
D78A
  8
01
 10
1048.1531490784459
 20
-1472.230952356462
 30
0.0
 11
1026.1531490785169
 21
-1472.230952356462
 31
0.0
  0
LINE
  5
D78E
  8
01
 10
1577.5324974484211
 20
-1699.9900359135299
 30
0.0
 11
1577.5324974484211
 21
-1750.5775155248939
 31
0.0
  0
LINE
  5
D78F
  8
01
 10
1620.0325253603651
 20
-1733.6767262235969
 30
0.0
 11
1620.0325253603651
 21
-1750.5775155248939
 31
0.0
  0
LINE
  5
D790
  8
01
 10
1581.532497448422
 20
-1748.5775155248939
 30
0.0
 11
1616.0325253603651
 21
-1748.5775155248939
 31
0.0
  0
TEXT
  5
D794
  8
01
 10
1071.8862911778399
 20
-1501.2227456251301
 30
0.0
 40
7.0
  1
材質：合成ゴム
  0
TEXT
  5
D795
  8
01
 10
1071.8862911778399
 20
-1512.889412291797
 30
0.0
 40
7.0
  1
仕上げ：グレー
  0
TEXT
  5
D798
  8
01
 10
1383.2736715118899
 20
-1499.3997410249831
 30
0.0
 40
7.0
  1
材質：ゴム
  0
TEXT
  5
D799
  8
01
 10
1383.2736715118899
 20
-1511.0664076916489
 30
0.0
 40
7.0
  1
仕上げ：ブラック
  0
LINE
  5
D79C
  8
01
 10
1479.403140449738
 20
-1529.459536968347
 30
0.0
 11
1514.387284826958
 21
-1487.7670572229599
 31
0.0
  0
LINE
  5
D79D
  8
01
 10
1494.9031404497359
 20
-1529.4595376458749
 30
0.0
 11
1529.8872853954699
 21
-1487.7670572229599
 31
0.0
  0
LINE
  5
D79E
  8
01
 10
1516.709085564604
 20
-1489.7670572229599
 30
0.0
 11
1524.2090861331151
 21
-1489.7670572229599
 31
0.0
  0
LINE
  5
D79F
  8
01
 10
1528.2090861331151
 20
-1489.7670572229599
 30
0.0
 11
1617.875752799782
 21
-1489.7670572229599
 31
0.0
  0
TEXT
  5
D7A3
  8
01
 10
1556.4648872248781
 20
-1582.5259622650749
 30
0.0
 40
7.0
  1
ガラス扉対応厚8~12mm
  0
TEXT
  5
D7A6
  8
01
 10
1073.4044510248129
 20
-1474.2337782460629
 30
0.0
 40
7.0
  1
材質：アルミ
  0
TEXT
  5
D7A7
  8
01
 10
1073.4044510248129
 20
-1485.900444912729
 30
0.0
 40
7.0
  1
仕上げ：各種仕上げ
  0
TEXT
  5
D7AA
  8
01
 10
1524.8941779628619
 20
-1452.4567412047661
 30
0.0
 40
7.0
  1
材質：アルミ
  0
TEXT
  5
D7AB
  8
01
 10
1524.8941779628619
 20
-1464.1234078714331
 30
0.0
 40
7.0
  1
仕上げ：各種仕上げ
  0
TEXT
  5
D7AE
  8
01
 10
1334.3144233240091
 20
-1642.9408440685729
 30
0.0
 40
7.0
  1
材質：アルミ
  0
TEXT
  5
D7AF
  8
01
 10
1334.3144233240091
 20
-1654.6075107352401
 30
0.0
 40
7.0
  1
仕上げ：各種仕上げ
  0
TEXT
  5
D7B2
  8
01
 10
1639.2818046031171
 20
-1788.429727274917
 30
0.0
 40
10.5
  1
(S=1:2)
  0
LINE
  5
D7B3
  8
01
 10
1565.0324974484211
 20
-1687.490035913529
 30
0.0
 11
1535.4777289343181
 21
-1687.490035913529
 31
0.0
  0
LINE
  5
D7B4
  8
01
 10
1565.0324974484211
 20
-1712.4900359135311
 30
0.0
 11
1535.4777289343181
 21
-1712.4900359135311
 31
0.0
  0
LINE
  5
D7B5
  8
01
 10
1537.4777289343181
 20
-1691.4900359135299
 30
0.0
 11
1537.4777289343181
 21
-1708.4900359135311
 31
0.0
  0
LINE
  5
D7B9
  8
01
 10
1666.3325234589181
 20
-1714.9900461377031
 30
0.0
 11
1690.941642836711
 21
-1714.9900461377031
 31
0.0
  0
LINE
  5
D7BA
  8
01
 10
1666.3325234589181
 20
-1684.990046137767
 30
0.0
 11
1690.941642836711
 21
-1684.990046137767
 31
0.0
  0
LINE
  5
D7BB
  8
01
 10
1688.941642836711
 20
-1710.9900461377031
 30
0.0
 11
1688.941642836711
 21
-1688.990046137767
 31
0.0
  0
LINE
  5
D7BF
  8
01
 10
1632.0325253603651
 20
-1733.6767262235969
 30
0.0
 11
1632.0325253603651
 21
-1767.9632759371941
 31
0.0
  0
LINE
  5
D7C0
  8
01
 10
1667.3325234589181
 20
-1713.990046181415
 30
0.0
 11
1667.3325234589181
 21
-1767.9632759371941
 31
0.0
  0
LINE
  5
D7C1
  8
01
 10
1636.0325253603651
 20
-1765.9632759371941
 30
0.0
 11
1663.3325234589181
 21
-1765.9632759371941
 31
0.0
  0
LINE
  5
D7C5
  8
01
 10
1620.0325253603651
 20
-1733.6767262235969
 30
0.0
 11
1620.0325253603651
 21
-1767.9632759371941
 31
0.0
  0
LINE
  5
D7C6
  8
01
 10
1552.5324974484199
 20
-1699.9900359135299
 30
0.0
 11
1552.5324974484199
 21
-1767.9632759371941
 31
0.0
  0
LINE
  5
D7C7
  8
01
 10
1616.0325253603651
 20
-1765.9632759371941
 30
0.0
 11
1556.5324974484199
 21
-1765.9632759371941
 31
0.0
  0
LINE
  5
D7CB
  8
01
 10
1037.1531404497409
 20
-1708.490019704934
 30
0.0
 11
1037.1531404497409
 21
-1750.5775155248939
 31
0.0
  0
LINE
  5
D7CC
  8
01
 10
1487.15314044974
 20
-1708.490019704934
 30
0.0
 11
1487.15314044974
 21
-1750.5775155248939
 31
0.0
  0
LINE
  5
D7CD
  8
01
 10
1041.1531404497409
 20
-1748.5775155248939
 30
0.0
 11
1483.15314044974
 21
-1748.5775155248939
 31
0.0
  0
LINE
  5
D7D1
  8
01
 10
1012.153140449741
 20
-1711.4900359135261
 30
0.0
 11
1012.153140449741
 21
-1767.9632759371941
 31
0.0
  0
LINE
  5
D7D2
  8
01
 10
1512.1531404497409
 20
-1711.4900359135261
 30
0.0
 11
1512.1531404497409
 21
-1767.9632759371941
 31
0.0
  0
LINE
  5
D7D3
  8
01
 10
1016.153140449741
 20
-1765.9632759371941
 30
0.0
 11
1508.15314044974
 21
-1765.9632759371941
 31
0.0
  0
LINE
  5
D7D7
  8
01
 10
1472.1531404497371
 20
-1542.9678521992309
 30
0.0
 11
1473.153140440633
 21
-1541.967852208335
 31
0.0
1001
ACAD
1010
0.0
1020
0.0
1030
0.0
  0
LINE
  5
D7D8
  8
01
 10
1472.153140449738
 20
-1545.2129162294971
 30
0.0
 11
1474.9065184194401
 21
-1542.459538259795
 31
0.0
1001
ACAD
1010
0.0
1020
0.0
1030
0.0
  0
LINE
  5
D7D9
  8
01
 10
1472.153140449738
 20
-1547.4579802597641
 30
0.0
 11
1477.1515823515731
 21
-1542.4595383579299
 31
0.0
1001
ACAD
1010
0.0
1020
0.0
1030
0.0
  0
LINE
  5
D7DA
  8
01
 10
1472.153140449738
 20
-1549.7030442900309
 30
0.0
 11
1479.3966462837041
 21
-1542.459538456065
 31
0.0
1001
ACAD
1010
0.0
1020
0.0
1030
0.0
  0
LINE
  5
D7DB
  8
01
 10
1472.2474255380951
 20
-1551.853823231942
 30
0.0
 11
1482.3417101852449
 21
-1541.759538584791
 31
0.0
1001
ACAD
1010
0.0
1020
0.0
1030
0.0
  0
LINE
  5
D7DC
  8
01
 10
1473.586774598175
 20
-1552.75953820213
 30
0.0
 11
1483.15258106797
 21
-1543.1937317323341
 31
0.0
1001
ACAD
1010
0.0
1020
0.0
1030
0.0
  0
LINE
  5
D7DD
  8
01
 10
1475.8318385303101
 20
-1552.7595383002611
 30
0.0
 11
1483.1526023830711
 21
-1545.4387744475
 31
0.0
1001
ACAD
1010
0.0
1020
0.0
1030
0.0
  0
LINE
  5
D7DE
  8
01
 10
1477.9228547876801
 20
-1552.9135860731581
 30
0.0
 11
1483.152623698172
 21
-1547.6838171626671
 31
0.0
1001
ACAD
1010
0.0
1020
0.0
1030
0.0
  0
LINE
  5
D7DF
  8
01
 10
1479.025366131794
 20
-1554.056138759312
 30
0.0
 11
1483.1526450132731
 21
-1549.928859877833
 31
0.0
1001
ACAD
1010
0.0
1020
0.0
1030
0.0
  0
LINE
  5
D7E0
  8
01
 10
1479.15314044974
 20
-1556.173428471634
 30
0.0
 11
1483.1526663283739
 21
-1552.173902592999
 31
0.0
1001
ACAD
1010
0.0
1020
0.0
1030
0.0
  0
LINE
  5
D7E1
  8
01
 10
1491.152590375061
 20
-1544.1739785463119
 30
0.0
 11
1493.153140431642
 21
-1542.1734284897309
 31
0.0
1001
ACAD
1010
0.0
1020
0.0
1030
0.0
  0
LINE
  5
D7E2
  8
01
 10
1479.15314044974
 20
-1558.418492501901
 30
0.0
 11
1483.152687643475
 21
-1554.418945308166
 31
0.0
1001
ACAD
1010
0.0
1020
0.0
1030
0.0
  0
LINE
  5
D7E3
  8
01
 10
1491.1526116901589
 20
-1546.419021261481
 30
0.0
 11
1495.112093808631
 21
-1542.45953914301
 31
0.0
1001
ACAD
1010
0.0
1020
0.0
1030
0.0
  0
LINE
  5
D7E4
  8
01
 10
1479.15314044974
 20
-1560.6635565321681
 30
0.0
 11
1483.1527089585761
 21
-1556.663988023332
 31
0.0
1001
ACAD
1010
0.0
1020
0.0
1030
0.0
  0
LINE
  5
D7E5
  8
01
 10
1491.1526330052579
 20
-1548.6640639766499
 30
0.0
 11
1497.3571577407629
 21
-1542.459539241145
 31
0.0
1001
ACAD
1010
0.0
1020
0.0
1030
0.0
  0
LINE
  5
D7E6
  8
01
 10
1479.15314044974
 20
-1562.9086205624351
 30
0.0
 11
1483.152730273677
 21
-1558.9090307384979
 31
0.0
1001
ACAD
1010
0.0
1020
0.0
1030
0.0
  0
LINE
  5
D7E7
  8
01
 10
1491.152654320357
 20
-1550.9091066918179
 30
0.0
 11
1499.6022216728959
 21
-1542.459539339279
 31
0.0
1001
ACAD
1010
0.0
1020
0.0
1030
0.0
  0
LINE
  5
D7E8
  8
01
 10
1479.15314044974
 20
-1565.153684592703
 30
0.0
 11
1483.1527515887781
 21
-1561.1540734536641
 31
0.0
1001
ACAD
1010
0.0
1020
0.0
1030
0.0
  0
LINE
  5
D7E9
  8
01
 10
1491.1526756354549
 20
-1553.154149406987
 30
0.0
 11
1502.153140449738
 21
-1542.1536845927039
 31
0.0
1001
ACAD
1010
0.0
1020
0.0
1030
0.0
  0
LINE
  5
D7EA
  8
01
 10
1479.15314044974
 20
-1567.3987486229701
 30
0.0
 11
1483.1527729038789
 21
-1563.3991161688309
 31
0.0
1001
ACAD
1010
0.0
1020
0.0
1030
0.0
  0
LINE
  5
D7EB
  8
01
 10
1491.152696950553
 20
-1555.3991921221559
 30
0.0
 11
1502.153140449738
 21
-1544.3987486229721
 31
0.0
1001
ACAD
1010
0.0
1020
0.0
1030
0.0
  0
LINE
  5
D7EC
  8
01
 10
1479.15314044974
 20
-1569.6438126532371
 30
0.0
 11
1483.15279421898
 21
-1565.6441588839971
 31
0.0
1001
ACAD
1010
0.0
1020
0.0
1030
0.0
  0
LINE
  5
D7ED
  8
01
 10
1491.1527182656521
 20
-1557.644234837325
 30
0.0
 11
1502.1531404497371
 21
-1546.64381265324
 31
0.0
1001
ACAD
1010
0.0
1020
0.0
1030
0.0
  0
LINE
  5
D7EE
  8
01
 10
1479.15314044974
 20
-1571.888876683505
 30
0.0
 11
1483.1537086952869
 21
-1567.888308437957
 31
0.0
1001
ACAD
1010
0.0
1020
0.0
1030
0.0
  0
LINE
  5
D7EF
  8
01
 10
1498.282477851667
 20
-1552.759539281577
 30
0.0
 11
1502.1531404497371
 21
-1548.8888766835071
 31
0.0
1001
ACAD
1010
0.0
1020
0.0
1030
0.0
  0
LINE
  5
D7F0
  8
01
 10
1491.1527395807509
 20
-1559.8892775524939
 30
0.0
 11
1495.15314044974
 21
-1555.888876683505
 31
0.0
1001
ACAD
1010
0.0
1020
0.0
1030
0.0
  0
LINE
  5
D7F1
  8
01
 10
1479.15314044974
 20
-1574.1339407137721
 30
0.0
 11
1483.1537086952869
 21
-1570.133372468224
 31
0.0
1001
ACAD
1010
0.0
1020
0.0
1030
0.0
  0
LINE
  5
D7F2
  8
01
 10
1500.5275417838029
 20
-1552.759539379708
 30
0.0
 11
1502.1531404497371
 21
-1551.133940713775
 31
0.0
1001
ACAD
1010
0.0
1020
0.0
1030
0.0
  0
LINE
  5
D7F3
  8
01
 10
1491.152760895849
 20
-1562.1343202676619
 30
0.0
 11
1495.15314044974
 21
-1558.1339407137721
 31
0.0
1001
ACAD
1010
0.0
1020
0.0
1030
0.0
  0
LINE
  5
D7F4
  8
01
 10
1479.15314044974
 20
-1576.3790047440391
 30
0.0
 11
1483.1537086952869
 21
-1572.378436498492
 31
0.0
1001
ACAD
1010
0.0
1020
0.0
1030
0.0
  0
LINE
  5
D7F5
  8
01
 10
1491.1527822109481
 20
-1564.379362982831
 30
0.0
 11
1495.1531404497391
 21
-1560.37900474404
 31
0.0
1001
ACAD
1010
0.0
1020
0.0
1030
0.0
  0
LINE
  5
D7F6
  8
01
 10
1479.15314044974
 20
-1578.6240687743059
 30
0.0
 11
1483.1537086952869
 21
-1574.623500528759
 31
0.0
1001
ACAD
1010
0.0
1020
0.0
1030
0.0
  0
LINE
  5
D7F7
  8
01
 10
1491.152803526046
 20
-1566.6244056979999
 30
0.0
 11
1495.15314044974
 21
-1562.624068774307
 31
0.0
1001
ACAD
1010
0.0
1020
0.0
1030
0.0
  0
LINE
  5
D7F8
  8
01
 10
1479.15314044974
 20
-1580.8691328045741
 30
0.0
 11
1483.783793317916
 21
-1576.2384799363981
 31
0.0
1001
ACAD
1010
0.0
1020
0.0
1030
0.0
  0
LINE
  5
D7F9
  8
01
 10
1491.152572204192
 20
-1568.8697010501221
 30
0.0
 11
1495.1531404497391
 21
-1564.8691328045741
 31
0.0
1001
ACAD
1010
0.0
1020
0.0
1030
0.0
  0
LINE
  5
D7FA
  8
01
 10
1479.15314044974
 20
-1583.1141968348411
 30
0.0
 11
1483.8457941297449
 21
-1578.4215431548359
 31
0.0
1001
ACAD
1010
0.0
1020
0.0
1030
0.0
  0
LINE
  5
D7FB
  8
01
 10
1491.152572204192
 20
-1571.1147650803889
 30
0.0
 11
1495.1531404497391
 21
-1567.114196834842
 31
0.0
1001
ACAD
1010
0.0
1020
0.0
1030
0.0
  0
LINE
  5
D7FC
  8
01
 10
1479.15314044974
 20
-1585.3592608651079
 30
0.0
 11
1484.9683352865329
 21
-1579.544066028315
 31
0.0
1001
ACAD
1010
0.0
1020
0.0
1030
0.0
  0
LINE
  5
D7FD
  8
01
 10
1491.152572204192
 20
-1573.3598291106559
 30
0.0
 11
1495.1531404497391
 21
-1569.359260865109
 31
0.0
1001
ACAD
1010
0.0
1020
0.0
1030
0.0
  0
LINE
  5
D7FE
  8
01
 10
1479.15314044974
 20
-1587.6043248953761
 30
0.0
 11
1486.0908764433209
 21
-1580.6665889017941
 31
0.0
1001
ACAD
1010
0.0
1020
0.0
1030
0.0
  0
LINE
  5
D7FF
  8
01
 10
1490.5224875815629
 20
-1576.2349777635529
 30
0.0
 11
1495.1531404497391
 21
-1571.6043248953761
 31
0.0
1001
ACAD
1010
0.0
1020
0.0
1030
0.0
  0
LINE
  5
D800
  8
01
 10
1481.0429645169449
 20
-1587.9595648584379
 30
0.0
 11
1495.1531404497391
 21
-1573.8493889256431
 31
0.0
1001
ACAD
1010
0.0
1020
0.0
1030
0.0
  0
LINE
  5
D801
  8
01
 10
1482.853140449741
 20
-1588.3944529559101
 30
0.0
 11
1495.1531404497391
 21
-1576.094452955911
 31
0.0
1001
ACAD
1010
0.0
1020
0.0
1030
0.0
  0
LINE
  5
D802
  8
01
 10
1482.8531404497401
 20
-1590.6395169861769
 30
0.0
 11
1495.1531404497391
 21
-1578.3395169861781
 31
0.0
1001
ACAD
1010
0.0
1020
0.0
1030
0.0
  0
LINE
  5
D803
  8
01
 10
1482.8531404497401
 20
-1592.8845810164439
 30
0.0
 11
1495.1531404497391
 21
-1580.584581016446
 31
0.0
1001
ACAD
1010
0.0
1020
0.0
1030
0.0
  0
LINE
  5
D804
  8
01
 10
1482.8531404497401
 20
-1595.1296450467121
 30
0.0
 11
1495.1531404497391
 21
-1582.829645046713
 31
0.0
1001
ACAD
1010
0.0
1020
0.0
1030
0.0
  0
LINE
  5
D805
  8
01
 10
1482.8531404497401
 20
-1597.3747090769789
 30
0.0
 11
1491.4531404497411
 21
-1588.7747090769781
 31
0.0
1001
ACAD
1010
0.0
1020
0.0
1030
0.0
  0
LINE
  5
D806
  8
01
 10
1492.2682846682819
 20
-1587.9595648584379
 30
0.0
 11
1495.1531404497391
 21
-1585.0747090769801
 31
0.0
1001
ACAD
1010
0.0
1020
0.0
1030
0.0
  0
LINE
  5
D807
  8
01
 10
1483.213348698547
 20
-1599.259564858439
 30
0.0
 11
1491.4531404497411
 21
-1591.0197731072451
 31
0.0
1001
ACAD
1010
0.0
1020
0.0
1030
0.0
  0
LINE
  5
D808
  8
01
 10
1494.513348698548
 20
-1587.9595648584379
 30
0.0
 11
1495.1531404497391
 21
-1587.319773107248
 31
0.0
1001
ACAD
1010
0.0
1020
0.0
1030
0.0
  0
LINE
  5
D809
  8
01
 10
1485.4584127288149
 20
-1599.259564858439
 30
0.0
 11
1491.4531404497411
 21
-1593.264837137513
 31
0.0
1001
ACAD
1010
0.0
1020
0.0
1030
0.0
  0
LINE
  5
D80A
  8
01
 10
1487.7034767590831
 20
-1599.2595648584379
 30
0.0
 11
1491.4531404497411
 21
-1595.5099011677801
 31
0.0
1001
ACAD
1010
0.0
1020
0.0
1030
0.0
  0
LINE
  5
D80B
  8
01
 10
1489.948540789351
 20
-1599.2595648584379
 30
0.0
 11
1491.4531404497411
 21
-1597.754965198048
 31
0.0
1001
ACAD
1010
0.0
1020
0.0
1030
0.0
  0
LINE
  5
D80C
  8
01
 10
1502.153148663089
 20
-1526.1617235630999
 30
0.0
 11
1501.1553380124999
 21
-1527.1595342136891
 31
0.0
1001
ACAD
1010
0.0
1020
0.0
1030
0.0
  0
LINE
  5
D80D
  8
01
 10
1502.1531487612251
 20
-1523.9166594346971
 30
0.0
 11
1499.2817113570441
 21
-1526.7880968388779
 31
0.0
1001
ACAD
1010
0.0
1020
0.0
1030
0.0
  0
LINE
  5
D80E
  8
01
 10
1502.153148859361
 20
-1521.671595306294
 30
0.0
 11
1499.1531487282621
 21
-1524.6715954373919
 31
0.0
1001
ACAD
1010
0.0
1020
0.0
1030
0.0
  0
LINE
  5
D80F
  8
01
 10
1502.1531489574959
 20
-1519.4265311778911
 30
0.0
 11
1499.1531488263961
 21
-1522.4265313089909
 31
0.0
1001
ACAD
1010
0.0
1020
0.0
1030
0.0
  0
LINE
  5
D810
  8
01
 10
1501.7606882891671
 20
-1517.5739278159531
 30
0.0
 11
1499.153148924531
 21
-1520.1814671805889
 31
0.0
1001
ACAD
1010
0.0
1020
0.0
1030
0.0
  0
LINE
  5
D811
  8
01
 10
1500.944016802642
 20
-1516.145535272211
 30
0.0
 11
1499.153149022666
 21
-1517.936403052187
 31
0.0
1001
ACAD
1010
0.0
1020
0.0
1030
0.0
  0
LINE
  5
D812
  8
01
 10
1500.253269160411
 20
-1514.5912188841751
 30
0.0
 11
1497.6849539750101
 21
-1517.1595340695751
 31
0.0
1001
ACAD
1010
0.0
1020
0.0
1030
0.0
  0
LINE
  5
D813
  8
01
 10
1499.704562168489
 20
-1512.8948618458289
 30
0.0
 11
1495.4398900428771
 21
-1517.1595339714399
 31
0.0
1001
ACAD
1010
0.0
1020
0.0
1030
0.0
  0
LINE
  5
D814
  8
01
 10
1499.32395315906
 20
-1511.03040682499
 30
0.0
 11
1493.194826110745
 21
-1517.1595338733059
 31
0.0
1001
ACAD
1010
0.0
1020
0.0
1030
0.0
  0
LINE
  5
D815
  8
01
 10
1499.1557792958599
 20
-1508.953516657923
 30
0.0
 11
1490.9497621786129
 21
-1517.159533775171
 31
0.0
1001
ACAD
1010
0.0
1020
0.0
1030
0.0
  0
LINE
  5
D816
  8
01
 10
1499.2844270186561
 20
-1506.5798049048601
 30
0.0
 11
1488.7046982464799
 21
-1517.1595336770361
 31
0.0
1001
ACAD
1010
0.0
1020
0.0
1030
0.0
  0
LINE
  5
D817
  8
01
 10
1499.9118653179371
 20
-1503.7073025753109
 30
0.0
 11
1487.1531404497371
 21
-1516.4660274435121
 31
0.0
1001
ACAD
1010
0.0
1020
0.0
1030
0.0
  0
LINE
  5
D818
  8
01
 10
1487.1531404497371
 20
-1516.4660274435121
 30
0.0
 11
1486.459634314348
 21
-1517.1595335789009
 31
0.0
1001
ACAD
1010
0.0
1020
0.0
1030
0.0
  0
LINE
  5
D819
  8
01
 10
1502.016052914913
 20
-1499.3580509480689
 30
0.0
 11
1487.1531404497371
 21
-1514.2209634132439
 31
0.0
1001
ACAD
1010
0.0
1020
0.0
1030
0.0
  0
LINE
  5
D81A
  8
01
 10
1475.1531486605379
 20
-1526.220955202444
 30
0.0
 11
1474.214571082922
 21
-1527.1595327800601
 31
0.0
1001
ACAD
1010
0.0
1020
0.0
1030
0.0
  0
LINE
  5
D81B
  8
01
 10
1487.1531404497371
 20
-1514.220963413245
 30
0.0
 11
1484.2145703822159
 21
-1517.159533480766
 31
0.0
1001
ACAD
1010
0.0
1020
0.0
1030
0.0
  0
LINE
  5
D81C
  8
01
 10
1502.1531505945129
 20
-1496.975889238201
 30
0.0
 11
1487.1531404497371
 21
-1511.9758993829771
 31
0.0
1001
ACAD
1010
0.0
1020
0.0
1030
0.0
  0
LINE
  5
D81D
  8
01
 10
1475.1531487586719
 20
-1523.975891074042
 30
0.0
 11
1472.161327754862
 21
-1526.967712077852
 31
0.0
1001
ACAD
1010
0.0
1020
0.0
1030
0.0
  0
LINE
  5
D81E
  8
01
 10
1487.1531404497371
 20
-1511.9758993829771
 30
0.0
 11
1481.9695064500829
 21
-1517.159533382631
 31
0.0
1001
ACAD
1010
0.0
1020
0.0
1030
0.0
  0
LINE
  5
D81F
  8
01
 10
1501.938793818892
 20
-1494.9451819835549
 30
0.0
 11
1487.1531404497371
 21
-1509.7308353527101
 31
0.0
1001
ACAD
1010
0.0
1020
0.0
1030
0.0
  0
LINE
  5
D820
  8
01
 10
1475.1531488568071
 20
-1521.73082694564
 30
0.0
 11
1472.1531487257071
 21
-1524.7308270767401
 31
0.0
1001
ACAD
1010
0.0
1020
0.0
1030
0.0
  0
LINE
  5
D821
  8
01
 10
1487.1531404497371
 20
-1509.7308353527101
 30
0.0
 11
1479.724442517951
 21
-1517.1595332844961
 31
0.0
1001
ACAD
1010
0.0
1020
0.0
1030
0.0
  0
LINE
  5
D822
  8
01
 10
1500.4793729242399
 20
-1494.15953884794
 30
0.0
 11
1487.1531404497371
 21
-1507.485771322443
 31
0.0
1001
ACAD
1010
0.0
1020
0.0
1030
0.0
  0
LINE
  5
D823
  8
01
 10
1475.153148954942
 20
-1519.4857628172381
 30
0.0
 11
1472.1531488238411
 21
-1522.485762948339
 31
0.0
1001
ACAD
1010
0.0
1020
0.0
1030
0.0
  0
LINE
  5
D824
  8
01
 10
1487.1531404497359
 20
-1507.485771322443
 30
0.0
 11
1477.479378585818
 21
-1517.1595331863609
 31
0.0
1001
ACAD
1010
0.0
1020
0.0
1030
0.0
  0
LINE
  5
D825
  8
01
 10
1498.234308893972
 20
-1494.15953884794
 30
0.0
 11
1487.1531404497359
 21
-1505.240707292176
 31
0.0
1001
ACAD
1010
0.0
1020
0.0
1030
0.0
  0
LINE
  5
D826
  8
01
 10
1475.153149053076
 20
-1517.2406986888359
 30
0.0
 11
1472.153148921974
 21
-1520.240698819938
 31
0.0
1001
ACAD
1010
0.0
1020
0.0
1030
0.0
  0
LINE
  5
D827
  8
01
 10
1487.1531404497359
 20
-1505.240707292176
 30
0.0
 11
1475.2343146536859
 21
-1517.1595330882269
 31
0.0
1001
ACAD
1010
0.0
1020
0.0
1030
0.0
  0
LINE
  5
D828
  8
01
 10
1495.9892448637049
 20
-1494.15953884794
 30
0.0
 11
1487.1531404497359
 21
-1502.9956432619081
 31
0.0
1001
ACAD
1010
0.0
1020
0.0
1030
0.0
  0
LINE
  5
D829
  8
01
 10
1487.1531404497359
 20
-1502.9956432619081
 30
0.0
 11
1472.4927707271679
 21
-1517.656012984477
 31
0.0
1001
ACAD
1010
0.0
1020
0.0
1030
0.0
  0
LINE
  5
D82A
  8
01
 10
1493.7441808334379
 20
-1494.15953884794
 30
0.0
 11
1487.1531404497359
 21
-1500.750579231642
 31
0.0
1001
ACAD
1010
0.0
1020
0.0
1030
0.0
  0
LINE
  5
D82B
  8
01
 10
1487.1531404497359
 20
-1500.750579231642
 30
0.0
 11
1474.440208235294
 21
-1513.4635114460841
 31
0.0
1001
ACAD
1010
0.0
1020
0.0
1030
0.0
  0
LINE
  5
D82C
  8
01
 10
1491.49911680317
 20
-1494.15953884794
 30
0.0
 11
1487.1531404497359
 21
-1498.505515201374
 31
0.0
1001
ACAD
1010
0.0
1020
0.0
1030
0.0
  0
LINE
  5
D82D
  8
01
 10
1487.1531404497359
 20
-1498.505515201374
 30
0.0
 11
1475.0362803069829
 21
-1510.6223753441279
 31
0.0
1001
ACAD
1010
0.0
1020
0.0
1030
0.0
  0
LINE
  5
D82E
  8
01
 10
1489.2540527729029
 20
-1494.15953884794
 30
0.0
 11
1487.1531404497359
 21
-1496.260451171107
 31
0.0
1001
ACAD
1010
0.0
1020
0.0
1030
0.0
  0
LINE
  5
D82F
  8
01
 10
1487.1531404497359
 20
-1496.260451171107
 30
0.0
 11
1475.1484460122599
 21
-1508.2651456085839
 31
0.0
1001
ACAD
1010
0.0
1020
0.0
1030
0.0
  0
LINE
  5
D830
  8
01
 10
1487.0089887426359
 20
-1494.15953884794
 30
0.0
 11
1474.9691772715189
 21
-1506.1993503190561
 31
0.0
1001
ACAD
1010
0.0
1020
0.0
1030
0.0
  0
LINE
  5
D831
  8
01
 10
1484.763924712368
 20
-1494.15953884794
 30
0.0
 11
1474.580114520473
 21
-1504.3433490398349
 31
0.0
1001
ACAD
1010
0.0
1020
0.0
1030
0.0
  0
LINE
  5
D832
  8
01
 10
1482.5188606821009
 20
-1494.15953884794
 30
0.0
 11
1474.0244506953261
 21
-1502.6539488347159
 31
0.0
1001
ACAD
1010
0.0
1020
0.0
1030
0.0
  0
LINE
  5
D833
  8
01
 10
1480.2737966518339
 20
-1494.15953884794
 30
0.0
 11
1473.3276592138211
 21
-1501.1056762859521
 31
0.0
1001
ACAD
1010
0.0
1020
0.0
1030
0.0
  0
LINE
  5
D834
  8
01
 10
1478.0287326215671
 20
-1494.15953884794
 30
0.0
 11
1472.5055135167649
 21
-1499.682757952741
 31
0.0
1001
ACAD
1010
0.0
1020
0.0
1030
0.0
  0
LINE
  5
D835
  8
01
 10
1475.7836685912989
 20
-1494.15953884794
 30
0.0
 11
1472.153150558991
 21
-1497.790056880249
 31
0.0
1001
ACAD
1010
0.0
1020
0.0
1030
0.0
  0
LINE
  5
D836
  8
01
 10
1473.5386045610319
 20
-1494.15953884794
 30
0.0
 11
1472.1531506571239
 21
-1495.544992751848
 31
0.0
1001
ACAD
1010
0.0
1020
0.0
1030
0.0
  0
LINE
  5
D837
  8
01
 10
1472.7694999635351
 20
-1529.1595353660009
 30
0.0
 11
1472.153149165302
 21
-1528.543184567767
 31
0.0
1001
ACAD
1010
0.0
1020
0.0
1030
0.0
  0
LINE
  5
D838
  8
01
 10
1473.4165396119099
 20
-1528.459536596215
 30
0.0
 11
1472.234844576571
 21
-1527.2778415608771
 31
0.0
1001
ACAD
1010
0.0
1020
0.0
1030
0.0
  0
LINE
  5
D839
  8
01
 10
1474.7635779711891
 20
-1528.459536537335
 30
0.0
 11
1473.4635784046211
 21
-1527.1595369707661
 31
0.0
1001
ACAD
1010
0.0
1020
0.0
1030
0.0
  0
LINE
  5
D83A
  8
01
 10
1476.110616330468
 20
-1528.4595364784529
 30
0.0
 11
1474.8106167639
 21
-1527.159536911885
 31
0.0
1001
ACAD
1010
0.0
1020
0.0
1030
0.0
  0
LINE
  5
D83B
  8
01
 10
1477.4576546897481
 20
-1528.459536419572
 30
0.0
 11
1476.157655123179
 21
-1527.1595368530041
 31
0.0
1001
ACAD
1010
0.0
1020
0.0
1030
0.0
  0
LINE
  5
D83C
  8
01
 10
1478.804693049027
 20
-1528.459536360692
 30
0.0
 11
1477.15314444295
 21
-1526.807987754614
 31
0.0
1001
ACAD
1010
0.0
1020
0.0
1030
0.0
  0
LINE
  5
D83D
  8
01
 10
1476.5046935261701
 20
-1526.1595368378339
 30
0.0
 11
1475.766644547843
 21
-1525.421487859508
 31
0.0
1001
ACAD
1010
0.0
1020
0.0
1030
0.0
  0
LINE
  5
D83E
  8
01
 10
1480.1517314083069
 20
-1528.45953630181
 30
0.0
 11
1475.7666444889619
 21
-1524.0744493824659
 31
0.0
1001
ACAD
1010
0.0
1020
0.0
1030
0.0
  0
LINE
  5
D83F
  8
01
 10
1482.1987684784899
 20
-1529.1595349538341
 30
0.0
 11
1475.7666444300801
 21
-1522.727410905424
 31
0.0
1001
ACAD
1010
0.0
1020
0.0
1030
0.0
  0
LINE
  5
D840
  8
01
 10
1482.9031445177429
 20
-1528.5168725749261
 30
0.0
 11
1480.0458077684241
 21
-1525.659535825607
 31
0.0
1001
ACAD
1010
0.0
1020
0.0
1030
0.0
  0
LINE
  5
D841
  8
01
 10
1479.6531443756089
 20
-1525.2668724327921
 30
0.0
 11
1475.7666443711989
 21
-1521.3803724283821
 31
0.0
1001
ACAD
1010
0.0
1020
0.0
1030
0.0
  0
LINE
  5
D842
  8
01
 10
1482.9031444588611
 20
-1527.1698340978839
 30
0.0
 11
1481.3928461277039
 21
-1525.659535766727
 31
0.0
1001
ACAD
1010
0.0
1020
0.0
1030
0.0
  0
LINE
  5
D843
  8
01
 10
1479.653144316728
 20
-1523.9198339557499
 30
0.0
 11
1475.766644312318
 21
-1520.03333395134
 31
0.0
1001
ACAD
1010
0.0
1020
0.0
1030
0.0
  0
LINE
  5
D844
  8
01
 10
1482.90314439998
 20
-1525.822795620843
 30
0.0
 11
1482.739884486984
 21
-1525.659535707847
 31
0.0
1001
ACAD
1010
0.0
1020
0.0
1030
0.0
  0
LINE
  5
D845
  8
01
 10
1479.6531442578471
 20
-1522.5727954787089
 30
0.0
 11
1476.7398828435309
 21
-1519.659534064393
 31
0.0
1001
ACAD
1010
0.0
1020
0.0
1030
0.0
  0
LINE
  5
D846
  8
01
 10
1479.6531441989659
 20
-1521.2257570016679
 30
0.0
 11
1478.086921202811
 21
-1519.659534005513
 31
0.0
1001
ACAD
1010
0.0
1020
0.0
1030
0.0
  0
LINE
  5
D847
  8
01
 10
1479.653144140085
 20
-1519.878718524626
 30
0.0
 11
1479.43395956209
 21
-1519.6595339466321
 31
0.0
1001
ACAD
1010
0.0
1020
0.0
1030
0.0
  0
LINE
  5
D848
  8
01
 10
1493.153151267061
 20
-1528.888597591068
 30
0.0
 11
1491.4031486202571
 21
-1527.1385949442649
 31
0.0
1001
ACAD
1010
0.0
1020
0.0
1030
0.0
  0
LINE
  5
D849
  8
01
 10
1494.969154043677
 20
-1528.4595363374181
 30
0.0
 11
1492.169153440454
 21
-1525.6595357341939
 31
0.0
1001
ACAD
1010
0.0
1020
0.0
1030
0.0
  0
LINE
  5
D84A
  8
01
 10
1497.2142181720801
 20
-1528.4595364355521
 30
0.0
 11
1494.4142175688551
 21
-1525.659535832327
 31
0.0
1001
ACAD
1010
0.0
1020
0.0
1030
0.0
  0
LINE
  5
D84B
  8
01
 10
1499.4592823004821
 20
-1528.459536533687
 30
0.0
 11
1498.1592826202641
 21
-1527.1595368534699
 31
0.0
1001
ACAD
1010
0.0
1020
0.0
1030
0.0
  0
LINE
  5
D84C
  8
01
 10
1497.1592825765531
 20
-1526.159536809758
 30
0.0
 11
1494.6531487726741
 21
-1523.653403005879
 31
0.0
1001
ACAD
1010
0.0
1020
0.0
1030
0.0
  0
LINE
  5
D84D
  8
01
 10
1502.1531438964921
 20
-1528.90833409943
 30
0.0
 11
1500.4043467486661
 21
-1527.159536951604
 31
0.0
1001
ACAD
1010
0.0
1020
0.0
1030
0.0
  0
LINE
  5
D84E
  8
01
 10
1498.5396485354479
 20
-1525.294838738386
 30
0.0
 11
1494.653148870809
 21
-1521.4083390737469
 31
0.0
1001
ACAD
1010
0.0
1020
0.0
1030
0.0
  0
LINE
  5
D84F
  8
01
 10
1498.5396486335831
 20
-1523.0497748062539
 30
0.0
 11
1495.1494077860721
 21
-1519.6595339587429
 31
0.0
1001
ACAD
1010
0.0
1020
0.0
1030
0.0
  0
LINE
  5
D850
  8
01
 10
1498.539648731718
 20
-1520.8047108741209
 30
0.0
 11
1497.394471914474
 21
-1519.6595340568781
 31
0.0
1001
ACAD
1010
0.0
1020
0.0
1030
0.0
  0
LINE
  5
D851
  8
01
 10
1494.9031409169479
 20
-1540.1480277869721
 30
0.0
 11
1493.591631678245
 21
-1541.4595370256759
 31
0.0
1001
ACAD
1010
0.0
1020
0.0
1030
0.0
  0
LINE
  5
D852
  8
01
 10
1494.9031408580679
 20
-1538.8009894276929
 30
0.0
 11
1492.2445932012031
 21
-1541.459537084557
 31
0.0
1001
ACAD
1010
0.0
1020
0.0
1030
0.0
  0
LINE
  5
D853
  8
01
 10
1494.9031407991861
 20
-1537.4539510684131
 30
0.0
 11
1491.152562182237
 21
-1541.2045296853621
 31
0.0
1001
ACAD
1010
0.0
1020
0.0
1030
0.0
  0
LINE
  5
D854
  8
01
 10
1494.9031407403049
 20
-1536.1069127091339
 30
0.0
 11
1491.1525493931781
 21
-1539.857504056261
 31
0.0
1001
ACAD
1010
0.0
1020
0.0
1030
0.0
  0
LINE
  5
D855
  8
01
 10
1494.903140681424
 20
-1534.759874349855
 30
0.0
 11
1491.1525366041189
 21
-1538.51047842716
 31
0.0
1001
ACAD
1010
0.0
1020
0.0
1030
0.0
  0
LINE
  5
D856
  8
01
 10
1494.9031406225431
 20
-1533.4128359905751
 30
0.0
 11
1491.15252381506
 21
-1537.1634527980591
 31
0.0
1001
ACAD
1010
0.0
1020
0.0
1030
0.0
  0
LINE
  5
D857
  8
01
 10
1494.903140563662
 20
-1532.0657976312959
 30
0.0
 11
1491.1525110260011
 21
-1535.8164271689559
 31
0.0
1001
ACAD
1010
0.0
1020
0.0
1030
0.0
  0
LINE
  5
D858
  8
01
 10
1494.903140504782
 20
-1530.7187592720161
 30
0.0
 11
1491.1524982369419
 21
-1534.4694015398561
 31
0.0
1001
ACAD
1010
0.0
1020
0.0
1030
0.0
  0
LINE
  5
D859
  8
01
 10
1494.815324386451
 20
-1529.459536972186
 30
0.0
 11
1491.152485447883
 21
-1533.122375910754
 31
0.0
1001
ACAD
1010
0.0
1020
0.0
1030
0.0
  0
LINE
  5
D85A
  8
01
 10
1483.1525614011839
 20
-1541.1222999574529
 30
0.0
 11
1482.8153238619129
 21
-1541.459537496725
 31
0.0
1001
ACAD
1010
0.0
1020
0.0
1030
0.0
  0
LINE
  5
D85B
  8
01
 10
1493.46828590941
 20
-1529.4595370310669
 30
0.0
 11
1491.1524726588241
 21
-1531.7753502816529
 31
0.0
1001
ACAD
1010
0.0
1020
0.0
1030
0.0
  0
LINE
  5
D85C
  8
01
 10
1483.1525486121241
 20
-1539.7752743283529
 30
0.0
 11
1481.468285384871
 21
-1541.459537555605
 31
0.0
1001
ACAD
1010
0.0
1020
0.0
1030
0.0
  0
LINE
  5
D85D
  8
01
 10
1492.1212474323679
 20
-1529.4595370899481
 30
0.0
 11
1491.1524598697649
 21
-1530.428324652552
 31
0.0
1001
ACAD
1010
0.0
1020
0.0
1030
0.0
  0
LINE
  5
D85E
  8
01
 10
1483.1525358230631
 20
-1538.4282486992529
 30
0.0
 11
1480.1212469078289
 21
-1541.4595376144871
 31
0.0
1001
ACAD
1010
0.0
1020
0.0
1030
0.0
  0
LINE
  5
D85F
  8
01
 10
1483.1525230340019
 20
-1537.081223070154
 30
0.0
 11
1479.403140946785
 21
-1540.830605157372
 31
0.0
1001
ACAD
1010
0.0
1020
0.0
1030
0.0
  0
LINE
  5
D860
  8
01
 10
1483.1525102449421
 20
-1535.734197441054
 30
0.0
 11
1479.403140887903
 21
-1539.4835667980919
 31
0.0
1001
ACAD
1010
0.0
1020
0.0
1030
0.0
  0
LINE
  5
D861
  8
01
 10
1483.152497455882
 20
-1534.3871718119531
 30
0.0
 11
1479.403140829023
 21
-1538.136528438813
 31
0.0
1001
ACAD
1010
0.0
1020
0.0
1030
0.0
  0
LINE
  5
D862
  8
01
 10
1483.152484666821
 20
-1533.0401461828551
 30
0.0
 11
1479.4031407701409
 21
-1536.7894900795329
 31
0.0
1001
ACAD
1010
0.0
1020
0.0
1030
0.0
  0
LINE
  5
D863
  8
01
 10
1483.1524718777609
 20
-1531.6931205537539
 30
0.0
 11
1479.4031407112609
 21
-1535.442451720254
 31
0.0
1001
ACAD
1010
0.0
1020
0.0
1030
0.0
  0
LINE
  5
D864
  8
01
 10
1483.1524590887011
 20
-1530.3460949246539
 30
0.0
 11
1479.40314065238
 21
-1534.0954133609739
 31
0.0
1001
ACAD
1010
0.0
1020
0.0
1030
0.0
  0
LINE
  5
D865
  8
01
 10
1482.6919780930771
 20
-1529.4595375021161
 30
0.0
 11
1479.4031405934991
 21
-1532.748375001695
 31
0.0
1001
ACAD
1010
0.0
1020
0.0
1030
0.0
  0
LINE
  5
D866
  8
01
 10
1481.3449396160361
 20
-1529.459537560997
 30
0.0
 11
1479.4031405346191
 21
-1531.4013366424149
 31
0.0
1001
ACAD
1010
0.0
1020
0.0
1030
0.0
  0
LINE
  5
D867
  8
01
 10
1479.9979011389951
 20
-1529.4595376198779
 30
0.0
 11
1479.4031404757379
 21
-1530.054298283135
 31
0.0
1001
ACAD
1010
0.0
1020
0.0
1030
0.0
  0
LINE
  5
D868
  8
01
 10
1022.769499963539
 20
-1529.1595353660009
 30
0.0
 11
1022.153149165305
 21
-1528.543184567767
 31
0.0
1001
ACAD
1010
0.0
1020
0.0
1030
0.0
  0
LINE
  5
D869
  8
01
 10
1023.416539611913
 20
-1528.459536596215
 30
0.0
 11
1022.234844576574
 21
-1527.2778415608771
 31
0.0
1001
ACAD
1010
0.0
1020
0.0
1030
0.0
  0
LINE
  5
D86A
  8
01
 10
1024.763577971192
 20
-1528.459536537335
 30
0.0
 11
1023.4635784046239
 21
-1527.1595369707661
 31
0.0
1001
ACAD
1010
0.0
1020
0.0
1030
0.0
  0
LINE
  5
D86B
  8
01
 10
1026.1106163304721
 20
-1528.4595364784529
 30
0.0
 11
1024.8106167639039
 21
-1527.159536911885
 31
0.0
1001
ACAD
1010
0.0
1020
0.0
1030
0.0
  0
LINE
  5
D86C
  8
01
 10
1027.4576546897511
 20
-1528.459536419572
 30
0.0
 11
1026.1576551231831
 21
-1527.1595368530041
 31
0.0
1001
ACAD
1010
0.0
1020
0.0
1030
0.0
  0
LINE
  5
D86D
  8
01
 10
1028.8046930490309
 20
-1528.459536360692
 30
0.0
 11
1027.1531444429529
 21
-1526.807987754614
 31
0.0
1001
ACAD
1010
0.0
1020
0.0
1030
0.0
  0
LINE
  5
D86E
  8
01
 10
1026.5046935261739
 20
-1526.159536837835
 30
0.0
 11
1025.7666445478469
 21
-1525.421487859508
 31
0.0
1001
ACAD
1010
0.0
1020
0.0
1030
0.0
  0
LINE
  5
D86F
  8
01
 10
1030.1517314083101
 20
-1528.45953630181
 30
0.0
 11
1025.7666444889651
 21
-1524.0744493824659
 31
0.0
1001
ACAD
1010
0.0
1020
0.0
1030
0.0
  0
LINE
  5
D870
  8
01
 10
1032.198768478494
 20
-1529.1595349538341
 30
0.0
 11
1025.7666444300839
 21
-1522.727410905424
 31
0.0
1001
ACAD
1010
0.0
1020
0.0
1030
0.0
  0
LINE
  5
D871
  8
01
 10
1032.9031445177459
 20
-1528.5168725749261
 30
0.0
 11
1030.0458077684279
 21
-1525.659535825607
 31
0.0
1001
ACAD
1010
0.0
1020
0.0
1030
0.0
  0
LINE
  5
D872
  8
01
 10
1029.653144375613
 20
-1525.2668724327921
 30
0.0
 11
1025.766644371203
 21
-1521.3803724283821
 31
0.0
1001
ACAD
1010
0.0
1020
0.0
1030
0.0
  0
LINE
  5
D873
  8
01
 10
1032.903144458865
 20
-1527.1698340978839
 30
0.0
 11
1031.392846127708
 21
-1525.659535766727
 31
0.0
1001
ACAD
1010
0.0
1020
0.0
1030
0.0
  0
LINE
  5
D874
  8
01
 10
1029.653144316731
 20
-1523.9198339557499
 30
0.0
 11
1025.766644312321
 21
-1520.03333395134
 31
0.0
1001
ACAD
1010
0.0
1020
0.0
1030
0.0
  0
LINE
  5
D875
  8
01
 10
1032.9031443999841
 20
-1525.822795620843
 30
0.0
 11
1032.7398844869881
 21
-1525.659535707847
 31
0.0
1001
ACAD
1010
0.0
1020
0.0
1030
0.0
  0
LINE
  5
D876
  8
01
 10
1029.65314425785
 20
-1522.5727954787089
 30
0.0
 11
1026.739882843535
 21
-1519.659534064393
 31
0.0
1001
ACAD
1010
0.0
1020
0.0
1030
0.0
  0
LINE
  5
D877
  8
01
 10
1029.6531441989689
 20
-1521.2257570016679
 30
0.0
 11
1028.086921202814
 21
-1519.659534005513
 31
0.0
1001
ACAD
1010
0.0
1020
0.0
1030
0.0
  0
LINE
  5
D878
  8
01
 10
1029.653144140088
 20
-1519.878718524626
 30
0.0
 11
1029.4339595620941
 21
-1519.6595339466321
 31
0.0
1001
ACAD
1010
0.0
1020
0.0
1030
0.0
  0
LINE
  5
D879
  8
01
 10
1045.1531404497409
 20
-1569.163439350308
 30
0.0
 11
1041.6675304952321
 21
-1572.649049304817
 31
0.0
1001
ACAD
1010
0.0
1020
0.0
1030
0.0
  0
LINE
  5
D87A
  8
01
 10
1045.1531404497409
 20
-1566.9183753200409
 30
0.0
 11
1041.152572204194
 21
-1570.9189435655881
 31
0.0
1001
ACAD
1010
0.0
1020
0.0
1030
0.0
  0
LINE
  5
D87B
  8
01
 10
1045.1531404497409
 20
-1564.673311289773
 30
0.0
 11
1041.1525722041929
 21
-1568.673879535321
 31
0.0
1001
ACAD
1010
0.0
1020
0.0
1030
0.0
  0
LINE
  5
D87C
  8
01
 10
1045.1531404497409
 20
-1562.428247259506
 30
0.0
 11
1041.1528016668799
 21
-1566.428586042367
 31
0.0
1001
ACAD
1010
0.0
1020
0.0
1030
0.0
  0
LINE
  5
D87D
  8
01
 10
1045.1531404497409
 20
-1560.1831832292389
 30
0.0
 11
1041.1527803517811
 21
-1564.1835433271981
 31
0.0
1001
ACAD
1010
0.0
1020
0.0
1030
0.0
  0
LINE
  5
D87E
  8
01
 10
1052.1531404497439
 20
-1550.9381191989689
 30
0.0
 11
1050.331721429633
 21
-1552.75953821908
 31
0.0
1001
ACAD
1010
0.0
1020
0.0
1030
0.0
  0
LINE
  5
D87F
  8
01
 10
1033.7837933179189
 20
-1569.3074663307941
 30
0.0
 11
1032.213288314792
 21
-1570.8779713339211
 31
0.0
1001
ACAD
1010
0.0
1020
0.0
1030
0.0
  0
LINE
  5
D880
  8
01
 10
1045.1531404497421
 20
-1557.938119198971
 30
0.0
 11
1041.1527590366829
 21
-1561.9385006120301
 31
0.0
1001
ACAD
1010
0.0
1020
0.0
1030
0.0
  0
LINE
  5
D881
  8
01
 10
1052.1531404497439
 20
-1548.693055168701
 30
0.0
 11
1048.0866573012349
 21
-1552.7595383172111
 31
0.0
1001
ACAD
1010
0.0
1020
0.0
1030
0.0
  0
LINE
  5
D882
  8
01
 10
1033.152813674913
 20
-1567.6933819435319
 30
0.0
 11
1029.1531404497409
 21
-1571.6930551687039
 31
0.0
1001
ACAD
1010
0.0
1020
0.0
1030
0.0
  0
LINE
  5
D883
  8
01
 10
1045.1531404497421
 20
-1555.693055168703
 30
0.0
 11
1041.1527377215839
 21
-1559.693457896861
 31
0.0
1001
ACAD
1010
0.0
1020
0.0
1030
0.0
  0
LINE
  5
D884
  8
01
 10
1052.1531404497439
 20
-1546.447991138434
 30
0.0
 11
1041.152716406486
 21
-1557.4484151816921
 31
0.0
1001
ACAD
1010
0.0
1020
0.0
1030
0.0
  0
LINE
  5
D885
  8
01
 10
1033.152792359813
 20
-1565.448339228366
 30
0.0
 11
1029.1531404497409
 21
-1569.4479911384369
 31
0.0
1001
ACAD
1010
0.0
1020
0.0
1030
0.0
  0
LINE
  5
D886
  8
01
 10
1052.1531404497439
 20
-1544.2029271081669
 30
0.0
 11
1041.1526950913869
 21
-1555.203372466523
 31
0.0
1001
ACAD
1010
0.0
1020
0.0
1030
0.0
  0
LINE
  5
D887
  8
01
 10
1033.1527710447119
 20
-1563.2032965131989
 30
0.0
 11
1029.1531404497409
 21
-1567.202927108169
 31
0.0
1001
ACAD
1010
0.0
1020
0.0
1030
0.0
  0
LINE
  5
D888
  8
01
 10
1052.1531404497439
 20
-1541.9578630778999
 30
0.0
 11
1041.152673776289
 21
-1552.958329751355
 31
0.0
1001
ACAD
1010
0.0
1020
0.0
1030
0.0
  0
LINE
  5
D889
  8
01
 10
1033.1527497296111
 20
-1560.958253798033
 30
0.0
 11
1029.1531404497409
 21
-1564.9578630779031
 31
0.0
1001
ACAD
1010
0.0
1020
0.0
1030
0.0
  0
LINE
  5
D88A
  8
01
 10
1049.4064012378719
 20
-1542.4595382595039
 30
0.0
 11
1041.15265246119
 21
-1550.7132870361861
 31
0.0
1001
ACAD
1010
0.0
1020
0.0
1030
0.0
  0
LINE
  5
D88B
  8
01
 10
1033.15272841451
 20
-1558.7132110828661
 30
0.0
 11
1029.1531404497409
 21
-1562.7127990476349
 31
0.0
1001
ACAD
1010
0.0
1020
0.0
1030
0.0
  0
LINE
  5
D88C
  8
01
 10
1047.1613371094691
 20
-1542.45953835764
 30
0.0
 11
1041.1526311460921
 21
-1548.468244321017
 31
0.0
1001
ACAD
1010
0.0
1020
0.0
1030
0.0
  0
LINE
  5
D88D
  8
01
 10
1033.1527070994091
 20
-1556.4681683676999
 30
0.0
 11
1029.1531404497409
 21
-1560.4677350173681
 31
0.0
1001
ACAD
1010
0.0
1020
0.0
1030
0.0
  0
LINE
  5
D88E
  8
01
 10
1044.9162729810671
 20
-1542.4595384557749
 30
0.0
 11
1041.152609830993
 21
-1546.2232016058481
 31
0.0
1001
ACAD
1010
0.0
1020
0.0
1030
0.0
  0
LINE
  5
D88F
  8
01
 10
1033.152685784308
 20
-1554.2231256525331
 30
0.0
 11
1029.15314044974
 21
-1558.2226709871011
 31
0.0
1001
ACAD
1010
0.0
1020
0.0
1030
0.0
  0
LINE
  5
D890
  8
01
 10
1043.1531404592761
 20
-1541.977606947298
 30
0.0
 11
1041.1525885158951
 21
-1543.9781588906801
 31
0.0
1001
ACAD
1010
0.0
1020
0.0
1030
0.0
  0
LINE
  5
D891
  8
01
 10
1033.1526644692069
 20
-1551.9780829373669
 30
0.0
 11
1029.15314044974
 21
-1555.9776069568341
 31
0.0
1001
ACAD
1010
0.0
1020
0.0
1030
0.0
  0
LINE
  5
D892
  8
01
 10
1033.152643154107
 20
-1549.733040222201
 30
0.0
 11
1028.967541371657
 21
-1553.9181420046509
 31
0.0
1001
ACAD
1010
0.0
1020
0.0
1030
0.0
  0
LINE
  5
D893
  8
01
 10
1033.1526218390061
 20
-1547.4879975070339
 30
0.0
 11
1027.780227705244
 21
-1552.860391640796
 31
0.0
1001
ACAD
1010
0.0
1020
0.0
1030
0.0
  0
LINE
  5
D894
  8
01
 10
1033.152600523905
 20
-1545.2429547918671
 30
0.0
 11
1025.636016017246
 21
-1552.7595392985261
 31
0.0
1001
ACAD
1010
0.0
1020
0.0
1030
0.0
  0
LINE
  5
D895
  8
01
 10
1033.1525792088039
 20
-1542.9979120767009
 30
0.0
 11
1023.390951888846
 21
-1552.759539396659
 31
0.0
1001
ACAD
1010
0.0
1020
0.0
1030
0.0
  0
LINE
  5
D896
  8
01
 10
1032.1458882412639
 20
-1541.7595390139741
 30
0.0
 11
1022.153140449742
 21
-1551.7522868054959
 31
0.0
1001
ACAD
1010
0.0
1020
0.0
1030
0.0
  0
LINE
  5
D897
  8
01
 10
1029.2008240822511
 20
-1542.459539142719
 30
0.0
 11
1022.153140449742
 21
-1549.5072227752289
 31
0.0
1001
ACAD
1010
0.0
1020
0.0
1030
0.0
  0
LINE
  5
D898
  8
01
 10
1026.95575995385
 20
-1542.4595392408539
 30
0.0
 11
1022.153140449742
 21
-1547.262158744961
 31
0.0
1001
ACAD
1010
0.0
1020
0.0
1030
0.0
  0
LINE
  5
D899
  8
01
 10
1024.7106958254469
 20
-1542.459539338988
 30
0.0
 11
1022.153140449742
 21
-1545.0170947146939
 31
0.0
1001
ACAD
1010
0.0
1020
0.0
1030
0.0
  0
LINE
  5
D89A
  8
01
 10
1023.15314045029
 20
-1541.7720306838789
 30
0.0
 11
1022.153140449742
 21
-1542.7720306844269
 31
0.0
1001
ACAD
1010
0.0
1020
0.0
1030
0.0
  0
LINE
  5
D89B
  8
01
 10
1044.9031409169511
 20
-1540.148027786973
 30
0.0
 11
1043.5916316782479
 21
-1541.4595370256759
 31
0.0
1001
ACAD
1010
0.0
1020
0.0
1030
0.0
  0
LINE
  5
D89C
  8
01
 10
1044.9031408580699
 20
-1538.8009894276929
 30
0.0
 11
1042.244593201207
 21
-1541.459537084557
 31
0.0
1001
ACAD
1010
0.0
1020
0.0
1030
0.0
  0
LINE
  5
D89D
  8
01
 10
1044.903140799189
 20
-1537.453951068414
 30
0.0
 11
1041.1525621822391
 21
-1541.2045296853639
 31
0.0
1001
ACAD
1010
0.0
1020
0.0
1030
0.0
  0
LINE
  5
D89E
  8
01
 10
1044.903140740309
 20
-1536.1069127091339
 30
0.0
 11
1041.1525493931811
 21
-1539.8575040562621
 31
0.0
1001
ACAD
1010
0.0
1020
0.0
1030
0.0
  0
LINE
  5
D89F
  8
01
 10
1044.9031406814281
 20
-1534.759874349855
 30
0.0
 11
1041.152536604121
 21
-1538.5104784271609
 31
0.0
1001
ACAD
1010
0.0
1020
0.0
1030
0.0
  0
LINE
  5
D8A0
  8
01
 10
1044.903140622547
 20
-1533.4128359905751
 30
0.0
 11
1041.1525238150621
 21
-1537.16345279806
 31
0.0
1001
ACAD
1010
0.0
1020
0.0
1030
0.0
  0
LINE
  5
D8A1
  8
01
 10
1044.9031405636661
 20
-1532.0657976312959
 30
0.0
 11
1041.152511026004
 21
-1535.8164271689579
 31
0.0
1001
ACAD
1010
0.0
1020
0.0
1030
0.0
  0
LINE
  5
D8A2
  8
01
 10
1044.9031405047849
 20
-1530.7187592720161
 30
0.0
 11
1041.1524982369449
 21
-1534.469401539857
 31
0.0
1001
ACAD
1010
0.0
1020
0.0
1030
0.0
  0
LINE
  5
D8A3
  8
01
 10
1044.815324386454
 20
-1529.4595369721869
 30
0.0
 11
1041.1524854478851
 21
-1533.122375910755
 31
0.0
1001
ACAD
1010
0.0
1020
0.0
1030
0.0
  0
LINE
  5
D8A4
  8
01
 10
1033.152561401188
 20
-1541.1222999574529
 30
0.0
 11
1032.8153238619161
 21
-1541.459537496725
 31
0.0
1001
ACAD
1010
0.0
1020
0.0
1030
0.0
  0
LINE
  5
D8A5
  8
01
 10
1043.468285909413
 20
-1529.4595370310669
 30
0.0
 11
1041.152472658827
 21
-1531.775350281654
 31
0.0
1001
ACAD
1010
0.0
1020
0.0
1030
0.0
  0
LINE
  5
D8A6
  8
01
 10
1033.1525486121279
 20
-1539.7752743283529
 30
0.0
 11
1031.4682853848749
 21
-1541.459537555605
 31
0.0
1001
ACAD
1010
0.0
1020
0.0
1030
0.0
  0
LINE
  5
D8A7
  8
01
 10
1042.1212474323711
 20
-1529.4595370899481
 30
0.0
 11
1041.1524598697681
 21
-1530.428324652552
 31
0.0
1001
ACAD
1010
0.0
1020
0.0
1030
0.0
  0
LINE
  5
D8A8
  8
01
 10
1033.152535823066
 20
-1538.4282486992529
 30
0.0
 11
1030.121246907833
 21
-1541.4595376144871
 31
0.0
1001
ACAD
1010
0.0
1020
0.0
1030
0.0
  0
LINE
  5
D8A9
  8
01
 10
1033.152523034006
 20
-1537.081223070154
 30
0.0
 11
1029.4031409467871
 21
-1540.830605157372
 31
0.0
1001
ACAD
1010
0.0
1020
0.0
1030
0.0
  0
LINE
  5
D8AA
  8
01
 10
1033.152510244945
 20
-1535.734197441054
 30
0.0
 11
1029.4031408879071
 21
-1539.4835667980919
 31
0.0
1001
ACAD
1010
0.0
1020
0.0
1030
0.0
  0
LINE
  5
D8AB
  8
01
 10
1033.1524974558849
 20
-1534.387171811954
 30
0.0
 11
1029.4031408290259
 21
-1538.136528438813
 31
0.0
1001
ACAD
1010
0.0
1020
0.0
1030
0.0
  0
LINE
  5
D8AC
  8
01
 10
1033.152484666824
 20
-1533.0401461828551
 30
0.0
 11
1029.403140770145
 21
-1536.7894900795341
 31
0.0
1001
ACAD
1010
0.0
1020
0.0
1030
0.0
  0
LINE
  5
D8AD
  8
01
 10
1033.152471877763
 20
-1531.6931205537539
 30
0.0
 11
1029.403140711265
 21
-1535.4424517202531
 31
0.0
1001
ACAD
1010
0.0
1020
0.0
1030
0.0
  0
LINE
  5
D8AE
  8
01
 10
1033.1524590887029
 20
-1530.3460949246551
 30
0.0
 11
1029.4031406523841
 21
-1534.0954133609739
 31
0.0
1001
ACAD
1010
0.0
1020
0.0
1030
0.0
  0
LINE
  5
D8AF
  8
01
 10
1032.6919780930809
 20
-1529.4595375021161
 30
0.0
 11
1029.4031405935029
 21
-1532.7483750016941
 31
0.0
1001
ACAD
1010
0.0
1020
0.0
1030
0.0
  0
LINE
  5
D8B0
  8
01
 10
1031.3449396160399
 20
-1529.459537560997
 30
0.0
 11
1029.4031405346229
 21
-1531.4013366424149
 31
0.0
1001
ACAD
1010
0.0
1020
0.0
1030
0.0
  0
LINE
  5
D8B1
  8
01
 10
1029.997901138998
 20
-1529.459537619879
 30
0.0
 11
1029.403140475742
 21
-1530.054298283135
 31
0.0
1001
ACAD
1010
0.0
1020
0.0
1030
0.0
  0
LINE
  5
D8B2
  8
01
 10
1052.153148663044
 20
-1526.1628279500781
 30
0.0
 11
1051.1564423993741
 21
-1527.159534213748
 31
0.0
1001
ACAD
1010
0.0
1020
0.0
1030
0.0
  0
LINE
  5
D8B3
  8
01
 10
1052.153148702298
 20
-1525.2648022987171
 30
0.0
 11
1050.258416835055
 21
-1527.1595341659599
 31
0.0
1001
ACAD
1010
0.0
1020
0.0
1030
0.0
  0
LINE
  5
D8B4
  8
01
 10
1052.1531487415521
 20
-1524.3667766473559
 30
0.0
 11
1049.5067699437029
 21
-1527.013155445205
 31
0.0
1001
ACAD
1010
0.0
1020
0.0
1030
0.0
  0
LINE
  5
D8B5
  8
01
 10
1052.1531487808061
 20
-1523.4687509959961
 30
0.0
 11
1049.153148649709
 21
-1526.468751127092
 31
0.0
1001
ACAD
1010
0.0
1020
0.0
1030
0.0
  0
LINE
  5
D8B6
  8
01
 10
1052.1531488200601
 20
-1522.5707253446351
 30
0.0
 11
1049.1531486889639
 21
-1525.570725475731
 31
0.0
1001
ACAD
1010
0.0
1020
0.0
1030
0.0
  0
LINE
  5
D8B7
  8
01
 10
1052.153148859313
 20
-1521.6726996932739
 30
0.0
 11
1049.153148728217
 21
-1524.6726998243701
 31
0.0
1001
ACAD
1010
0.0
1020
0.0
1030
0.0
  0
LINE
  5
D8B8
  8
01
 10
1052.153148898567
 20
-1520.7746740419129
 30
0.0
 11
1049.1531487674711
 21
-1523.7746741730091
 31
0.0
1001
ACAD
1010
0.0
1020
0.0
1030
0.0
  0
LINE
  5
D8B9
  8
01
 10
1052.153148937821
 20
-1519.876648390552
 30
0.0
 11
1049.1531488067251
 21
-1522.876648521649
 31
0.0
1001
ACAD
1010
0.0
1020
0.0
1030
0.0
  0
LINE
  5
D8BA
  8
01
 10
1052.1531489770759
 20
-1518.978622739191
 30
0.0
 11
1049.1531488459791
 21
-1521.9786228702881
 31
0.0
1001
ACAD
1010
0.0
1020
0.0
1030
0.0
  0
LINE
  5
D8BB
  8
01
 10
1052.15314901633
 20
-1518.08059708783
 30
0.0
 11
1049.1531488852329
 21
-1521.0805972189271
 31
0.0
1001
ACAD
1010
0.0
1020
0.0
1030
0.0
  0
LINE
  5
D8BC
  8
01
 10
1052.1531490555831
 20
-1517.18257143647
 30
0.0
 11
1049.153148924486
 21
-1520.1825715675659
 31
0.0
1001
ACAD
1010
0.0
1020
0.0
1030
0.0
  0
LINE
  5
D8BD
  8
01
 10
1051.9656540069921
 20
-1516.472040872954
 30
0.0
 11
1049.15314896374
 21
-1519.2845459162061
 31
0.0
1001
ACAD
1010
0.0
1020
0.0
1030
0.0
  0
LINE
  5
D8BE
  8
01
 10
1051.5166412205649
 20
-1516.023028047274
 30
0.0
 11
1049.153149002994
 21
-1518.3865202648451
 31
0.0
1001
ACAD
1010
0.0
1020
0.0
1030
0.0
  0
LINE
  5
D8BF
  8
01
 10
1050.982107746122
 20
-1515.65953590961
 30
0.0
 11
1049.1531490422481
 21
-1517.4884946134839
 31
0.0
1001
ACAD
1010
0.0
1020
0.0
1030
0.0
  0
LINE
  5
D8C0
  8
01
 10
1050.0840821732691
 20
-1515.6595358703571
 30
0.0
 11
1048.5840839347479
 21
-1517.159534108878
 31
0.0
1001
ACAD
1010
0.0
1020
0.0
1030
0.0
  0
LINE
  5
D8C1
  8
01
 10
1049.1860566004159
 20
-1515.6595358311019
 30
0.0
 11
1047.686058361895
 21
-1517.159534069624
 31
0.0
1001
ACAD
1010
0.0
1020
0.0
1030
0.0
  0
LINE
  5
D8C2
  8
01
 10
1048.288031027563
 20
-1515.6595357918479
 30
0.0
 11
1046.7880327890409
 21
-1517.15953403037
 31
0.0
1001
ACAD
1010
0.0
1020
0.0
1030
0.0
  0
LINE
  5
D8C3
  8
01
 10
1047.39000545471
 20
-1515.659535752595
 30
0.0
 11
1045.8900072161889
 21
-1517.159533991115
 31
0.0
1001
ACAD
1010
0.0
1020
0.0
1030
0.0
  0
LINE
  5
D8C4
  8
01
 10
1046.491979881856
 20
-1515.659535713341
 30
0.0
 11
1044.991981643336
 21
-1517.159533951861
 31
0.0
1001
ACAD
1010
0.0
1020
0.0
1030
0.0
  0
LINE
  5
D8C5
  8
01
 10
1045.5939543090039
 20
-1515.659535674087
 30
0.0
 11
1044.093956070483
 21
-1517.1595339126079
 31
0.0
1001
ACAD
1010
0.0
1020
0.0
1030
0.0
  0
LINE
  5
D8C6
  8
01
 10
1044.695928736151
 20
-1515.659535634833
 30
0.0
 11
1043.1959304976299
 21
-1517.1595338733539
 31
0.0
1001
ACAD
1010
0.0
1020
0.0
1030
0.0
  0
LINE
  5
D8C7
  8
01
 10
1043.7979031632981
 20
-1515.659535595579
 30
0.0
 11
1042.297904924777
 21
-1517.1595338341001
 31
0.0
1001
ACAD
1010
0.0
1020
0.0
1030
0.0
  0
LINE
  5
D8C8
  8
01
 10
1042.8998775904449
 20
-1515.659535556325
 30
0.0
 11
1041.399879351924
 21
-1517.1595337948461
 31
0.0
1001
ACAD
1010
0.0
1020
0.0
1030
0.0
  0
LINE
  5
D8C9
  8
01
 10
1042.001852017592
 20
-1515.6595355170709
 30
0.0
 11
1040.5018537790711
 21
-1517.1595337555921
 31
0.0
1001
ACAD
1010
0.0
1020
0.0
1030
0.0
  0
LINE
  5
D8CA
  8
01
 10
1041.1038264447379
 20
-1515.6595354778181
 30
0.0
 11
1039.6038282062179
 21
-1517.159533716338
 31
0.0
1001
ACAD
1010
0.0
1020
0.0
1030
0.0
  0
LINE
  5
D8CB
  8
01
 10
1040.2058008718859
 20
-1515.659535438564
 30
0.0
 11
1038.705802633365
 21
-1517.159533677084
 31
0.0
1001
ACAD
1010
0.0
1020
0.0
1030
0.0
  0
LINE
  5
D8CC
  8
01
 10
1039.307775299033
 20
-1515.65953539931
 30
0.0
 11
1037.8077770605121
 21
-1517.15953363783
 31
0.0
1001
ACAD
1010
0.0
1020
0.0
1030
0.0
  0
LINE
  5
D8CD
  8
01
 10
1038.4097497261801
 20
-1515.659535360056
 30
0.0
 11
1036.9097514876589
 21
-1517.159533598576
 31
0.0
1001
ACAD
1010
0.0
1020
0.0
1030
0.0
  0
LINE
  5
D8CE
  8
01
 10
1037.511724153326
 20
-1515.659535320802
 30
0.0
 11
1036.011725914806
 21
-1517.159533559322
 31
0.0
1001
ACAD
1010
0.0
1020
0.0
1030
0.0
  0
LINE
  5
D8CF
  8
01
 10
1036.613698580474
 20
-1515.659535281548
 30
0.0
 11
1035.1137003419531
 21
-1517.159533520068
 31
0.0
1001
ACAD
1010
0.0
1020
0.0
1030
0.0
  0
LINE
  5
D8D0
  8
01
 10
1035.715673007621
 20
-1515.6595352422939
 30
0.0
 11
1034.2156747690999
 21
-1517.1595334808139
 31
0.0
1001
ACAD
1010
0.0
1020
0.0
1030
0.0
  0
LINE
  5
D8D1
  8
01
 10
1025.1531486604929
 20
-1526.2220595894221
 30
0.0
 11
1024.2156751885159
 21
-1527.159533061398
 31
0.0
1001
ACAD
1010
0.0
1020
0.0
1030
0.0
  0
LINE
  5
D8D2
  8
01
 10
1034.8176474347681
 20
-1515.6595352030399
 30
0.0
 11
1033.317649196247
 21
-1517.1595334415599
 31
0.0
1001
ACAD
1010
0.0
1020
0.0
1030
0.0
  0
LINE
  5
D8D3
  8
01
 10
1025.1531486997469
 20
-1525.3240339380609
 30
0.0
 11
1023.317649624197
 21
-1527.1595330136111
 31
0.0
1001
ACAD
1010
0.0
1020
0.0
1030
0.0
  0
LINE
  5
D8D4
  8
01
 10
1033.9196218619149
 20
-1515.6595351637859
 30
0.0
 11
1032.419623623395
 21
-1517.1595334023059
 31
0.0
1001
ACAD
1010
0.0
1020
0.0
1030
0.0
  0
LINE
  5
D8D5
  8
01
 10
1025.1531487390009
 20
-1524.4260082867011
 30
0.0
 11
1022.419624059877
 21
-1527.159532965823
 31
0.0
1001
ACAD
1010
0.0
1020
0.0
1030
0.0
  0
LINE
  5
D8D6
  8
01
 10
1033.021596289062
 20
-1515.6595351245321
 30
0.0
 11
1031.521598050542
 21
-1517.1595333630521
 31
0.0
1001
ACAD
1010
0.0
1020
0.0
1030
0.0
  0
LINE
  5
D8D7
  8
01
 10
1025.153148778254
 20
-1523.5279826353401
 30
0.0
 11
1022.1531486471559
 21
-1526.527982766439
 31
0.0
1001
ACAD
1010
0.0
1020
0.0
1030
0.0
  0
LINE
  5
D8D8
  8
01
 10
1032.1235707162091
 20
-1515.6595350852781
 30
0.0
 11
1030.6235724776891
 21
-1517.159533323799
 31
0.0
1001
ACAD
1010
0.0
1020
0.0
1030
0.0
  0
LINE
  5
D8D9
  8
01
 10
1025.1531488175081
 20
-1522.629956983978
 30
0.0
 11
1022.1531486864091
 21
-1525.629957115078
 31
0.0
1001
ACAD
1010
0.0
1020
0.0
1030
0.0
  0
LINE
  5
D8DA
  8
01
 10
1031.2255451433559
 20
-1515.6595350460241
 30
0.0
 11
1029.7255469048359
 21
-1517.1595332845441
 31
0.0
1001
ACAD
1010
0.0
1020
0.0
1030
0.0
  0
LINE
  5
D8DB
  8
01
 10
1025.1531488567621
 20
-1521.7319313326179
 30
0.0
 11
1022.153148725663
 21
-1524.731931463717
 31
0.0
1001
ACAD
1010
0.0
1020
0.0
1030
0.0
  0
LINE
  5
D8DC
  8
01
 10
1030.327519570503
 20
-1515.6595350067701
 30
0.0
 11
1028.827521331983
 21
-1517.15953324529
 31
0.0
1001
ACAD
1010
0.0
1020
0.0
1030
0.0
  0
LINE
  5
D8DD
  8
01
 10
1025.1531488960161
 20
-1520.833905681257
 30
0.0
 11
1022.153148764917
 21
-1523.8339058123561
 31
0.0
1001
ACAD
1010
0.0
1020
0.0
1030
0.0
  0
LINE
  5
D8DE
  8
01
 10
1029.4294939976501
 20
-1515.659534967516
 30
0.0
 11
1027.9294957591301
 21
-1517.159533206036
 31
0.0
1001
ACAD
1010
0.0
1020
0.0
1030
0.0
  0
LINE
  5
D8DF
  8
01
 10
1025.153148935269
 20
-1519.9358800298969
 30
0.0
 11
1022.15314880417
 21
-1522.935880160996
 31
0.0
1001
ACAD
1010
0.0
1020
0.0
1030
0.0
  0
LINE
  5
D8E0
  8
01
 10
1028.5314684247969
 20
-1515.659534928262
 30
0.0
 11
1027.0314701862769
 21
-1517.1595331667829
 31
0.0
1001
ACAD
1010
0.0
1020
0.0
1030
0.0
  0
LINE
  5
D8E1
  8
01
 10
1025.153148974523
 20
-1519.0378543785359
 30
0.0
 11
1022.153148843424
 21
-1522.0378545096351
 31
0.0
1001
ACAD
1010
0.0
1020
0.0
1030
0.0
  0
LINE
  5
D8E2
  8
01
 10
1027.633442851944
 20
-1515.6595348890089
 30
0.0
 11
1026.133444613424
 21
-1517.159533127528
 31
0.0
1001
ACAD
1010
0.0
1020
0.0
1030
0.0
  0
LINE
  5
D8E3
  8
01
 10
1025.153149013777
 20
-1518.139828727175
 30
0.0
 11
1022.153148882678
 21
-1521.139828858275
 31
0.0
1001
ACAD
1010
0.0
1020
0.0
1030
0.0
  0
LINE
  5
D8E4
  8
01
 10
1026.7354172790911
 20
-1515.6595348497549
 30
0.0
 11
1025.2354190405711
 21
-1517.1595330882751
 31
0.0
1001
ACAD
1010
0.0
1020
0.0
1030
0.0
  0
LINE
  5
D8E5
  8
01
 10
1025.153149053031
 20
-1517.241803075814
 30
0.0
 11
1022.153148921932
 21
-1520.241803206914
 31
0.0
1001
ACAD
1010
0.0
1020
0.0
1030
0.0
  0
LINE
  5
D8E6
  8
01
 10
1025.8373917062379
 20
-1515.6595348105011
 30
0.0
 11
1022.153148961185
 21
-1519.3437775555531
 31
0.0
1001
ACAD
1010
0.0
1020
0.0
1030
0.0
  0
LINE
  5
D8E7
  8
01
 10
1024.939366133385
 20
-1515.6595347712471
 30
0.0
 11
1022.15314900044
 21
-1518.4457519041921
 31
0.0
1001
ACAD
1010
0.0
1020
0.0
1030
0.0
  0
LINE
  5
D8E8
  8
01
 10
1024.041340560532
 20
-1515.6595347319931
 30
0.0
 11
1022.1531490396929
 21
-1517.547726252832
 31
0.0
1001
ACAD
1010
0.0
1020
0.0
1030
0.0
  0
LINE
  5
D8E9
  8
01
 10
1043.153151267064
 20
-1528.888597591068
 30
0.0
 11
1041.4031486202609
 21
-1527.1385949442649
 31
0.0
1001
ACAD
1010
0.0
1020
0.0
1030
0.0
  0
LINE
  5
D8EA
  8
01
 10
1044.9691540436811
 20
-1528.4595363374181
 30
0.0
 11
1042.1691534404581
 21
-1525.6595357341939
 31
0.0
1001
ACAD
1010
0.0
1020
0.0
1030
0.0
  0
LINE
  5
D8EB
  8
01
 10
1047.2142181720831
 20
-1528.4595364355521
 30
0.0
 11
1044.414217568858
 21
-1525.659535832327
 31
0.0
1001
ACAD
1010
0.0
1020
0.0
1030
0.0
  0
LINE
  5
D8EC
  8
01
 10
1049.4592823004859
 20
-1528.459536533687
 30
0.0
 11
1048.159282620268
 21
-1527.159536853469
 31
0.0
1001
ACAD
1010
0.0
1020
0.0
1030
0.0
  0
LINE
  5
D8ED
  8
01
 10
1047.159282576557
 20
-1526.159536809758
 30
0.0
 11
1044.653148772677
 21
-1523.653403005879
 31
0.0
1001
ACAD
1010
0.0
1020
0.0
1030
0.0
  0
LINE
  5
D8EE
  8
01
 10
1052.1531438964951
 20
-1528.90833409943
 30
0.0
 11
1050.4043467486699
 21
-1527.159536951604
 31
0.0
1001
ACAD
1010
0.0
1020
0.0
1030
0.0
  0
LINE
  5
D8EF
  8
01
 10
1048.5396485354511
 20
-1525.294838738386
 30
0.0
 11
1044.6531488708119
 21
-1521.4083390737469
 31
0.0
1001
ACAD
1010
0.0
1020
0.0
1030
0.0
  0
LINE
  5
D8F0
  8
01
 10
1048.539648633586
 20
-1523.0497748062539
 30
0.0
 11
1045.149407786075
 21
-1519.6595339587429
 31
0.0
1001
ACAD
1010
0.0
1020
0.0
1030
0.0
  0
LINE
  5
D8F1
  8
01
 10
1048.5396487317209
 20
-1520.8047108741209
 30
0.0
 11
1047.3944719144779
 21
-1519.6595340568781
 31
0.0
1001
ACAD
1010
0.0
1020
0.0
1030
0.0
  0
LINE
  5
D8F2
  8
01
 10
1510.38219036082
 20
-1583.959564858437
 30
0.0
 11
1512.15314044974
 21
-1585.7305149473571
 31
0.0
1001
ACAD
1010
0.0
1020
0.0
1030
0.0
  0
LINE
  5
D8F3
  8
01
 10
1508.137126330553
 20
-1583.959564858437
 30
0.0
 11
1512.1531404497409
 21
-1587.9755789776241
 31
0.0
1001
ACAD
1010
0.0
1020
0.0
1030
0.0
  0
LINE
  5
D8F4
  8
01
 10
1505.8920623002859
 20
-1583.959564858437
 30
0.0
 11
1512.15314044974
 21
-1590.2206430078911
 31
0.0
1001
ACAD
1010
0.0
1020
0.0
1030
0.0
  0
LINE
  5
D8F5
  8
01
 10
1503.6469982700189
 20
-1583.959564858437
 30
0.0
 11
1512.1531404497409
 21
-1592.4657070381591
 31
0.0
1001
ACAD
1010
0.0
1020
0.0
1030
0.0
  0
LINE
  5
D8F6
  8
01
 10
1501.401934239751
 20
-1583.959564858437
 30
0.0
 11
1512.15314044974
 21
-1594.7107710684261
 31
0.0
1001
ACAD
1010
0.0
1020
0.0
1030
0.0
  0
LINE
  5
D8F7
  8
01
 10
1499.1568702094839
 20
-1583.959564858437
 30
0.0
 11
1511.6568702094819
 21
-1596.459564858435
 31
0.0
1001
ACAD
1010
0.0
1020
0.0
1030
0.0
  0
LINE
  5
D8F8
  8
01
 10
1511.656870209483
 20
-1596.459564858435
 30
0.0
 11
1512.1531404497409
 21
-1596.9558350986929
 31
0.0
1001
ACAD
1010
0.0
1020
0.0
1030
0.0
  0
LINE
  5
D8F9
  8
01
 10
1496.9118061792169
 20
-1583.959564858437
 30
0.0
 11
1509.4118061792151
 21
-1596.459564858435
 31
0.0
1001
ACAD
1010
0.0
1020
0.0
1030
0.0
  0
LINE
  5
D8FA
  8
01
 10
1509.4118061792151
 20
-1596.4595648584359
 30
0.0
 11
1512.1531404497409
 21
-1599.2008991289611
 31
0.0
1001
ACAD
1010
0.0
1020
0.0
1030
0.0
  0
LINE
  5
D8FB
  8
01
 10
1495.2531404497399
 20
-1584.5459631592271
 30
0.0
 11
1507.1667421489481
 21
-1596.459564858435
 31
0.0
1001
ACAD
1010
0.0
1020
0.0
1030
0.0
  0
LINE
  5
D8FC
  8
01
 10
1507.1667421489481
 20
-1596.4595648584359
 30
0.0
 11
1512.1531404497409
 21
-1601.4459631592281
 31
0.0
1001
ACAD
1010
0.0
1020
0.0
1030
0.0
  0
LINE
  5
D8FD
  8
01
 10
1495.253140449739
 20
-1586.7910271894939
 30
0.0
 11
1504.9216781186799
 21
-1596.4595648584359
 31
0.0
1001
ACAD
1010
0.0
1020
0.0
1030
0.0
  0
LINE
  5
D8FE
  8
01
 10
1504.921678118681
 20
-1596.4595648584359
 30
0.0
 11
1512.1531404497409
 21
-1603.6910271894949
 31
0.0
1001
ACAD
1010
0.0
1020
0.0
1030
0.0
  0
LINE
  5
D8FF
  8
01
 10
1494.176614088416
 20
-1587.9595648584379
 30
0.0
 11
1502.676614088414
 21
-1596.4595648584359
 31
0.0
1001
ACAD
1010
0.0
1020
0.0
1030
0.0
  0
LINE
  5
D900
  8
01
 10
1502.676614088414
 20
-1596.4595648584359
 30
0.0
 11
1512.1531404497409
 21
-1605.9360912197631
 31
0.0
1001
ACAD
1010
0.0
1020
0.0
1030
0.0
  0
LINE
  5
D901
  8
01
 10
1492.5423452539439
 20
-1588.570360054234
 30
0.0
 11
1500.4315500581461
 21
-1596.4595648584359
 31
0.0
1001
ACAD
1010
0.0
1020
0.0
1030
0.0
  0
LINE
  5
D902
  8
01
 10
1500.4315500581461
 20
-1596.4595648584359
 30
0.0
 11
1512.0423452539439
 21
-1608.070360054234
 31
0.0
1001
ACAD
1010
0.0
1020
0.0
1030
0.0
  0
LINE
  5
D903
  8
01
 10
1492.1531404497421
 20
-1590.426219280298
 30
0.0
 11
1498.186486027879
 21
-1596.4595648584359
 31
0.0
1001
ACAD
1010
0.0
1020
0.0
1030
0.0
  0
LINE
  5
D904
  8
01
 10
1498.186486027879
 20
-1596.4595648584359
 30
0.0
 11
1510.6864860278811
 21
-1608.9595648584379
 31
0.0
1001
ACAD
1010
0.0
1020
0.0
1030
0.0
  0
LINE
  5
D905
  8
01
 10
1492.1531404497421
 20
-1592.671283310566
 30
0.0
 11
1495.941421997612
 21
-1596.4595648584359
 31
0.0
1001
ACAD
1010
0.0
1020
0.0
1030
0.0
  0
LINE
  5
D906
  8
01
 10
1495.941421997612
 20
-1596.4595648584359
 30
0.0
 11
1508.441421997614
 21
-1608.9595648584379
 31
0.0
1001
ACAD
1010
0.0
1020
0.0
1030
0.0
  0
LINE
  5
D907
  8
01
 10
1492.1531404497409
 20
-1594.916347340833
 30
0.0
 11
1493.696357967345
 21
-1596.4595648584359
 31
0.0
1001
ACAD
1010
0.0
1020
0.0
1030
0.0
  0
LINE
  5
D908
  8
01
 10
1493.696357967345
 20
-1596.4595648584359
 30
0.0
 11
1506.1963579673461
 21
-1608.9595648584379
 31
0.0
1001
ACAD
1010
0.0
1020
0.0
1030
0.0
  0
LINE
  5
D909
  8
01
 10
1478.9512939370791
 20
-1583.959564858437
 30
0.0
 11
1479.053140449741
 21
-1584.0614113710999
 31
0.0
1001
ACAD
1010
0.0
1020
0.0
1030
0.0
  0
LINE
  5
D90A
  8
01
 10
1492.1531404497421
 20
-1597.1614113711
 30
0.0
 11
1503.9512939370791
 21
-1608.9595648584379
 31
0.0
1001
ACAD
1010
0.0
1020
0.0
1030
0.0
  0
LINE
  5
D90B
  8
01
 10
1476.7062299068109
 20
-1583.959564858437
 30
0.0
 11
1479.053140449741
 21
-1586.3064754013669
 31
0.0
1001
ACAD
1010
0.0
1020
0.0
1030
0.0
  0
LINE
  5
D90C
  8
01
 10
1492.0796851782759
 20
-1599.333020129902
 30
0.0
 11
1501.706229906812
 21
-1608.9595648584379
 31
0.0
1001
ACAD
1010
0.0
1020
0.0
1030
0.0
  0
LINE
  5
D90D
  8
01
 10
1480.706229906812
 20
-1587.9595648584379
 30
0.0
 11
1482.15314044974
 21
-1589.4064754013659
 31
0.0
1001
ACAD
1010
0.0
1020
0.0
1030
0.0
  0
LINE
  5
D90E
  8
01
 10
1474.4611658765441
 20
-1583.959564858437
 30
0.0
 11
1482.1531404497409
 21
-1591.6515394316341
 31
0.0
1001
ACAD
1010
0.0
1020
0.0
1030
0.0
  0
LINE
  5
D90F
  8
01
 10
1491.4531404497411
 20
-1600.951539431634
 30
0.0
 11
1499.461165876545
 21
-1608.9595648584379
 31
0.0
1001
ACAD
1010
0.0
1020
0.0
1030
0.0
  0
LINE
  5
D910
  8
01
 10
1472.2161018462759
 20
-1583.959564858437
 30
0.0
 11
1482.1531404497409
 21
-1593.896603461902
 31
0.0
1001
ACAD
1010
0.0
1020
0.0
1030
0.0
  0
LINE
  5
D911
  8
01
 10
1490.83462114801
 20
-1602.5780841601711
 30
0.0
 11
1497.2161018462771
 21
-1608.9595648584379
 31
0.0
1001
ACAD
1010
0.0
1020
0.0
1030
0.0
  0
LINE
  5
D912
  8
01
 10
1469.9710378160089
 20
-1583.959564858437
 30
0.0
 11
1482.1531404497421
 21
-1596.14166749217
 31
0.0
1001
ACAD
1010
0.0
1020
0.0
1030
0.0
  0
LINE
  5
D913
  8
01
 10
1489.712089132878
 20
-1603.700616175305
 30
0.0
 11
1494.97103781601
 21
-1608.9595648584379
 31
0.0
1001
ACAD
1010
0.0
1020
0.0
1030
0.0
  0
LINE
  5
D914
  8
01
 10
1467.7259737857421
 20
-1583.959564858437
 30
0.0
 11
1480.225973785741
 21
-1596.4595648584359
 31
0.0
1001
ACAD
1010
0.0
1020
0.0
1030
0.0
  0
LINE
  5
D915
  8
01
 10
1488.589557117745
 20
-1604.82314819044
 30
0.0
 11
1492.7259737857421
 21
-1608.9595648584379
 31
0.0
1001
ACAD
1010
0.0
1020
0.0
1030
0.0
  0
LINE
  5
D916
  8
01
 10
1480.225973785741
 20
-1596.4595648584359
 30
0.0
 11
1482.1531404497421
 21
-1598.386731522437
 31
0.0
1001
ACAD
1010
0.0
1020
0.0
1030
0.0
  0
LINE
  5
D917
  8
01
 10
1467.615851341234
 20
-1586.094506444196
 30
0.0
 11
1477.9809097554739
 21
-1596.4595648584359
 31
0.0
1001
ACAD
1010
0.0
1020
0.0
1030
0.0
  0
LINE
  5
D918
  8
01
 10
1487.467025102613
 20
-1605.9456802055749
 30
0.0
 11
1490.480909755476
 21
-1608.9595648584379
 31
0.0
1001
ACAD
1010
0.0
1020
0.0
1030
0.0
  0
LINE
  5
D919
  8
01
 10
1477.9809097554739
 20
-1596.4595648584359
 30
0.0
 11
1482.853140449741
 21
-1601.3317955527029
 31
0.0
1001
ACAD
1010
0.0
1020
0.0
1030
0.0
  0
LINE
  5
D91A
  8
01
 10
1469.1339198407579
 20
-1589.8576389739881
 30
0.0
 11
1475.735845725206
 21
-1596.4595648584359
 31
0.0
1001
ACAD
1010
0.0
1020
0.0
1030
0.0
  0
LINE
  5
D91B
  8
01
 10
1475.7358457252069
 20
-1596.4595648584359
 30
0.0
 11
1488.235845725208
 21
-1608.9595648584379
 31
0.0
1001
ACAD
1010
0.0
1020
0.0
1030
0.0
  0
LINE
  5
D91C
  8
01
 10
1468.8758584401819
 20
-1591.8446416036779
 30
0.0
 11
1473.4907816949401
 21
-1596.4595648584359
 31
0.0
1001
ACAD
1010
0.0
1020
0.0
1030
0.0
  0
LINE
  5
D91D
  8
01
 10
1473.4907816949401
 20
-1596.4595648584359
 30
0.0
 11
1485.990781694941
 21
-1608.9595648584379
 31
0.0
1001
ACAD
1010
0.0
1020
0.0
1030
0.0
  0
LINE
  5
D91E
  8
01
 10
1468.1730588858541
 20
-1593.3869060796189
 30
0.0
 11
1471.2457176646719
 21
-1596.4595648584359
 31
0.0
1001
ACAD
1010
0.0
1020
0.0
1030
0.0
  0
LINE
  5
D91F
  8
01
 10
1471.2457176646719
 20
-1596.4595648584359
 30
0.0
 11
1483.7457176646731
 21
-1608.9595648584379
 31
0.0
1001
ACAD
1010
0.0
1020
0.0
1030
0.0
  0
LINE
  5
D920
  8
01
 10
1467.301885600795
 20
-1594.760796824826
 30
0.0
 11
1469.0006536344049
 21
-1596.4595648584359
 31
0.0
1001
ACAD
1010
0.0
1020
0.0
1030
0.0
  0
LINE
  5
D921
  8
01
 10
1469.0006536344049
 20
-1596.4595648584359
 30
0.0
 11
1481.500653634406
 21
-1608.959564858437
 31
0.0
1001
ACAD
1010
0.0
1020
0.0
1030
0.0
  0
LINE
  5
D922
  8
01
 10
1466.3655351578509
 20
-1596.0695104121501
 30
0.0
 11
1466.7555896041381
 21
-1596.4595648584359
 31
0.0
1001
ACAD
1010
0.0
1020
0.0
1030
0.0
  0
LINE
  5
D923
  8
01
 10
1466.7555896041381
 20
-1596.4595648584359
 30
0.0
 11
1479.255589604139
 21
-1608.9595648584379
 31
0.0
1001
ACAD
1010
0.0
1020
0.0
1030
0.0
  0
LINE
  5
D924
  8
01
 10
1465.423296273153
 20
-1597.3723355577181
 30
0.0
 11
1477.010525573872
 21
-1608.9595648584379
 31
0.0
1001
ACAD
1010
0.0
1020
0.0
1030
0.0
  0
LINE
  5
D925
  8
01
 10
1464.53334414556
 20
-1598.727447460393
 30
0.0
 11
1474.765461543604
 21
-1608.9595648584379
 31
0.0
1001
ACAD
1010
0.0
1020
0.0
1030
0.0
  0
LINE
  5
D926
  8
01
 10
1463.7944036209849
 20
-1600.2335709660861
 30
0.0
 11
1472.520397513337
 21
-1608.9595648584379
 31
0.0
1001
ACAD
1010
0.0
1020
0.0
1030
0.0
  0
LINE
  5
D927
  8
01
 10
1463.5392862838471
 20
-1602.2235176592151
 30
0.0
 11
1470.27533348307
 21
-1608.9595648584379
 31
0.0
1001
ACAD
1010
0.0
1020
0.0
1030
0.0
  0
TEXT
  5
D928
  8
01
 10
1252.1531404497409
 20
-1764.563275937194
 30
0.0
 40
7.0
  1
500
  0
LINE
  5
D929
  8
01
  6
BYBLOCK
 10
1508.15314044974
 20
-1764.891479177194
 30
0.0
 11
1512.1531404497409
 21
-1765.9632759371941
 31
0.0
  0
LINE
  5
D92A
  8
01
  6
BYBLOCK
 10
1512.1531404497409
 20
-1765.9632759371941
 30
0.0
 11
1508.15314044974
 21
-1767.035072697194
 31
0.0
  0
LINE
  5
D92B
  8
01
  6
BYBLOCK
 10
1512.1531404497409
 20
-1765.9632759371941
 30
0.0
 11
1508.15314044974
 21
-1765.9632759371941
 31
0.0
  0
LINE
  5
D92C
  8
01
  6
BYBLOCK
 10
1016.153140449741
 20
-1767.035072697194
 30
0.0
 11
1012.153140449741
 21
-1765.9632759371941
 31
0.0
  0
LINE
  5
D92D
  8
01
  6
BYBLOCK
 10
1012.153140449741
 20
-1765.9632759371941
 30
0.0
 11
1016.153140449741
 21
-1764.891479177194
 31
0.0
  0
LINE
  5
D92E
  8
01
  6
BYBLOCK
 10
1012.153140449741
 20
-1765.9632759371941
 30
0.0
 11
1016.153140449741
 21
-1765.9632759371941
 31
0.0
  0
TEXT
  5
D92F
  8
01
 10
1248.486473783074
 20
-1747.177515524894
 30
0.0
 40
7.0
  1
P450
  0
LINE
  5
D930
  8
01
  6
BYBLOCK
 10
1483.15314044974
 20
-1747.505718764894
 30
0.0
 11
1487.15314044974
 21
-1748.5775155248939
 31
0.0
  0
LINE
  5
D931
  8
01
  6
BYBLOCK
 10
1487.15314044974
 20
-1748.5775155248939
 30
0.0
 11
1483.15314044974
 21
-1749.649312284894
 31
0.0
  0
LINE
  5
D932
  8
01
  6
BYBLOCK
 10
1487.15314044974
 20
-1748.5775155248939
 30
0.0
 11
1483.15314044974
 21
-1748.5775155248939
 31
0.0
  0
LINE
  5
D933
  8
01
  6
BYBLOCK
 10
1041.1531404497409
 20
-1749.649312284894
 30
0.0
 11
1037.1531404497409
 21
-1748.5775155248939
 31
0.0
  0
LINE
  5
D934
  8
01
  6
BYBLOCK
 10
1037.1531404497409
 20
-1748.5775155248939
 30
0.0
 11
1041.1531404497409
 21
-1747.505718764894
 31
0.0
  0
LINE
  5
D935
  8
01
  6
BYBLOCK
 10
1037.1531404497409
 20
-1748.5775155248939
 30
0.0
 11
1041.1531404497409
 21
-1748.5775155248939
 31
0.0
  0
TEXT
  5
D936
  8
01
 10
1574.4491780710589
 20
-1764.563275937194
 30
0.0
 40
7.0
  1
67.5
  0
LINE
  5
D937
  8
01
  6
BYBLOCK
 10
1556.5324974484199
 20
-1767.035072697194
 30
0.0
 11
1552.5324974484199
 21
-1765.9632759371941
 31
0.0
  0
LINE
  5
D938
  8
01
  6
BYBLOCK
 10
1552.5324974484199
 20
-1765.9632759371941
 30
0.0
 11
1556.5324974484199
 21
-1764.891479177194
 31
0.0
  0
LINE
  5
D939
  8
01
  6
BYBLOCK
 10
1552.5324974484199
 20
-1765.9632759371941
 30
0.0
 11
1556.5324974484199
 21
-1765.9632759371941
 31
0.0
  0
LINE
  5
D93A
  8
01
  6
BYBLOCK
 10
1616.0325253603651
 20
-1764.891479177194
 30
0.0
 11
1620.0325253603651
 21
-1765.9632759371941
 31
0.0
  0
LINE
  5
D93B
  8
01
  6
BYBLOCK
 10
1620.0325253603651
 20
-1765.9632759371941
 30
0.0
 11
1616.0325253603651
 21
-1767.035072697194
 31
0.0
  0
LINE
  5
D93C
  8
01
  6
BYBLOCK
 10
1620.0325253603651
 20
-1765.9632759371941
 30
0.0
 11
1616.0325253603651
 21
-1765.9632759371941
 31
0.0
  0
TEXT
  5
D93D
  8
01
 10
1643.015857742975
 20
-1764.563275937194
 30
0.0
 40
7.0
  1
35
  0
LINE
  5
D93E
  8
01
  6
BYBLOCK
 10
1663.3325234589181
 20
-1764.891479177194
 30
0.0
 11
1667.3325234589181
 21
-1765.9632759371941
 31
0.0
  0
LINE
  5
D93F
  8
01
  6
BYBLOCK
 10
1667.3325234589181
 20
-1765.9632759371941
 30
0.0
 11
1663.3325234589181
 21
-1767.035072697194
 31
0.0
  0
LINE
  5
D940
  8
01
  6
BYBLOCK
 10
1667.3325234589181
 20
-1765.9632759371941
 30
0.0
 11
1663.3325234589181
 21
-1765.9632759371941
 31
0.0
  0
LINE
  5
D941
  8
01
  6
BYBLOCK
 10
1636.0325253603651
 20
-1767.035072697194
 30
0.0
 11
1632.0325253603651
 21
-1765.9632759371941
 31
0.0
  0
LINE
  5
D942
  8
01
  6
BYBLOCK
 10
1632.0325253603651
 20
-1765.9632759371941
 30
0.0
 11
1636.0325253603651
 21
-1764.891479177194
 31
0.0
  0
LINE
  5
D943
  8
01
  6
BYBLOCK
 10
1632.0325253603651
 20
-1765.9632759371941
 30
0.0
 11
1636.0325253603651
 21
-1765.9632759371941
 31
0.0
  0
TEXT
  5
D944
  8
01
 10
1687.5416428367121
 20
-1711.056712804402
 30
0.0
 40
7.0
  1
\U+03C630
 50
90.0
  0
LINE
  5
D945
  8
01
  6
BYBLOCK
 10
1687.8698460767109
 20
-1688.990046137767
 30
0.0
 11
1688.941642836711
 21
-1684.990046137767
 31
0.0
  0
LINE
  5
D946
  8
01
  6
BYBLOCK
 10
1688.941642836711
 20
-1684.990046137767
 30
0.0
 11
1690.0134395967109
 21
-1688.990046137767
 31
0.0
  0
LINE
  5
D947
  8
01
  6
BYBLOCK
 10
1688.941642836711
 20
-1684.990046137767
 30
0.0
 11
1688.941642836711
 21
-1688.990046137767
 31
0.0
  0
LINE
  5
D948
  8
01
  6
BYBLOCK
 10
1690.0134395967109
 20
-1710.9900461377031
 30
0.0
 11
1688.941642836711
 21
-1714.9900461377031
 31
0.0
  0
LINE
  5
D949
  8
01
  6
BYBLOCK
 10
1688.941642836711
 20
-1714.9900461377031
 30
0.0
 11
1687.8698460767109
 21
-1710.9900461377031
 31
0.0
  0
LINE
  5
D94A
  8
01
  6
BYBLOCK
 10
1688.941642836711
 20
-1714.9900461377031
 30
0.0
 11
1688.941642836711
 21
-1710.9900461377031
 31
0.0
  0
TEXT
  5
D94B
  8
01
 10
1536.077728934318
 20
-1711.056702580197
 30
0.0
 40
7.0
  1
\U+03C625
 50
90.0
  0
LINE
  5
D94C
  8
01
  6
BYBLOCK
 10
1538.5495256943179
 20
-1708.4900359135311
 30
0.0
 11
1537.4777289343181
 21
-1712.4900359135311
 31
0.0
  0
LINE
  5
D94D
  8
01
  6
BYBLOCK
 10
1537.4777289343181
 20
-1712.4900359135311
 30
0.0
 11
1536.405932174318
 21
-1708.4900359135311
 31
0.0
  0
LINE
  5
D94E
  8
01
  6
BYBLOCK
 10
1537.4777289343181
 20
-1712.4900359135311
 30
0.0
 11
1537.4777289343181
 21
-1708.4900359135311
 31
0.0
  0
LINE
  5
D94F
  8
01
  6
BYBLOCK
 10
1536.405932174318
 20
-1691.4900359135299
 30
0.0
 11
1537.4777289343181
 21
-1687.490035913529
 31
0.0
  0
LINE
  5
D950
  8
01
  6
BYBLOCK
 10
1537.4777289343181
 20
-1687.490035913529
 30
0.0
 11
1538.5495256943179
 21
-1691.4900359135299
 31
0.0
  0
LINE
  5
D951
  8
01
  6
BYBLOCK
 10
1537.4777289343181
 20
-1687.490035913529
 30
0.0
 11
1537.4777289343181
 21
-1691.4900359135299
 31
0.0
  0
LINE
  5
D952
  8
01
 10
1282.794720541973
 20
-1597.975627656295
 30
0.0
 11
1328.914423324009
 21
-1656.0075107352391
 31
0.0
1001
ACAD
1000
DSTYLE
1002
{
1070
    40
1040
2.0
1002
}
  0
LINE
  5
D953
  8
01
 10
1328.914423324009
 20
-1656.0075107352391
 30
0.0
 11
1334.3144233240091
 21
-1656.0075107352391
 31
0.0
1001
ACAD
1000
DSTYLE
1002
{
1070
    40
1040
2.0
1002
}
  0
LINE
  5
D954
  8
01
  6
BYBLOCK
 10
1281.9556353334431
 20
-1598.642474196042
 30
0.0
 11
1280.3060153522049
 21
-1594.8441189977691
 31
0.0
  0
LINE
  5
D955
  8
01
  6
BYBLOCK
 10
1280.3060153522049
 20
-1594.8441189977691
 30
0.0
 11
1283.6338057505029
 21
-1597.3087811165481
 31
0.0
  0
LINE
  5
D956
  8
01
  6
BYBLOCK
 10
1280.3060153522049
 20
-1594.8441189977691
 30
0.0
 11
1282.794720541973
 21
-1597.975627656295
 31
0.0
  0
LINE
  5
D957
  8
01
 10
1501.8934928910569
 20
-1490.873829793916
 30
0.0
 11
1519.4941779628621
 21
-1465.5234078714329
 31
0.0
1001
ACAD
1000
DSTYLE
1002
{
1070
    40
1040
2.0
1002
}
  0
LINE
  5
D958
  8
01
 10
1519.4941779628621
 20
-1465.5234078714329
 30
0.0
 11
1524.8941779628619
 21
-1465.5234078714329
 31
0.0
1001
ACAD
1000
DSTYLE
1002
{
1070
    40
1040
2.0
1002
}
  0
LINE
  5
D959
  8
01
  6
BYBLOCK
 10
1502.7738959706589
 20
-1491.4850897322201
 30
0.0
 11
1499.6122397239781
 21
-1494.15953884794
 31
0.0
  0
LINE
  5
D95A
  8
01
  6
BYBLOCK
 10
1499.6122397239781
 20
-1494.15953884794
 30
0.0
 11
1501.013089811456
 21
-1490.262569855613
 31
0.0
  0
LINE
  5
D95B
  8
01
  6
BYBLOCK
 10
1499.6122397239781
 20
-1494.15953884794
 30
0.0
 11
1501.8934928910569
 21
-1490.873829793916
 31
0.0
  0
LINE
  5
D95C
  8
01
 10
1050.4037659530079
 20
-1512.650866835213
 30
0.0
 11
1068.0044510248131
 21
-1487.30044491273
 31
0.0
1001
ACAD
1000
DSTYLE
1002
{
1070
    40
1040
2.0
1002
}
  0
LINE
  5
D95D
  8
01
 10
1068.0044510248131
 20
-1487.30044491273
 30
0.0
 11
1073.4044510248129
 21
-1487.30044491273
 31
0.0
1001
ACAD
1000
DSTYLE
1002
{
1070
    40
1040
2.0
1002
}
  0
LINE
  5
D95E
  8
01
  6
BYBLOCK
 10
1051.28416903261
 20
-1513.2621267735169
 30
0.0
 11
1048.1225127859291
 21
-1515.9365758892361
 31
0.0
  0
LINE
  5
D95F
  8
01
  6
BYBLOCK
 10
1048.1225127859291
 20
-1515.9365758892361
 30
0.0
 11
1049.523362873407
 21
-1512.0396068969089
 31
0.0
  0
LINE
  5
D960
  8
01
  6
BYBLOCK
 10
1048.1225127859291
 20
-1515.9365758892361
 30
0.0
 11
1050.4037659530079
 21
-1512.650866835213
 31
0.0
  0
LINE
  5
D961
  8
01
 10
1528.0728236349271
 20
-1542.7922700756969
 30
0.0
 11
1551.064887224878
 21
-1583.9259622650741
 31
0.0
1001
ACAD
1000
DSTYLE
1002
{
1070
    40
1040
2.0
1002
}
  0
LINE
  5
D962
  8
01
 10
1551.064887224878
 20
-1583.9259622650741
 30
0.0
 11
1556.4648872248781
 21
-1583.9259622650741
 31
0.0
1001
ACAD
1000
DSTYLE
1002
{
1070
    40
1040
2.0
1002
}
  0
LINE
  5
D963
  8
01
  6
BYBLOCK
 10
1527.1372597720349
 20
-1543.315212283974
 30
0.0
 11
1526.121176726509
 21
-1539.3006981739791
 31
0.0
  0
LINE
  5
D964
  8
01
  6
BYBLOCK
 10
1526.121176726509
 20
-1539.3006981739791
 30
0.0
 11
1529.0083874978191
 21
-1542.269327867421
 31
0.0
  0
LINE
  5
D965
  8
01
  6
BYBLOCK
 10
1526.121176726509
 20
-1539.3006981739791
 30
0.0
 11
1528.0728236349271
 21
-1542.7922700756969
 31
0.0
  0
TEXT
  5
D966
  8
01
 10
1533.6090861331149
 20
-1488.3670572229601
 30
0.0
 40
7.0
  1
ガラス扉穴加工:\U+03C616
  0
LINE
  5
D967
  8
01
  6
BYBLOCK
 10
1524.2090861331151
 20
-1488.6952604629601
 30
0.0
 11
1528.2090861331151
 21
-1489.7670572229599
 31
0.0
  0
LINE
  5
D968
  8
01
  6
BYBLOCK
 10
1528.2090861331151
 20
-1489.7670572229599
 30
0.0
 11
1524.2090861331151
 21
-1490.8388539829609
 31
0.0
  0
LINE
  5
D969
  8
01
  6
BYBLOCK
 10
1528.2090861331151
 20
-1489.7670572229599
 30
0.0
 11
1524.2090861331151
 21
-1489.7670572229599
 31
0.0
  0
LINE
  5
D96A
  8
01
  6
BYBLOCK
 10
1516.709085564604
 20
-1490.8388539829609
 30
0.0
 11
1512.709085564604
 21
-1489.7670572229599
 31
0.0
  0
LINE
  5
D96B
  8
01
  6
BYBLOCK
 10
1512.709085564604
 20
-1489.7670572229599
 30
0.0
 11
1516.709085564604
 21
-1488.6952604629601
 31
0.0
  0
LINE
  5
D96C
  8
01
  6
BYBLOCK
 10
1512.709085564604
 20
-1489.7670572229599
 30
0.0
 11
1516.709085564604
 21
-1489.7670572229599
 31
0.0
  0
LINE
  5
D96D
  8
01
 10
1480.024292240571
 20
-1533.7880518915269
 30
0.0
 11
1454.007004845223
 21
-1512.4664076916499
 31
0.0
1001
ACAD
1000
DSTYLE
1002
{
1070
    40
1040
2.0
1002
}
  0
LINE
  5
D96E
  8
01
 10
1454.007004845223
 20
-1512.4664076916499
 30
0.0
 11
1448.6070048452229
 21
-1512.4664076916499
 31
0.0
1001
ACAD
1000
DSTYLE
1002
{
1070
    40
1040
2.0
1002
}
  0
LINE
  5
D96F
  8
01
  6
BYBLOCK
 10
1480.703657909942
 20
-1532.9590702379151
 30
0.0
 11
1483.1180939184669
 21
-1536.3234791095419
 31
0.0
  0
LINE
  5
D970
  8
01
  6
BYBLOCK
 10
1483.1180939184669
 20
-1536.3234791095419
 30
0.0
 11
1479.3449265711999
 21
-1534.61703354514
 31
0.0
  0
LINE
  5
D971
  8
01
  6
BYBLOCK
 10
1483.1180939184669
 20
-1536.3234791095419
 30
0.0
 11
1480.024292240571
 21
-1533.7880518915269
 31
0.0
  0
LINE
  5
D972
  8
01
 10
1047.4388836704061
 20
-1539.025556399992
 30
0.0
 11
1066.48629117784
 21
-1514.2894122917969
 31
0.0
1001
ACAD
1000
DSTYLE
1002
{
1070
    40
1040
2.0
1002
}
  0
LINE
  5
D973
  8
01
 10
1066.48629117784
 20
-1514.2894122917969
 30
0.0
 11
1071.8862911778399
 21
-1514.2894122917969
 31
0.0
1001
ACAD
1000
DSTYLE
1002
{
1070
    40
1040
2.0
1002
}
  0
LINE
  5
D974
  8
01
  6
BYBLOCK
 10
1048.2880901330259
 20
-1539.6794651693101
 30
0.0
 11
1044.998462897654
 21
-1542.19483809336
 31
0.0
  0
LINE
  5
D975
  8
01
  6
BYBLOCK
 10
1044.998462897654
 20
-1542.19483809336
 30
0.0
 11
1046.5896772077861
 21
-1538.371647630674
 31
0.0
  0
LINE
  5
D976
  8
01
  6
BYBLOCK
 10
1044.998462897654
 20
-1542.19483809336
 30
0.0
 11
1047.4388836704061
 21
-1539.025556399992
 31
0.0
  0
TEXT
  5
D977
  8
01
 10
1587.115844737727
 20
-1747.177515524894
 30
0.0
 40
7.0
  1
42.5
  0
LINE
  5
D978
  8
01
  6
BYBLOCK
 10
1616.0325253603651
 20
-1747.505718764894
 30
0.0
 11
1620.0325253603651
 21
-1748.5775155248939
 31
0.0
  0
LINE
  5
D979
  8
01
  6
BYBLOCK
 10
1620.0325253603651
 20
-1748.5775155248939
 30
0.0
 11
1616.0325253603651
 21
-1749.649312284894
 31
0.0
  0
LINE
  5
D97A
  8
01
  6
BYBLOCK
 10
1620.0325253603651
 20
-1748.5775155248939
 30
0.0
 11
1616.0325253603651
 21
-1748.5775155248939
 31
0.0
  0
LINE
  5
D97B
  8
01
  6
BYBLOCK
 10
1581.532497448422
 20
-1749.649312284894
 30
0.0
 11
1577.5324974484211
 21
-1748.5775155248939
 31
0.0
  0
LINE
  5
D97C
  8
01
  6
BYBLOCK
 10
1577.5324974484211
 20
-1748.5775155248939
 30
0.0
 11
1581.532497448422
 21
-1747.505718764894
 31
0.0
  0
LINE
  5
D97D
  8
01
  6
BYBLOCK
 10
1577.5324974484211
 20
-1748.5775155248939
 30
0.0
 11
1581.532497448422
 21
-1748.5775155248939
 31
0.0
  0
TEXT
  5
D97E
  8
01
 10
1026.0864824118139
 20
-1470.8309523564619
 30
0.0
 40
7.0
  1
\U+03C630
  0
LINE
  5
D97F
  8
01
  6
BYBLOCK
 10
1026.1531490785169
 20
-1473.302749116463
 30
0.0
 11
1022.153149078517
 21
-1472.230952356462
 31
0.0
  0
LINE
  5
D980
  8
01
  6
BYBLOCK
 10
1022.153149078517
 20
-1472.230952356462
 30
0.0
 11
1026.1531490785169
 21
-1471.1591555964619
 31
0.0
  0
LINE
  5
D981
  8
01
  6
BYBLOCK
 10
1022.153149078517
 20
-1472.230952356462
 30
0.0
 11
1026.1531490785169
 21
-1472.230952356462
 31
0.0
  0
LINE
  5
D982
  8
01
  6
BYBLOCK
 10
1048.1531490784459
 20
-1471.1591555964619
 30
0.0
 11
1052.1531490784459
 21
-1472.230952356462
 31
0.0
  0
LINE
  5
D983
  8
01
  6
BYBLOCK
 10
1052.1531490784459
 20
-1472.230952356462
 30
0.0
 11
1048.1531490784459
 21
-1473.302749116463
 31
0.0
  0
LINE
  5
D984
  8
01
  6
BYBLOCK
 10
1052.1531490784459
 20
-1472.230952356462
 30
0.0
 11
1048.1531490784459
 21
-1472.230952356462
 31
0.0
  0
VIEWPORT
  5
2FC
 67
     1
  8
0
 10
19.453226388050489
 20
9.2202950625139692
 30
0.0
 40
588.94253885396085
 41
270.51428479563288
 68
     1
 69
     1
1001
ACAD
1000
MVIEW
1002
{
1070
    16
1010
0.0
1020
0.0
1030
0.0
1010
0.0
1020
0.0
1030
1.0
1040
0.0
1040
270.51428479563288
1040
19.453226388050489
1040
9.2202950625139692
1040
50.0
1040
0.0
1040
0.0
1070
     0
1070
   100
1070
     1
1070
     1
1070
     0
1070
     0
1070
     0
1070
     0
1040
0.0
1040
0.0
1040
0.0
1040
10.0
1040
10.0
1040
10.0
1040
10.0
1070
     0
1002
{
1002
}
1002
}
  0
ENDSEC
  0
EOF
