  0
SECTION
  2
HEADER
  9
$ACADVER
  1
AC1012
  9
$DWGCODEPAGE
  3
ansi_1252
  9
$INSBASE
 10
0.0
 20
0.0
 30
0.0
  9
$EXTMIN
 10
2039.012188032093
 20
-1014.108251819895
 30
-0.0000000000000007
  9
$EXTMAX
 10
2788.692234775078
 20
-567.7931785094095
 30
0.0000000000000024
  9
$LIMMIN
 10
0.0
 20
0.0
  9
$LIMMAX
 10
420.0
 20
297.0
  9
$ORTHOMODE
 70
     0
  9
$REGENMODE
 70
     1
  9
$FILLMODE
 70
     1
  9
$QTEXTMODE
 70
     0
  9
$MIRRTEXT
 70
     0
  9
$DRAGMODE
 70
     2
  9
$LTSCALE
 40
0.5
  9
$OSMODE
 70
 14429
  9
$ATTMODE
 70
     1
  9
$TEXTSIZE
 40
4.0
  9
$TRACEWID
 40
1.0
  9
$TEXTSTYLE
  7
STANDARD
  9
$CLAYER
  8
1TEXT
  9
$CELTYPE
  6
BYLAYER
  9
$CECOLOR
 62
   256
  9
$CELTSCALE
 40
1.0
  9
$DELOBJ
 70
     1
  9
$DISPSILH
 70
     0
  9
$DIMSCALE
 40
2.0
  9
$DIMASZ
 40
2.0
  9
$DIMEXO
 40
0.0
  9
$DIMDLI
 40
7.0
  9
$DIMRND
 40
0.0
  9
$DIMDLE
 40
0.0
  9
$DIMEXE
 40
1.0
  9
$DIMTP
 40
0.0
  9
$DIMTM
 40
0.0
  9
$DIMTXT
 40
3.5
  9
$DIMCEN
 40
0.0
  9
$DIMTSZ
 40
0.0
  9
$DIMTOL
 70
     0
  9
$DIMLIM
 70
     0
  9
$DIMTIH
 70
     0
  9
$DIMTOH
 70
     0
  9
$DIMSE1
 70
     0
  9
$DIMSE2
 70
     0
  9
$DIMTAD
 70
     1
  9
$DIMZIN
 70
     8
  9
$DIMBLK
  1

  9
$DIMASO
 70
     1
  9
$DIMSHO
 70
     1
  9
$DIMPOST
  1
 
  9
$DIMAPOST
  1

  9
$DIMALT
 70
     0
  9
$DIMALTD
 70
     2
  9
$DIMALTF
 40
25.4
  9
$DIMLFAC
 40
1.0
  9
$DIMTOFL
 70
     1
  9
$DIMTVP
 40
0.0
  9
$DIMTIX
 70
     0
  9
$DIMSOXD
 70
     0
  9
$DIMSAH
 70
     1
  9
$DIMBLK1
  1
OPEN30
  9
$DIMBLK2
  1
OPEN30
  9
$DIMSTYLE
  2
NEWX10
  9
$DIMCLRD
 70
   256
  9
$DIMCLRE
 70
   256
  9
$DIMCLRT
 70
   201
  9
$DIMTFAC
 40
0.7
  9
$DIMGAP
 40
0.7
  9
$DIMJUST
 70
     0
  9
$DIMSD1
 70
     0
  9
$DIMSD2
 70
     0
  9
$DIMTOLJ
 70
     1
  9
$DIMTZIN
 70
     8
  9
$DIMALTZ
 70
     0
  9
$DIMALTTZ
 70
     0
  9
$DIMFIT
 70
     2
  9
$DIMUPT
 70
     0
  9
$DIMUNIT
 70
     2
  9
$DIMDEC
 70
     2
  9
$DIMTDEC
 70
     4
  9
$DIMALTU
 70
     2
  9
$DIMALTTD
 70
     2
  9
$DIMTXSTY
  7
STANDARD
  9
$DIMAUNIT
 70
     0
  9
$LUNITS
 70
     2
  9
$LUPREC
 70
     4
  9
$SKETCHINC
 40
1.0
  9
$FILLETRAD
 40
0.0
  9
$AUNITS
 70
     0
  9
$AUPREC
 70
     2
  9
$MENU
  1
acad
  9
$ELEVATION
 40
0.0
  9
$PELEVATION
 40
0.0
  9
$THICKNESS
 40
0.0
  9
$LIMCHECK
 70
     0
  9
$CHAMFERA
 40
1.0
  9
$CHAMFERB
 40
1.0
  9
$CHAMFERC
 40
20.0
  9
$CHAMFERD
 40
0.0
  9
$SKPOLY
 70
     0
  9
$TDCREATE
 40
2453033.690996817
  9
$TDUPDATE
 40
2458439.459566667
  9
$TDINDWG
 40
2.7304131019
  9
$TDUSRTIMER
 40
2.7304131019
  9
$USRTIMER
 70
     1
  9
$ANGBASE
 50
0.0
  9
$ANGDIR
 70
     0
  9
$PDMODE
 70
     0
  9
$PDSIZE
 40
0.0
  9
$PLINEWID
 40
0.0
  9
$COORDS
 70
     2
  9
$SPLFRAME
 70
     0
  9
$SPLINETYPE
 70
     6
  9
$SPLINESEGS
 70
     8
  9
$ATTDIA
 70
     0
  9
$ATTREQ
 70
     1
  9
$HANDLING
 70
     1
  9
$HANDSEED
  5
24D6E
  9
$SURFTAB1
 70
     6
  9
$SURFTAB2
 70
     6
  9
$SURFTYPE
 70
     6
  9
$SURFU
 70
     6
  9
$SURFV
 70
     6
  9
$UCSNAME
  2

  9
$UCSORG
 10
0.0
 20
0.0
 30
0.0
  9
$UCSXDIR
 10
1.0
 20
0.0
 30
0.0
  9
$UCSYDIR
 10
0.0
 20
1.0
 30
0.0
  9
$PUCSNAME
  2

  9
$PUCSORG
 10
0.0
 20
0.0
 30
0.0
  9
$PUCSXDIR
 10
1.0
 20
0.0
 30
0.0
  9
$PUCSYDIR
 10
0.0
 20
1.0
 30
0.0
  9
$USERI1
 70
     0
  9
$USERI2
 70
     0
  9
$USERI3
 70
     0
  9
$USERI4
 70
     0
  9
$USERI5
 70
     0
  9
$USERR1
 40
0.0
  9
$USERR2
 40
0.0
  9
$USERR3
 40
0.0
  9
$USERR4
 40
0.0
  9
$USERR5
 40
0.0
  9
$WORLDVIEW
 70
     1
  9
$SHADEDGE
 70
     3
  9
$SHADEDIF
 70
    70
  9
$TILEMODE
 70
     1
  9
$MAXACTVP
 70
    48
  9
$PINSBASE
 10
0.0
 20
0.0
 30
0.0
  9
$PLIMCHECK
 70
     0
  9
$PEXTMIN
 10
1.000000000000000E+20
 20
1.000000000000000E+20
 30
1.000000000000000E+20
  9
$PEXTMAX
 10
-1.000000000000000E+20
 20
-1.000000000000000E+20
 30
-1.000000000000000E+20
  9
$PLIMMIN
 10
0.0
 20
0.0
  9
$PLIMMAX
 10
420.0
 20
297.0
  9
$UNITMODE
 70
     0
  9
$VISRETAIN
 70
     1
  9
$PLINEGEN
 70
     0
  9
$PSLTSCALE
 70
     1
  9
$TREEDEPTH
 70
  3020
  9
$PICKSTYLE
 70
     1
  9
$CMLSTYLE
  2
STANDARD
  9
$CMLJUST
 70
     0
  9
$CMLSCALE
 40
20.0
  9
$SAVEIMAGES
 70
     1
  0
ENDSEC
  0
SECTION
  2
CLASSES
  0
CLASS
  1
DICTIONARYVAR
  2
AcDbDictionaryVar
  3
ObjectDBX Classes
 90
        0
280
     0
281
     0
  0
CLASS
  1
IDBUFFER
  2
AcDbIdBuffer
  3
ObjectDBX Classes
 90
    32768
280
     0
281
     0
  0
CLASS
  1
LWPOLYLINE
  2
AcDbPolyline
  3
ObjectDBX Classes
 90
    32768
280
     0
281
     1
  0
CLASS
  1
ACDBDICTIONARYWDFLT
  2
AcDbDictionaryWithDefault
  3
ObjectDBX Classes
 90
    32768
280
     0
281
     0
  0
CLASS
  1
ACDBPLACEHOLDER
  2
AcDbPlaceHolder
  3
ObjectDBX Classes
 90
        0
280
     0
281
     0
  0
CLASS
  1
LAYOUT
  2
AcDbLayout
  3
ObjectDBX Classes
 90
        0
280
     0
281
     0
  0
CLASS
  1
TABLESTYLE
  2
AcDbTableStyle
  3
ObjectDBX Classes
 90
     4095
280
     0
281
     0
  0
CLASS
  1
SORTENTSTABLE
  2
AcDbSortentsTable
  3
ObjectDBX Classes
 90
    32768
280
     0
281
     0
  0
CLASS
  1
DIMASSOC
  2
AcDbDimAssoc
  3
"AcDbDimAssoc|Product Desc:     AcDim ARX App For Dimension|Company:          Autodesk, Inc.|WEB Address:      www.autodesk.com"
 90
        0
280
     0
281
     0
  0
CLASS
  1
MATERIAL
  2
AcDbMaterial
  3
ObjectDBX Classes
 90
     1153
280
     0
281
     0
  0
CLASS
  1
VISUALSTYLE
  2
AcDbVisualStyle
  3
ObjectDBX Classes
 90
     4095
280
     0
281
     0
  0
CLASS
  1
SCALE
  2
AcDbScale
  3
ObjectDBX Classes
 90
     1153
280
     0
281
     0
  0
CLASS
  1
MLEADERSTYLE
  2
AcDbMLeaderStyle
  3
ACDB_MLEADERSTYLE_CLASS
 90
     4095
280
     0
281
     0
  0
CLASS
  1
CELLSTYLEMAP
  2
AcDbCellStyleMap
  3
ObjectDBX Classes
 90
     1152
280
     0
281
     0
  0
CLASS
  1
EXACXREFPANELOBJECT
  2
ExAcXREFPanelObject
  3
EXAC_ESW
 90
     1025
280
     1
281
     0
  0
CLASS
  1
NPOCOLLECTION
  2
AcDbImpNonPersistentObjectsCollection
  3
ObjectDBX Classes
 90
     1153
280
     1
281
     0
  0
CLASS
  1
AEC_REFEDIT_STATUS_TRACKER
  2
AecDbRefEditStatusTracker
  3
AecArchBase80|Product Desc: Autodesk Architectural Desktop 2007 |Company: Autodesk,Inc. |WEB Address: www.autodesk.com
 90
      129
280
     1
281
     0
  0
CLASS
  1
ACDBSECTIONVIEWSTYLE
  2
AcDbSectionViewStyle
  3
ObjectDBX Classes
 90
     1025
280
     0
281
     0
  0
CLASS
  1
ACDBDETAILVIEWSTYLE
  2
AcDbDetailViewStyle
  3
ObjectDBX Classes
 90
     1025
280
     0
281
     0
  0
CLASS
  1
SUN
  2
AcDbSun
  3
SCENEOE
 90
     1153
280
     0
281
     0
  0
CLASS
  1
XRECORD
  2
AcDbXrecord
  3
ObjectDBX Classes
 90
    32768
280
     0
281
     0
  0
CLASS
  1
HATCH
  2
AcDbHatch
  3
ObjectDBX Classes
 90
    32768
280
     0
281
     1
  0
ENDSEC
  0
SECTION
  2
TABLES
  0
TABLE
  2
VPORT
  5
8
330
0
100
AcDbSymbolTable
 70
     1
  0
VPORT
  5
19DC2
330
8
100
AcDbSymbolTableRecord
100
AcDbViewportTableRecord
  2
*ACTIVE
 70
     0
 10
0.0
 20
0.0
 11
1.0
 21
1.0
 12
2413.852211403586
 22
-790.9507151646521
 13
0.0
 23
0.0
 14
10.0
 24
10.0
 15
10.0
 25
10.0
 16
0.0
 26
0.0
 36
1.0
 17
0.0
 27
0.0
 37
0.0
 40
479.2014471333633
 41
2.143386897404203
 42
50.0
 43
0.0
 44
0.0
 50
0.0
 51
0.0
 71
    16
 72
   100
 73
     1
 74
     1
 75
     0
 76
     0
 77
     0
 78
     0
  0
ENDTAB
  0
TABLE
  2
LTYPE
  5
5
330
0
100
AcDbSymbolTable
 70
     3
  0
LTYPE
  5
12
330
5
100
AcDbSymbolTableRecord
100
AcDbLinetypeTableRecord
  2
BYBLOCK
 70
     0
  3

 72
    65
 73
     0
 40
0.0
  0
LTYPE
  5
13
330
5
100
AcDbSymbolTableRecord
100
AcDbLinetypeTableRecord
  2
BYLAYER
 70
     0
  3

 72
    65
 73
     0
 40
0.0
  0
LTYPE
  5
14
330
5
100
AcDbSymbolTableRecord
100
AcDbLinetypeTableRecord
  2
CONTINUOUS
 70
     0
  3
Solid line
 72
    65
 73
     0
 40
0.0
  0
LTYPE
  5
26
330
5
100
AcDbSymbolTableRecord
100
AcDbLinetypeTableRecord
  2
CENTER2
 70
     0
  3
Center (.5x) ___ _ ___ _ ___ _ ___ _ ___ _ ___
 72
    65
 73
     4
 40
28.575
 49
19.05
 74
     0
 49
-3.175
 74
     0
 49
3.175
 74
     0
 49
-3.175
 74
     0
  0
LTYPE
  5
100
330
5
100
AcDbSymbolTableRecord
100
AcDbLinetypeTableRecord
  2
PHANTOM2
 70
     0
  3
Phantom (0.5x) ___ _ _ ___ _ _ ___ _ _ ___ _ _
 72
    65
 73
     6
 40
31.75
 49
15.875
 74
     0
 49
-3.175
 74
     0
 49
3.175
 74
     0
 49
-3.175
 74
     0
 49
3.175
 74
     0
 49
-3.175
 74
     0
  0
ENDTAB
  0
TABLE
  2
LAYER
  5
2
102
{ACAD_XDICTIONARY
360
18FE8
102
}
330
0
100
AcDbSymbolTable
 70
     7
  0
LAYER
  5
E
102
{ACAD_XDICTIONARY
360
1A20A
102
}
330
2
100
AcDbSymbolTableRecord
100
AcDbLayerTableRecord
  2
0
 70
     0
 62
     7
  6
CONTINUOUS
  0
LAYER
  5
29
102
{ACAD_XDICTIONARY
360
1A20C
102
}
330
2
100
AcDbSymbolTableRecord
100
AcDbLayerTableRecord
  2
1CENTER
 70
     0
 62
     7
  6
CENTER2
  0
LAYER
  5
31
102
{ACAD_XDICTIONARY
360
1A20E
102
}
330
2
100
AcDbSymbolTableRecord
100
AcDbLayerTableRecord
  2
1TEXT
 70
     0
 62
     7
  6
CONTINUOUS
  0
LAYER
  5
101
102
{ACAD_XDICTIONARY
360
1A218
102
}
330
2
100
AcDbSymbolTableRecord
100
AcDbLayerTableRecord
  2
1DIM
 70
     0
 62
     7
  6
CONTINUOUS
  0
LAYER
  5
103
102
{ACAD_XDICTIONARY
360
1A21C
102
}
330
2
100
AcDbSymbolTableRecord
100
AcDbLayerTableRecord
  2
1PHANTOM
 70
     0
 62
     7
  6
PHANTOM2
  0
LAYER
  5
25F
102
{ACAD_XDICTIONARY
360
1A220
102
}
330
2
100
AcDbSymbolTableRecord
100
AcDbLayerTableRecord
  2
01
 70
     0
 62
     1
  6
CONTINUOUS
  0
LAYER
  5
26D
102
{ACAD_XDICTIONARY
360
1A23C
102
}
330
2
100
AcDbSymbolTableRecord
100
AcDbLayerTableRecord
  2
1HATCH
 70
     0
 62
     7
  6
CONTINUOUS
  0
ENDTAB
  0
TABLE
  2
STYLE
  5
3
330
0
100
AcDbSymbolTable
 70
     1
  0
STYLE
  5
F
330
3
100
AcDbSymbolTableRecord
100
AcDbTextStyleTableRecord
  2
STANDARD
 70
     0
 40
0.0
 41
1.0
 50
0.0
 71
     0
 42
4.0
  3
txt.shx
  4
extfont.shx
  0
ENDTAB
  0
TABLE
  2
VIEW
  5
6
330
0
100
AcDbSymbolTable
 70
     0
  0
ENDTAB
  0
TABLE
  2
UCS
  5
7
330
0
100
AcDbSymbolTable
 70
     0
  0
ENDTAB
  0
TABLE
  2
APPID
  5
9
330
0
100
AcDbSymbolTable
 70
    19
  0
APPID
  5
10
330
9
100
AcDbSymbolTableRecord
100
AcDbRegAppTableRecord
  2
ACAD
 70
     0
  0
APPID
  5
21
330
9
100
AcDbSymbolTableRecord
100
AcDbRegAppTableRecord
  2
DRAWINGVARIABLESXDATA
 70
     0
  0
APPID
  5
64
330
9
100
AcDbSymbolTableRecord
100
AcDbRegAppTableRecord
  2
CONTENTTABDATA
 70
     0
  0
APPID
  5
65
330
9
100
AcDbSymbolTableRecord
100
AcDbRegAppTableRecord
  2
CONTENTCURRENTTAB
 70
     0
  0
APPID
  5
66
330
9
100
AcDbSymbolTableRecord
100
AcDbRegAppTableRecord
  2
CONTENTBLOCKDESCRIPTION
 70
     0
  0
APPID
  5
67
330
9
100
AcDbSymbolTableRecord
100
AcDbRegAppTableRecord
  2
CONTENTBLOCKICON
 70
     0
  0
APPID
  5
68
330
9
100
AcDbSymbolTableRecord
100
AcDbRegAppTableRecord
  2
CONTENTLONGBLOCKNAME
 70
     0
  0
APPID
  5
5A9
330
9
100
AcDbSymbolTableRecord
100
AcDbRegAppTableRecord
  2
ACAD_PSEXT
 70
     0
  0
APPID
  5
18AC
330
9
100
AcDbSymbolTableRecord
100
AcDbRegAppTableRecord
  2
ACAD_DSTYLE_DIMTEXT_FILL
 70
     0
  0
APPID
  5
19E1A
330
9
100
AcDbSymbolTableRecord
100
AcDbRegAppTableRecord
  2
ACAD_MLEADERVER
 70
     0
  0
APPID
  5
1A2FA
330
9
100
AcDbSymbolTableRecord
100
AcDbRegAppTableRecord
  2
ACAD_DSTYLE_DIMRADIAL_EXTE
 70
     0
  0
APPID
  5
1DBC1
330
9
100
AcDbSymbolTableRecord
100
AcDbRegAppTableRecord
  2
ACADANNOTATIVE
 70
     0
  0
APPID
  5
1E991
330
9
100
AcDbSymbolTableRecord
100
AcDbRegAppTableRecord
  2
ACAD_EXEMPT_FROM_CAD_STAND
 70
     0
  0
APPID
  5
22BFE
330
9
100
AcDbSymbolTableRecord
100
AcDbRegAppTableRecord
  2
ACAD_NAV_VCDISPLAY
 70
     0
  0
APPID
  5
22BFF
330
9
100
AcDbSymbolTableRecord
100
AcDbRegAppTableRecord
  2
ACLAYERTOOLS
 70
     0
  0
APPID
  5
22C00
330
9
100
AcDbSymbolTableRecord
100
AcDbRegAppTableRecord
  2
GRADIENTCOLOR1ACI
 70
     0
  0
APPID
  5
22C01
330
9
100
AcDbSymbolTableRecord
100
AcDbRegAppTableRecord
  2
GRADIENTCOLOR2ACI
 70
     0
  0
APPID
  5
22C02
330
9
100
AcDbSymbolTableRecord
100
AcDbRegAppTableRecord
  2
ACAD_SPLINE_DATA
 70
     0
  0
APPID
  5
24B60
330
9
100
AcDbSymbolTableRecord
100
AcDbRegAppTableRecord
  2
ACADSTRINGINFO
 70
     0
  0
ENDTAB
  0
TABLE
  2
DIMSTYLE
  5
A
330
0
100
AcDbSymbolTable
 70
     1
  0
DIMSTYLE
105
48
330
A
100
AcDbSymbolTableRecord
100
AcDbDimStyleTableRecord
  2
NEWX10
 70
     0
  3
 
  4

  5

  6
OPEN30
  7
OPEN30
 40
1.0
 41
2.0
 42
0.0
 43
7.0
 44
1.0
 45
0.0
 46
0.0
 47
0.0
 48
0.0
140
3.5
141
0.0
142
0.0
143
25.4
144
1.0
145
0.0
146
0.7
147
0.7
 71
     0
 72
     0
 73
     0
 74
     0
 75
     0
 76
     0
 77
     1
 78
     8
170
     0
171
     2
172
     1
173
     1
174
     0
175
     0
176
   256
177
   256
178
   201
179
     2
270
     2
271
     2
272
     4
273
     2
274
     2
340
F
275
     0
280
     0
281
     0
282
     0
283
     1
284
     8
285
     0
286
     0
287
     2
288
     0
  0
ENDTAB
  0
TABLE
  2
BLOCK_RECORD
  5
1
330
0
100
AcDbSymbolTable
 70
     1
  0
BLOCK_RECORD
  5
18
102
{ACAD_XDICTIONARY
360
6E9
102
}
330
1
100
AcDbSymbolTableRecord
100
AcDbBlockTableRecord
  2
*MODEL_SPACE
  0
BLOCK_RECORD
  5
15
102
{ACAD_XDICTIONARY
360
59B
102
}
330
1
100
AcDbSymbolTableRecord
100
AcDbBlockTableRecord
  2
*PAPER_SPACE
  0
BLOCK_RECORD
  5
42
330
1
100
AcDbSymbolTableRecord
100
AcDbBlockTableRecord
  2
_OPEN30
  0
ENDTAB
  0
ENDSEC
  0
SECTION
  2
BLOCKS
  0
BLOCK
  5
19
330
18
100
AcDbEntity
  8
0
100
AcDbBlockBegin
  2
*MODEL_SPACE
 70
     0
 10
0.0
 20
0.0
 30
0.0
  3
*MODEL_SPACE
  1

  0
ENDBLK
  5
1A
330
18
100
AcDbEntity
  8
0
100
AcDbBlockEnd
  0
BLOCK
  5
16
330
15
100
AcDbEntity
 67
     1
  8
0
100
AcDbBlockBegin
  2
*PAPER_SPACE
 70
     0
 10
0.0
 20
0.0
 30
0.0
  3
*PAPER_SPACE
  1

  0
ENDBLK
  5
17
330
15
100
AcDbEntity
 67
     1
  8
0
100
AcDbBlockEnd
  0
BLOCK
  5
43
330
42
100
AcDbEntity
  8
0
100
AcDbBlockBegin
  2
_OPEN30
 70
     0
 10
0.0
 20
0.0
 30
0.0
  3
_OPEN30
  1

  0
LINE
  5
44
330
42
100
AcDbEntity
  8
0
  6
BYBLOCK
 62
     0
100
AcDbLine
 10
-1.0
 20
0.26794919
 30
0.0
 11
0.0
 21
0.0
 31
0.0
  0
LINE
  5
45
330
42
100
AcDbEntity
  8
0
  6
BYBLOCK
 62
     0
100
AcDbLine
 10
0.0
 20
0.0
 30
0.0
 11
-1.0
 21
-0.26794919
 31
0.0
  0
LINE
  5
46
330
42
100
AcDbEntity
  8
0
  6
BYBLOCK
 62
     0
100
AcDbLine
 10
0.0
 20
0.0
 30
0.0
 11
-1.0
 21
0.0
 31
0.0
  0
ENDBLK
  5
47
330
42
100
AcDbEntity
  8
0
100
AcDbBlockEnd
  0
ENDSEC
  0
SECTION
  2
ENTITIES
  0
LINE
  5
20F12
330
18
100
AcDbEntity
  8
1PHANTOM
100
AcDbLine
 10
2701.14989421162
 20
-952.1082014724278
 30
0.0
 11
2701.14989421162
 21
-852.1083021673614
 31
0.0
  0
TEXT
  5
22318
330
18
100
AcDbEntity
  8
1TEXT
100
AcDbText
 10
2578.692234796076
 20
-607.9601475872007
 30
0.0
 40
15.9999999984
  1
SH-022-XX-3
 41
0.8
100
AcDbText
  0
LINE
  5
22319
330
18
100
AcDbEntity
  8
1DIM
100
AcDbLine
 10
2578.692234796076
 20
-631.9601475848008
 30
0.0
 11
2648.692234789076
 21
-631.9601475848007
 31
0.0
  0
LINE
  5
2231A
330
18
100
AcDbEntity
  8
1DIM
100
AcDbLine
 10
2648.692234789077
 20
-631.9601475848008
 30
0.0
 11
2788.692234775078
 21
-631.9601475848007
 31
0.0
  0
TEXT
  5
2231B
330
18
100
AcDbEntity
  8
1TEXT
100
AcDbText
 10
2584.223716277005
 20
-628.9601475851007
 30
0.0
 40
7.9999999992
  1
\U+8868\U+9762\U+51E6\U+7406:\U+811A\U+90E8
 72
     1
 11
2613.692234792577
 21
-628.9601475851007
 31
0.0
100
AcDbText
  0
LINE
  5
2231C
330
18
100
AcDbEntity
  8
1DIM
100
AcDbLine
 10
2578.692234796076
 20
-617.9601475862007
 30
0.0
 11
2648.692234789077
 21
-617.9601475862007
 31
0.0
  0
LINE
  5
2231D
330
18
100
AcDbEntity
  8
1DIM
100
AcDbLine
 10
2648.692234789077
 20
-617.9601475862007
 30
0.0
 11
2788.692234775078
 21
-617.9601475862008
 31
0.0
  0
TEXT
  5
2231E
330
18
100
AcDbEntity
  8
1TEXT
100
AcDbText
 10
2739.758901446638
 20
-628.9601475851007
 30
0.0
 40
7.9999999992
  1
\U+30B3\U+30FC\U+30C9
 72
     1
 11
2753.492234778597
 21
-628.9601475851007
 31
0.0
100
AcDbText
  0
LINE
  5
2231F
330
18
100
AcDbEntity
  8
1DIM
100
AcDbLine
 10
2648.692234789077
 20
-645.9601475834016
 30
0.0
 11
2788.692234775078
 21
-645.9601475833999
 31
0.0
  0
TEXT
  5
22320
330
18
100
AcDbEntity
  8
1TEXT
100
AcDbText
 10
2605.025568126776
 20
-642.9159376236745
 30
0.0
 40
7.9999999992
  1
\U+93E1\U+9762
 72
     1
 11
2613.692234792577
 21
-642.9159376236745
 31
0.0
100
AcDbText
  0
LINE
  5
22321
330
18
100
AcDbEntity
  8
1DIM
100
AcDbLine
 10
2648.692234789077
 20
-617.9601475862007
 30
0.0
 11
2648.692234789077
 21
-659.960147582003
 31
0.0
  0
LINE
  5
22322
330
18
100
AcDbEntity
  8
1DIM
100
AcDbLine
 10
2788.692234775078
 20
-617.9601475862007
 30
0.0
 11
2788.692234775078
 21
-659.9601475820019
 31
0.0
  0
LINE
  5
22323
330
18
100
AcDbEntity
  8
1DIM
100
AcDbLine
 10
2578.692234796076
 20
-617.9601475862007
 30
0.0
 11
2578.692234796076
 21
-659.9601475820036
 31
0.0
  0
TEXT
  5
22324
330
18
100
AcDbEntity
  8
1TEXT
100
AcDbText
 10
2724.092234781539
 20
-643.3888615509567
 30
0.0
 40
7.9999999992
  1
SH-022-XP-3
 41
0.7
 72
     1
 11
2753.492234778599
 21
-643.3888615509567
 31
0.0
100
AcDbText
  0
LINE
  5
22325
330
18
100
AcDbEntity
  8
1DIM
100
AcDbLine
 10
2578.692234796074
 20
-645.9601475834016
 30
0.0
 11
2648.692234789075
 21
-645.9601475834025
 31
0.0
  0
TEXT
  5
22338
330
18
100
AcDbEntity
  8
1TEXT
100
AcDbText
 10
2655.290382936565
 20
-628.9601475851007
 30
0.0
 40
7.9999999992
  1
\U+8868\U+9762\U+51E6\U+7406:\U+63E1\U+308A
 72
     1
 11
2683.692234785577
 21
-628.9601475851007
 31
0.0
100
AcDbText
  0
TEXT
  5
22339
330
18
100
AcDbEntity
  8
1TEXT
100
AcDbText
 10
2675.025568119777
 20
-642.9159376236745
 30
0.0
 40
7.9999999992
  1
\U+93E1\U+9762
 72
     1
 11
2683.692234785577
 21
-642.9159376236745
 31
0.0
100
AcDbText
  0
LINE
  5
2233A
330
18
100
AcDbEntity
  8
1DIM
100
AcDbLine
 10
2718.692234782077
 20
-617.9601475862007
 30
0.0
 11
2718.692234782077
 21
-659.9601475820024
 31
0.0
  0
LINE
  5
23C06
330
18
100
AcDbEntity
  8
1PHANTOM
100
AcDbLine
 10
2709.14989421162
 20
-952.1082014724278
 30
0.0
 11
2709.14989421162
 21
-852.1083021673614
 31
0.0
  0
LINE
  5
23C09
330
18
100
AcDbEntity
  8
01
100
AcDbLine
 10
2709.14989421162
 20
-909.8582367653134
 30
0.0
 11
2701.14989421162
 21
-909.8582367653134
 31
0.0
  0
LINE
  5
23C0A
330
18
100
AcDbEntity
  8
01
100
AcDbLine
 10
2709.14989421162
 20
-910.1082367653134
 30
0.0
 11
2701.14989421162
 21
-910.1082367653134
 31
0.0
  0
LINE
  5
23C0B
330
18
100
AcDbEntity
  8
01
100
AcDbLine
 10
2709.14989421162
 20
-894.3582367653134
 30
0.0
 11
2701.14989421162
 21
-894.3582367653134
 31
0.0
  0
LINE
  5
23C0C
330
18
100
AcDbEntity
  8
01
100
AcDbLine
 10
2709.14989421162
 20
-894.1082367653134
 30
0.0
 11
2701.14989421162
 21
-894.1082367653134
 31
0.0
  0
LINE
  5
23C21
330
18
100
AcDbEntity
  8
1CENTER
100
AcDbLine
 10
2696.583638036741
 20
-902.1082433879676
 30
0.0
 11
2762.11162448079
 21
-902.1082433879676
 31
0.0
  0
LINE
  5
23C4D
330
18
100
AcDbEntity
  8
1CENTER
100
AcDbLine
 10
2683.827250980619
 20
-902.1082433879676
 30
0.0
 11
2752.652798756052
 21
-902.1082433879676
 31
0.0
  0
LINE
  5
245B9
330
18
100
AcDbEntity
  8
01
  6
CONTINUOUS
100
AcDbLine
 10
2121.649835994839
 20
-629.1081231258718
 30
0.0
 11
2172.719854829274
 21
-629.1081231258675
 31
0.0
  0
LINE
  5
245BC
330
18
100
AcDbEntity
  8
01
  6
CONTINUOUS
100
AcDbLine
 10
2121.649835994839
 20
-604.1081231258709
 30
0.0
 11
2170.296526831401
 21
-604.1081231258709
 31
0.0
  0
LINE
  5
245BE
330
18
100
AcDbEntity
  8
01
  6
CONTINUOUS
100
AcDbLine
 10
2121.149835994839
 20
-604.6081231258709
 30
0.0
 11
2121.649835994839
 21
-604.1081231258709
 31
0.0
  0
LINE
  5
245C0
330
18
100
AcDbEntity
  8
01
  6
CONTINUOUS
100
AcDbLine
 10
2491.149835977298
 20
-604.6081231258709
 30
0.0
 11
2490.649835977298
 21
-604.1081231258709
 31
0.0
  0
LINE
  5
245C1
330
18
100
AcDbEntity
  8
01
  6
CONTINUOUS
100
AcDbLine
 10
2121.149835994876
 20
-604.6081231258722
 30
0.0
 11
2121.649835994876
 21
-604.1081231258722
 31
0.0
  0
LINE
  5
245C2
330
18
100
AcDbEntity
  8
01
  6
CONTINUOUS
100
AcDbLine
 10
2491.149835977298
 20
-604.6081231258709
 30
0.0
 11
2490.649835977298
 21
-604.1081231258709
 31
0.0
  0
LINE
  5
245C3
330
18
100
AcDbEntity
  8
01
  6
CONTINUOUS
100
AcDbLine
 10
2491.149835977261
 20
-604.6081231258722
 30
0.0
 11
2490.649835977261
 21
-604.1081231258722
 31
0.0
  0
LINE
  5
245C4
330
18
100
AcDbEntity
  8
01
  6
CONTINUOUS
100
AcDbLine
 10
2121.149835994839
 20
-628.6081231258718
 30
0.0
 11
2121.649835994839
 21
-629.1081231258718
 31
0.0
  0
LINE
  5
245C5
330
18
100
AcDbEntity
  8
01
  6
CONTINUOUS
100
AcDbLine
 10
2491.149835977298
 20
-628.6081231258718
 30
0.0
 11
2490.649835977298
 21
-629.1081231258718
 31
0.0
  0
LINE
  5
245C8
330
18
100
AcDbEntity
  8
01
  6
CONTINUOUS
100
AcDbLine
 10
2063.151190129945
 20
-664.1081511249662
 30
0.0
 11
2063.151190129945
 21
-663.6081511249662
 31
0.0
  0
LINE
  5
245C9
330
18
100
AcDbEntity
  8
01
  6
CONTINUOUS
100
AcDbLine
 10
2068.151190131999
 20
-611.6081511249663
 30
0.0
 11
2101.151190129924
 21
-611.6081511249663
 31
0.0
  0
LINE
  5
245CA
330
18
100
AcDbEntity
  8
01
  6
CONTINUOUS
100
AcDbLine
 10
2061.651190129232
 20
-611.6081430499721
 30
0.0
 11
2068.151190131999
 21
-611.6081430499617
 31
0.0
  0
ARC
  5
245CB
330
18
100
AcDbEntity
  8
01
  6
CONTINUOUS
100
AcDbCircle
 10
2061.65116917377
 20
-612.1081850797673
 30
0.0
 40
0.5000339557062715
100
AcDbArc
 50
90.00345873761577
 51
180.8491251521503
  0
LINE
  5
245CC
330
18
100
AcDbEntity
  8
01
  6
CONTINUOUS
100
AcDbLine
 10
2121.151190129945
 20
-604.4582697419337
 30
0.0
 11
2120.651416409137
 21
-603.9585009613297
 31
0.0
  0
LINE
  5
245CD
330
18
100
AcDbEntity
  8
01
  6
CONTINUOUS
100
AcDbLine
 10
2061.151190129945
 20
-664.1081511249662
 30
0.0
 11
2061.151190129945
 21
-612.1155953265497
 31
0.0
  0
LINE
  5
245CE
330
18
100
AcDbEntity
  8
01
  6
CONTINUOUS
100
AcDbLine
 10
2120.651190129945
 20
-603.9581511249662
 30
0.0
 11
2117.123901233553
 21
-603.9581511249662
 31
0.0
  0
LINE
  5
245D0
330
18
100
AcDbEntity
  8
01
  6
CONTINUOUS
100
AcDbLine
 10
2099.148362087798
 20
-663.6081511249662
 30
0.0
 11
2063.151190129945
 21
-663.6081511249662
 31
0.0
  0
LINE
  5
245D2
330
18
100
AcDbEntity
  8
01
  6
CONTINUOUS
100
AcDbLine
 10
2121.151190129945
 20
-604.4582697419337
 30
0.0
 11
2121.149804617291
 21
-628.7587645382832
 31
0.0
  0
LINE
  5
245D4
330
18
100
AcDbEntity
  8
01
  6
CONTINUOUS
100
AcDbLine
 10
2120.649776108872
 20
-629.2587645374706
 30
0.0
 11
2121.149804617291
 21
-628.7587645382832
 31
0.0
  0
LINE
  5
245D5
330
18
100
AcDbEntity
  8
01
  6
CONTINUOUS
100
AcDbLine
 10
2061.151190129945
 20
-664.1081511249662
 30
0.0
 11
2101.148362087798
 21
-664.1081511249662
 31
0.0
  0
ARC
  5
245D6
330
18
100
AcDbEntity
  8
01
  6
CONTINUOUS
100
AcDbCircle
 10
2101.151190129924
 20
-591.6081511249663
 30
0.0
 40
20.0
100
AcDbArc
 50
270.0
 51
321.1834228102991
  0
ARC
  5
245D7
330
18
100
AcDbEntity
  8
01
  6
CONTINUOUS
100
AcDbCircle
 10
2117.123901233553
 20
-604.4581511249662
 30
0.0
 40
0.5
100
AcDbArc
 50
90.0
 51
141.1834228102991
  0
LINE
  5
245D8
330
18
100
AcDbEntity
  8
01
  6
CONTINUOUS
100
AcDbLine
 10
2116.148362087798
 20
-629.2587645374706
 30
0.0
 11
2120.649776108872
 21
-629.2587645374706
 31
0.0
  0
LINE
  5
245D9
330
18
100
AcDbEntity
  8
01
  6
CONTINUOUS
100
AcDbLine
 10
2101.148362087798
 20
-644.2587645374706
 30
0.0
 11
2101.148362087798
 21
-664.1081511249662
 31
0.0
  0
LINE
  5
245DA
330
18
100
AcDbEntity
  8
01
  6
CONTINUOUS
100
AcDbLine
 10
2099.148362087798
 20
-663.6081511249662
 30
0.0
 11
2099.148362087798
 21
-664.1081511249662
 31
0.0
  0
ARC
  5
245DB
330
18
100
AcDbEntity
  8
01
  6
CONTINUOUS
100
AcDbCircle
 10
2116.148362087798
 20
-644.2587645374706
 30
0.0
 40
15.0
100
AcDbArc
 50
90.0
 51
180.0
  0
LINE
  5
245DC
330
18
100
AcDbEntity
  8
1HATCH
100
AcDbLine
 10
2085.149785416051
 20
-663.1081511249657
 30
0.0
 11
2085.149785416051
 21
-649.1081511249668
 31
0.0
  0
LINE
  5
245DD
330
18
100
AcDbEntity
  8
01
  6
CONTINUOUS
100
AcDbLine
 10
2084.524785416051
 20
-662.4831511249662
 30
0.0
 11
2084.524785416051
 21
-649.1081511249668
 31
0.0
  0
LINE
  5
245DE
330
18
100
AcDbEntity
  8
1HATCH
100
AcDbLine
 10
2077.149785416051
 20
-663.1081511249662
 30
0.0
 11
2077.149785416051
 21
-649.1081511249663
 31
0.0
  0
LINE
  5
245DF
330
18
100
AcDbEntity
  8
01
  6
CONTINUOUS
100
AcDbLine
 10
2077.774785416051
 20
-662.4831511249662
 30
0.0
 11
2077.77478541605
 21
-649.1081511249663
 31
0.0
  0
LINE
  5
245E0
330
18
100
AcDbEntity
  8
01
  6
CONTINUOUS
100
AcDbLine
 10
2077.774785416051
 20
-662.4831511249662
 30
0.0
 11
2076.649785416051
 21
-663.6081511249662
 31
0.0
  0
LINE
  5
245E1
330
18
100
AcDbEntity
  8
01
  6
CONTINUOUS
100
AcDbLine
 10
2084.524785416051
 20
-662.4831511249662
 30
0.0
 11
2085.649785416051
 21
-663.6081511249662
 31
0.0
  0
LINE
  5
245E2
330
18
100
AcDbEntity
  8
01
  6
CONTINUOUS
100
AcDbLine
 10
2084.524785416051
 20
-662.4831511249662
 30
0.0
 11
2077.774785416051
 21
-662.4831511249662
 31
0.0
  0
LINE
  5
245E3
330
18
100
AcDbEntity
  8
1CENTER
100
AcDbLine
 10
2081.149785416051
 20
-666.879751377607
 30
0.0
 11
2081.149785416051
 21
-644.8774242672162
 31
0.0
  0
LINE
  5
245E6
330
18
100
AcDbEntity
  8
01
  6
CONTINUOUS
100
AcDbLine
 10
2121.151127444552
 20
-627.6581231258715
 30
0.0
 11
2121.149867372387
 21
-627.6581231258715
 31
0.0
  0
LINE
  5
245EA
330
18
100
AcDbEntity
  8
01
  6
CONTINUOUS
100
AcDbLine
 10
2064.232154445753
 20
-661.1081511249662
 30
-0.0000000000000002
 11
2073.184938273101
 21
-661.1081511249662
 31
-0.0000000000000002
  0
LINE
  5
245EB
330
18
100
AcDbEntity
  8
01
  6
CONTINUOUS
100
AcDbLine
 10
2089.114632558991
 20
-661.1081511249662
 30
-0.0000000000000002
 11
2098.064559270566
 21
-661.1081511249662
 31
-0.0000000000000002
  0
SPLINE
  5
245F0
330
18
100
AcDbEntity
  8
01
  6
CONTINUOUS
100
AcDbSpline
210
0.0
220
0.0
230
1.0
 70
    24
 71
     1
 72
     4
 73
     2
 74
     0
 42
0.000000001
 43
0.0000000001
 40
0.2951491676594302
 40
0.2951491676594302
 40
1.0
 40
1.0
 10
2097.346921958332
 20
-635.4163382861552
 30
-0.0000000000000002
 10
2098.064559270567
 20
-661.1081511249662
 30
-0.0000000000000002
  0
SPLINE
  5
245F1
330
18
100
AcDbEntity
  8
01
  6
CONTINUOUS
100
AcDbSpline
210
0.0
220
0.0
230
1.0
 70
     8
 71
     3
 72
    10
 73
     6
 74
     0
 42
0.000000001
 43
0.0000000001
 40
0.0
 40
0.0
 40
0.0
 40
0.0
 40
0.3297042123624097
 40
0.3297042123624097
 40
0.4932834424075078
 40
0.4932834424075078
 40
0.4932834424075078
 40
0.4932834424075078
 10
2087.114753666781
 20
-659.1430559378408
 30
-0.0000000000000002
 10
2087.075724018284
 20
-656.907322816501
 30
-0.0000000000000002
 10
2087.036694275997
 20
-654.6715896967988
 30
-0.0000000000000002
 10
2086.978300194239
 20
-651.3266214271134
 30
-0.0000000000000002
 10
2086.958935929826
 20
-650.2173862758191
 30
-0.0000000000000002
 10
2086.939571640148
 20
-649.1081511249663
 30
-0.0000000000000002
  0
SPLINE
  5
245F2
330
18
100
AcDbEntity
  8
01
  6
CONTINUOUS
100
AcDbSpline
210
0.0
220
0.0
230
1.0
 70
     8
 71
     3
 72
    18
 73
    14
 74
     0
 42
0.000000001
 43
0.0000000001
 40
0.0
 40
0.0
 40
0.0
 40
0.0
 40
0.1491836439573175
 40
0.1491836439573175
 40
0.3665111986410106
 40
0.3665111986410106
 40
0.5013291952135889
 40
0.5013291952135889
 40
0.7187104550279313
 40
0.7187104550279313
 40
0.9360912682572584
 40
0.9360912682572584
 40
1.0
 40
1.0
 40
1.0
 40
1.0
 10
2087.114753666781
 20
-659.1430559378408
 30
-0.0000000000000002
 10
2087.117439175378
 20
-659.2968897731492
 30
-0.0000000000000002
 10
2087.138133213233
 20
-659.4514236267227
 30
-0.0000000000000002
 10
2087.231126876751
 20
-659.8174747374186
 30
-0.0000000000000002
 10
2087.324449435222
 20
-660.0278816347262
 30
-0.0000000000000002
 10
2087.525729778453
 20
-660.3310322311735
 30
-0.0000000000000002
 10
2087.616023050913
 20
-660.4401292383453
 30
-0.0000000000000002
 10
2087.876236788145
 20
-660.6945747064
 30
-0.0000000000000002
 10
2088.065537155445
 20
-660.8256159166184
 30
-0.0000000000000002
 10
2088.471245981078
 20
-661.0150407887699
 30
-0.0000000000000002
 10
2088.693249443525
 20
-661.0760369837011
 30
-0.0000000000000002
 10
2088.981977707289
 20
-661.1048480017374
 30
-0.0000000000000002
 10
2089.048346003191
 20
-661.1081511249662
 30
-0.0000000000000002
 10
2089.11463255899
 20
-661.1081511249662
 30
-0.0000000000000002
  0
SPLINE
  5
245F4
330
18
100
AcDbEntity
  8
01
  6
CONTINUOUS
100
AcDbSpline
210
0.0
220
0.0
230
1.0
 70
     8
 71
     3
 72
    18
 73
    14
 74
     0
 42
0.000000001
 43
0.0000000001
 40
0.0
 40
0.0
 40
0.0
 40
0.0
 40
0.0125882267338007
 40
0.0125882267338007
 40
0.2299591031884788
 40
0.2299591031884788
 40
0.4473371515263956
 40
0.4473371515263956
 40
0.6647115240320742
 40
0.6647115240320742
 40
0.7995910239647634
 40
0.7995910239647634
 40
1.0
 40
1.0
 40
1.0
 40
1.0
 10
2073.184938273101
 20
-661.1081511249662
 30
-0.0000000000000002
 10
2073.198068366849
 20
-661.1081511249662
 30
-0.0000000000000002
 10
2073.211199097017
 20
-661.1080218306828
 30
-0.0000000000000002
 10
2073.448157017033
 20
-661.103354878487
 30
-0.0000000000000002
 10
2073.674312831826
 20
-661.0602421416564
 30
-0.0000000000000002
 10
2074.09382831172
 20
-660.9037461509105
 30
-0.0000000000000002
 10
2074.292972582265
 20
-660.788202287083
 30
-0.0000000000000002
 10
2074.637038815204
 20
-660.5016618703852
 30
-0.0000000000000002
 10
2074.786706952462
 20
-660.3267140539718
 30
-0.0000000000000002
 10
2074.973537104362
 20
-660.0143063574673
 30
-0.0000000000000002
 10
2075.033075136054
 20
-659.8857360697478
 30
-0.0000000000000002
 10
2075.144840938828
 20
-659.5576961378068
 30
-0.0000000000000002
 10
2075.181214149178
 20
-659.3494473048985
 30
-0.0000000000000002
 10
2075.184817165312
 20
-659.1430559378408
 30
-0.0000000000000002
  0
LINE
  5
245F6
330
18
100
AcDbEntity
  8
01
  6
CONTINUOUS
100
AcDbLine
 10
2086.939571640149
 20
-649.1081511249668
 30
-0.0000000000000002
 11
2075.359999191945
 21
-649.1081511249663
 31
-0.0000000000000002
  0
LINE
  5
245F9
330
18
100
AcDbEntity
  8
01
  6
CONTINUOUS
100
AcDbLine
 10
2075.184817165312
 20
-659.1430559378408
 30
-0.0000000000000002
 11
2075.359999191945
 21
-649.1081511249663
 31
-0.0000000000000002
  0
LINE
  5
245FA
330
18
100
AcDbEntity
  8
01
  6
CONTINUOUS
100
AcDbLine
 10
2064.232154445753
 20
-661.1081511249662
 30
-0.0000000000000002
 11
2064.998089399696
 21
-633.6872559905651
 31
-0.0000000000000002
  0
LINE
  5
245FE
330
18
100
AcDbEntity
  8
01
  6
CONTINUOUS
100
AcDbLine
 10
2491.149835977298
 20
-604.6081231258709
 30
0.0
 11
2490.649835977298
 21
-604.1081231258709
 31
0.0
  0
LINE
  5
245FF
330
18
100
AcDbEntity
  8
01
  6
CONTINUOUS
100
AcDbLine
 10
2491.149835977261
 20
-604.6081231258722
 30
0.0
 11
2490.649835977261
 21
-604.1081231258722
 31
0.0
  0
LINE
  5
24600
330
18
100
AcDbEntity
  8
01
  6
CONTINUOUS
100
AcDbLine
 10
2491.149835977298
 20
-628.6081231258718
 30
0.0
 11
2490.649835977298
 21
-629.1081231258718
 31
0.0
  0
LINE
  5
24602
330
18
100
AcDbEntity
  8
01
  6
CONTINUOUS
100
AcDbLine
 10
2544.148481840138
 20
-611.6081511249663
 30
0.0
 11
2511.148481842213
 21
-611.6081511249663
 31
0.0
  0
LINE
  5
24603
330
18
100
AcDbEntity
  8
01
  6
CONTINUOUS
100
AcDbLine
 10
2550.648481842905
 20
-611.6081430499721
 30
0.0
 11
2544.148481840138
 21
-611.6081430499617
 31
0.0
  0
ARC
  5
24604
330
18
100
AcDbEntity
  8
01
  6
CONTINUOUS
100
AcDbCircle
 10
2550.648502798367
 20
-612.1081850797673
 30
0.0
 40
0.5000339557062715
100
AcDbArc
 50
359.1508748478496
 51
89.99654126238424
  0
LINE
  5
24605
330
18
100
AcDbEntity
  8
01
  6
CONTINUOUS
100
AcDbLine
 10
2491.148481842192
 20
-604.4582697419337
 30
0.0
 11
2491.648255563
 21
-603.9585009613297
 31
0.0
  0
LINE
  5
24606
330
18
100
AcDbEntity
  8
01
  6
CONTINUOUS
100
AcDbLine
 10
2551.148481842192
 20
-664.1081511249663
 30
0.0
 11
2551.148481842192
 21
-612.1155953265497
 31
0.0
  0
LINE
  5
24607
330
18
100
AcDbEntity
  8
01
  6
CONTINUOUS
100
AcDbLine
 10
2491.648481842192
 20
-603.9581511249662
 30
0.0
 11
2495.175770738584
 21
-603.9581511249662
 31
0.0
  0
LINE
  5
2460D
330
18
100
AcDbEntity
  8
01
  6
CONTINUOUS
100
AcDbLine
 10
2491.649895863265
 20
-629.2587645374706
 30
0.0
 11
2491.149867354845
 21
-628.7587645382832
 31
0.0
  0
LINE
  5
2460E
330
18
100
AcDbEntity
  8
01
  6
CONTINUOUS
100
AcDbLine
 10
2551.148481842192
 20
-664.1081511249663
 30
0.0
 11
2511.151309884338
 21
-664.1081511249663
 31
0.0
  0
ARC
  5
2460F
330
18
100
AcDbEntity
  8
01
  6
CONTINUOUS
100
AcDbCircle
 10
2511.148481842213
 20
-591.6081511249663
 30
0.0
 40
20.0
100
AcDbArc
 50
218.8165771897181
 51
270.0
  0
ARC
  5
24610
330
18
100
AcDbEntity
  8
01
  6
CONTINUOUS
100
AcDbCircle
 10
2495.175770738584
 20
-604.4581511249662
 30
0.0
 40
0.5
100
AcDbArc
 50
38.81657718971815
 51
90.0
  0
LINE
  5
24611
330
18
100
AcDbEntity
  8
01
  6
CONTINUOUS
100
AcDbLine
 10
2496.151309884338
 20
-629.2587645374706
 30
0.0
 11
2491.649895863265
 21
-629.2587645374706
 31
0.0
  0
LINE
  5
24612
330
18
100
AcDbEntity
  8
01
  6
CONTINUOUS
100
AcDbLine
 10
2511.151309884338
 20
-644.2587645374706
 30
0.0
 11
2511.151309884338
 21
-664.1081511249663
 31
0.0
  0
ARC
  5
24614
330
18
100
AcDbEntity
  8
01
  6
CONTINUOUS
100
AcDbCircle
 10
2496.151309884338
 20
-644.2587645374706
 30
0.0
 40
15.0
100
AcDbArc
 50
0.0
 51
90.0
  0
LINE
  5
2461C
330
18
100
AcDbEntity
  8
1CENTER
100
AcDbLine
 10
2531.149886556086
 20
-664.8797513776071
 30
0.0
 11
2531.149886556086
 21
-642.8774242672162
 31
0.0
  0
LINE
  5
24637
330
18
100
AcDbEntity
  8
1PHANTOM
100
AcDbLine
 10
2039.012188032093
 20
-664.1081511249662
 30
0.0
 11
2582.328908948006
 21
-664.1081511249663
 31
0.0
  0
LINE
  5
24638
330
18
100
AcDbEntity
  8
1PHANTOM
100
AcDbLine
 10
2039.012188032093
 20
-672.1081511249662
 30
0.0
 11
2582.328908948006
 21
-672.1081511249663
 31
0.0
  0
LINE
  5
2463A
330
18
100
AcDbEntity
  8
01
100
AcDbLine
 10
2061.151199437124
 20
-674.6081511249657
 30
0.0
 11
2063.89978541605
 21
-674.6081511249653
 31
0.0
  0
LINE
  5
2463B
330
18
100
AcDbEntity
  8
01
100
AcDbLine
 10
2066.891126392075
 20
-674.6081511249657
 30
0.0
 11
2095.40842912896
 21
-674.6081511249666
 31
0.0
  0
LINE
  5
2463C
330
18
100
AcDbEntity
  8
01
  6
CONTINUOUS
100
AcDbLine
 10
2098.39978541605
 20
-674.6081511249671
 30
0.0
 11
2101.148371394978
 21
-674.6081511249666
 31
0.0
  0
LINE
  5
2463D
330
18
100
AcDbEntity
  8
01
  6
CONTINUOUS
100
AcDbLine
 10
2101.148371394978
 20
-674.6081511249666
 30
0.0
 11
2101.148371394978
 21
-672.1081511249662
 31
0.0
  0
LINE
  5
2463E
330
18
100
AcDbEntity
  8
01
  6
CONTINUOUS
100
AcDbLine
 10
2061.151199437124
 20
-674.6081511249657
 30
0.0
 11
2061.151199437124
 21
-672.1081511249662
 31
0.0
  0
LINE
  5
2463F
330
18
100
AcDbEntity
  8
01
  6
CONTINUOUS
100
AcDbLine
 10
2061.151199437124
 20
-672.1081511249662
 30
0.0
 11
2101.148371394978
 21
-672.1081511249662
 31
0.0
  0
LINE
  5
24640
330
18
100
AcDbEntity
  8
1CENTER
100
AcDbLine
 10
2081.149785416051
 20
-684.0454274059406
 30
0.0
 11
2081.149785416051
 21
-670.5919152077939
 31
0.0
  0
LINE
  5
24641
330
18
100
AcDbEntity
  8
01
  6
CONTINUOUS
100
AcDbLine
 10
2097.772287278053
 20
-682.4081511249664
 30
-0.0000000000000003
 11
2064.52728355405
 21
-682.4081511249664
 31
0.0
  0
LINE
  5
24642
330
18
100
AcDbEntity
  8
01
  6
CONTINUOUS
100
AcDbLine
 10
2064.027359706471
 20
-681.9168773281848
 30
-0.0000000000000003
 11
2064.018443709202
 21
-681.4060801867548
 31
-0.0000000000000003
  0
LINE
  5
24643
330
18
100
AcDbEntity
  8
01
  6
CONTINUOUS
100
AcDbLine
 10
2064.018443709202
 20
-681.4060801867548
 30
-0.0000000000000003
 11
2063.899785416051
 21
-674.6081511249662
 31
0.0000000000000002
  0
LINE
  5
24644
330
18
100
AcDbEntity
  8
01
  6
CONTINUOUS
100
AcDbLine
 10
2098.2811271229
 20
-681.4060801867548
 30
-0.0000000000000003
 11
2098.399785416051
 21
-674.6081511249662
 31
0.0000000000000002
  0
LINE
  5
24645
330
18
100
AcDbEntity
  8
01
100
AcDbLine
 10
2098.272211125631
 20
-681.9168773281848
 30
-0.0000000000000003
 11
2098.2811271229
 21
-681.4060801867548
 31
-0.0000000000000003
  0
ARC
  5
24646
330
18
100
AcDbEntity
  8
01
  6
CONTINUOUS
100
AcDbCircle
 10
2064.52728355405
 20
-681.9081511249664
 30
0.0000000000000024
 40
0.5
100
AcDbArc
 50
180.9999999999757
 51
270.0
  0
ARC
  5
24647
330
18
100
AcDbEntity
  8
01
  6
CONTINUOUS
100
AcDbCircle
 10
2097.772287278051
 20
-681.9081511249664
 30
0.0000000000000024
 40
0.5
100
AcDbArc
 50
270.0
 51
358.9999999999722
  0
LINE
  5
24648
330
18
100
AcDbEntity
  8
01
  6
CONTINUOUS
100
AcDbLine
 10
2096.027352050937
 20
-681.9168773281862
 30
0.0
 11
2095.908352976538
 21
-675.0994249217491
 31
0.0
  0
ARC
  5
24649
330
18
100
AcDbEntity
  8
01
  6
CONTINUOUS
100
AcDbCircle
 10
2096.527275898515
 20
-681.9081511249677
 30
0.0
 40
0.5
100
AcDbArc
 50
181.0000000000018
 51
270.0
  0
ARC
  5
2464A
330
18
100
AcDbEntity
  8
01
  6
CONTINUOUS
100
AcDbCircle
 10
2095.40842912896
 20
-675.1081511249675
 30
0.0
 40
0.5
100
AcDbArc
 50
1.000000000001736
 51
90.0
  0
LINE
  5
2464B
330
18
100
AcDbEntity
  8
01
  6
CONTINUOUS
100
AcDbLine
 10
2066.391202544497
 20
-675.0994249217478
 30
0.0
 11
2066.272203470098
 21
-681.9168773281853
 31
0.0
  0
ARC
  5
2464C
330
18
100
AcDbEntity
  8
01
  6
CONTINUOUS
100
AcDbCircle
 10
2065.772279622519
 20
-681.9081511249664
 30
0.0
 40
0.5
100
AcDbArc
 50
270.0
 51
358.9999999999982
  0
ARC
  5
2464D
330
18
100
AcDbEntity
  8
01
  6
CONTINUOUS
100
AcDbCircle
 10
2066.891126392075
 20
-675.1081511249662
 30
0.0
 40
0.5
100
AcDbArc
 50
90.0
 51
178.9999999999982
  0
LINE
  5
2464E
330
18
100
AcDbEntity
  8
01
  6
CONTINUOUS
100
AcDbLine
 10
2063.151199437124
 20
-672.6081511249662
 30
0.0
 11
2076.649794723231
 21
-672.6081511249662
 31
0.0
  0
LINE
  5
2464F
330
18
100
AcDbEntity
  8
01
  6
CONTINUOUS
100
AcDbLine
 10
2085.649776108872
 20
-672.6081511249657
 30
0.0
 11
2099.148371394978
 21
-672.6081511249662
 31
0.0
  0
LINE
  5
24650
330
18
100
AcDbEntity
  8
01
  6
CONTINUOUS
100
AcDbLine
 10
2099.148371394978
 20
-672.6081511249662
 30
0.0
 11
2099.148371394978
 21
-672.1081511249662
 31
0.0
  0
LINE
  5
24651
330
18
100
AcDbEntity
  8
01
  6
CONTINUOUS
100
AcDbLine
 10
2063.151199437124
 20
-672.6081511249662
 30
0.0
 11
2063.151199437124
 21
-672.1081511249662
 31
0.0
  0
LINE
  5
24652
330
18
100
AcDbEntity
  8
01
  6
CONTINUOUS
100
AcDbLine
 10
2076.649794723231
 20
-672.1081511249662
 30
0.0
 11
2076.649794723231
 21
-674.6081511249662
 31
0.0
  0
LINE
  5
24653
330
18
100
AcDbEntity
  8
01
  6
CONTINUOUS
100
AcDbLine
 10
2085.649776108872
 20
-672.1081511249662
 30
0.0
 11
2085.649776108872
 21
-674.6081511249657
 31
0.0
  0
LINE
  5
24654
330
18
100
AcDbEntity
  8
01
100
AcDbLine
 10
2085.649785416051
 20
-674.6081511249662
 30
0.0
 11
2076.649785416052
 21
-674.6081511249662
 31
0.0
  0
LINE
  5
24657
330
18
100
AcDbEntity
  8
01
  6
CONTINUOUS
100
AcDbLine
 10
2061.15119943712
 20
-674.6081511249653
 30
0.0
 11
2101.148371394973
 21
-674.6081511249662
 31
0.0
  0
LINE
  5
24658
330
18
100
AcDbEntity
  8
01
  6
CONTINUOUS
100
AcDbLine
 10
2062.15119943712
 20
-686.4081511249655
 30
0.0
 11
2100.148371394973
 21
-686.4081511249655
 31
0.0
  0
ARC
  5
24659
330
18
100
AcDbEntity
  8
01
  6
CONTINUOUS
100
AcDbCircle
 10
2062.15119943712
 20
-685.4081511249655
 30
0.0
 40
1.0
100
AcDbArc
 50
180.0
 51
270.0
  0
LINE
  5
2465A
330
18
100
AcDbEntity
  8
01
  6
CONTINUOUS
100
AcDbLine
 10
2101.148371394973
 20
-685.4081511249655
 30
0.0
 11
2101.148371394973
 21
-674.6081511249662
 31
0.0
  0
ARC
  5
2465B
330
18
100
AcDbEntity
  8
01
  6
CONTINUOUS
100
AcDbCircle
 10
2100.148371394973
 20
-685.4081511249655
 30
0.0
 40
1.0
100
AcDbArc
 50
270.0
 51
0.0
  0
LINE
  5
2465C
330
18
100
AcDbEntity
  8
01
  6
CONTINUOUS
100
AcDbLine
 10
2061.15119943712
 20
-685.4081511249655
 30
0.0
 11
2061.15119943712
 21
-674.6081511249653
 31
0.0
  0
LINE
  5
2465D
330
18
100
AcDbEntity
  8
01
  6
CONTINUOUS
100
AcDbLine
 10
2063.65119943712
 20
-684.4081511249655
 30
0.0
 11
2098.65119943712
 21
-684.4081511249655
 31
0.0
  0
LINE
  5
24660
330
18
100
AcDbEntity
  8
1CENTER
100
AcDbLine
 10
2081.149785417707
 20
-674.811979925725
 30
0.0
 11
2081.149785417707
 21
-681.804353405725
 31
0.0
  0
LINE
  5
24661
330
18
100
AcDbEntity
  8
01
  6
CONTINUOUS
100
AcDbLine
 10
2063.65119943712
 20
-684.4081511249655
 30
0.0
 11
2063.65119943712
 21
-674.6081511249653
 31
0.0
  0
LINE
  5
24662
330
18
100
AcDbEntity
  8
01
  6
CONTINUOUS
100
AcDbLine
 10
2098.65119943712
 20
-684.4081511249655
 30
0.0
 11
2098.65119943712
 21
-674.6081511249662
 31
0.0
  0
ARC
  5
24663
330
18
100
AcDbEntity
  8
01
100
AcDbCircle
 10
2078.149777760517
 20
-677.8081581053538
 30
0.0
 40
4.0
100
AcDbArc
 50
180.0
 51
270.000133315525
  0
LINE
  5
24664
330
18
100
AcDbEntity
  8
01
100
AcDbLine
 10
2074.149777760517
 20
-677.8081581053538
 30
0.0
 11
2074.149777760517
 21
-676.6081674125302
 31
0.0
  0
LINE
  5
24665
330
18
100
AcDbEntity
  8
01
100
AcDbLine
 10
2084.149787067696
 20
-681.8081441445737
 30
0.0
 11
2078.149787067696
 21
-681.8081581053433
 31
0.0
  0
LINE
  5
24666
330
18
100
AcDbEntity
  8
01
100
AcDbLine
 10
2077.149727412942
 20
-676.6081604322629
 30
0.0
 11
2074.149777760517
 21
-676.6081674125302
 31
0.0
  0
ARC
  5
24667
330
18
100
AcDbEntity
  8
01
100
AcDbCircle
 10
2084.149777760517
 20
-677.8081441445842
 30
0.0
 40
4.0
100
AcDbArc
 50
270.000133315525
 51
0.0
  0
LINE
  5
24668
330
18
100
AcDbEntity
  8
01
100
AcDbLine
 10
2088.149777760517
 20
-677.8081441445842
 30
0.0
 11
2088.149777760517
 21
-676.6081348374013
 31
0.0
  0
LINE
  5
24669
330
18
100
AcDbEntity
  8
01
100
AcDbLine
 10
2088.149777760517
 20
-676.6081348374013
 30
0.0
 11
2085.149727413144
 21
-676.6081418179032
 31
0.0
  0
LINE
  5
2466A
330
18
100
AcDbEntity
  8
01
100
AcDbLine
 10
2077.149727412942
 20
-676.6081604322629
 30
0.0
 11
2085.149727413144
 21
-676.6081418179032
 31
0.0
  0
LINE
  5
2466B
330
18
100
AcDbEntity
  8
01
100
AcDbLine
 10
2088.849777760517
 20
-674.6081511249662
 30
0.0
 11
2073.449777760517
 21
-674.6081511249662
 31
0.0
  0
LINE
  5
2466C
330
18
100
AcDbEntity
  8
01
100
AcDbLine
 10
2073.449777760517
 20
-674.6081511249662
 30
0.0
 11
2073.449777760517
 21
-676.6081511249662
 31
0.0
  0
LINE
  5
2466D
330
18
100
AcDbEntity
  8
01
100
AcDbLine
 10
2073.449777760517
 20
-676.6081511249662
 30
0.0
 11
2088.849777760517
 21
-676.6081511249662
 31
0.0
  0
LINE
  5
2466E
330
18
100
AcDbEntity
  8
01
100
AcDbLine
 10
2088.849777760517
 20
-676.6081511249662
 30
0.0
 11
2088.849777760517
 21
-674.6081511249662
 31
0.0
  0
LINE
  5
2466F
330
18
100
AcDbEntity
  8
01
100
AcDbLine
 10
2077.149952035994
 20
-637.2381545672297
 30
0.0
 11
2077.150230883504
 21
-676.608160431091
 31
0.0
  0
LINE
  5
24670
330
18
100
AcDbEntity
  8
01
100
AcDbLine
 10
2077.779941922896
 20
-638.6081589648252
 30
0.0
 11
2077.149947786351
 21
-639.2381545672388
 31
0.0
  0
LINE
  5
24671
330
18
100
AcDbEntity
  8
01
100
AcDbLine
 10
2084.519941923043
 20
-636.6081432822275
 30
0.0
 11
2077.779941922896
 21
-636.6081589648252
 31
0.0
  0
LINE
  5
24672
330
18
100
AcDbEntity
  8
01
100
AcDbLine
 10
2085.149947786551
 20
-637.2381388845592
 30
0.0
 11
2085.150230883707
 21
-676.6081418167313
 31
0.0
  0
LINE
  5
24673
330
18
100
AcDbEntity
  8
01
100
AcDbLine
 10
2084.519941923043
 20
-636.6081432822275
 30
0.0
 11
2085.149947786551
 21
-637.2381388845592
 31
0.0
  0
LINE
  5
24674
330
18
100
AcDbEntity
  8
01
  6
CONTINUOUS
100
AcDbLine
 10
2077.77994619533
 20
-636.6081589648147
 30
0.0
 11
2077.78023102419
 21
-676.6081589652102
 31
0.0
  0
LINE
  5
24675
330
18
100
AcDbEntity
  8
01
  6
CONTINUOUS
100
AcDbLine
 10
2084.519946195507
 20
-636.6081475546221
 30
0.0
 11
2084.520231024366
 21
-676.6081432826121
 31
0.0
  0
LINE
  5
24676
330
18
100
AcDbEntity
  8
1HATCH
100
AcDbLine
 10
2077.149947786351
 20
-637.2381545672388
 30
0.0
 11
2085.149947786551
 21
-637.2381388845592
 31
0.0
  0
LINE
  5
24677
330
18
100
AcDbEntity
  8
1CENTER
100
AcDbLine
 10
2081.149787067696
 20
-685.9499579598472
 30
0.0
 11
2081.149787067696
 21
-635.5217406047818
 31
0.0
  0
LINE
  5
24679
330
18
100
AcDbEntity
  8
1PHANTOM
 48
0.3
100
AcDbLine
 10
2551.148472535011
 20
-674.6081511249654
 30
0.0
 11
2548.399886556086
 21
-674.6081511249654
 31
0.0
  0
LINE
  5
2467A
330
18
100
AcDbEntity
  8
01
100
AcDbLine
 10
2544.899886556086
 20
-674.6081511249663
 30
-0.0000000000000002
 11
2523.149886556086
 21
-674.6081511249654
 31
0.0
  0
LINE
  5
2467B
330
18
100
AcDbEntity
  8
01
100
AcDbLine
 10
2513.899886556086
 20
-674.6081511249654
 30
0.0
 11
2511.151300577159
 21
-674.6081511249654
 31
0.0
  0
LINE
  5
2467C
330
18
100
AcDbEntity
  8
01
  6
CONTINUOUS
100
AcDbLine
 10
2511.151300577159
 20
-674.6081511249654
 30
0.0
 11
2511.151300577159
 21
-672.1081511249663
 31
0.0
  0
LINE
  5
2467E
330
18
100
AcDbEntity
  8
01
  6
CONTINUOUS
100
AcDbLine
 10
2551.148472535011
 20
-674.6081511249654
 30
0.0
 11
2551.148472535011
 21
-672.1081511249663
 31
0.0
  0
LINE
  5
24680
330
18
100
AcDbEntity
  8
01
100
AcDbLine
 10
2517.399886556086
 20
-674.6081511249654
 30
0.0000000000000002
 11
2544.899886556086
 21
-674.6081511249658
 31
-0.0000000000000002
  0
LINE
  5
24683
330
18
100
AcDbEntity
  8
01
  6
CONTINUOUS
100
AcDbLine
 10
2551.148472535011
 20
-672.1081511249663
 30
0.0
 11
2511.151300577159
 21
-672.1081511249658
 31
0.0
  0
LINE
  5
24687
330
18
100
AcDbEntity
  8
1CENTER
100
AcDbLine
 10
2531.149886556086
 20
-669.9271800777492
 30
0.0
 11
2531.149886556086
 21
-696.01641811849
 31
0.0
  0
LINE
  5
2468A
330
18
100
AcDbEntity
  8
1PHANTOM
 48
0.3
100
AcDbLine
 10
2547.597837768805
 20
-692.408151124966
 30
0.0
 11
2514.701935343366
 21
-692.4081511249642
 31
0.0
  0
LINE
  5
2468B
330
18
100
AcDbEntity
  8
1PHANTOM
 48
0.3
100
AcDbLine
 10
2548.399886556086
 20
-674.6081511249663
 30
0.0
 11
2548.097761616383
 21
-691.9168773281849
 31
0.0
  0
LINE
  5
2468C
330
18
100
AcDbEntity
  8
1PHANTOM
 48
0.3
100
AcDbLine
 10
2514.202011495786
 20
-691.9168773281849
 30
0.0
 11
2513.899886556086
 21
-674.6081511249663
 31
0.0
  0
ARC
  5
2468D
330
18
100
AcDbEntity
  8
1PHANTOM
 48
0.3
100
AcDbCircle
 10
-2547.597837768805
 20
-691.908151124966
 30
0.0
 40
0.5
210
0.0
220
0.0
230
-1.0
100
AcDbArc
 50
181.0000000000018
 51
270.0
  0
ARC
  5
2468E
330
18
100
AcDbEntity
  8
1PHANTOM
 48
0.3
100
AcDbCircle
 10
-2514.701935343366
 20
-691.908151124966
 30
0.0
 40
0.5
210
0.0
220
0.0
230
-1.0
100
AcDbArc
 50
270.0
 51
358.9999999999982
  0
LINE
  5
24694
330
18
100
AcDbEntity
  8
01
  6
CONTINUOUS
100
AcDbLine
 10
2512.151300577159
 20
-704.1081511249668
 30
0.0
 11
2550.148472535011
 21
-704.1081511249668
 31
0.0
  0
ARC
  5
24695
330
18
100
AcDbEntity
  8
01
  6
CONTINUOUS
100
AcDbCircle
 10
2512.151300577159
 20
-703.1081511249668
 30
0.0
 40
1.0
100
AcDbArc
 50
180.0
 51
270.0
  0
LINE
  5
24696
330
18
100
AcDbEntity
  8
01
  6
CONTINUOUS
100
AcDbLine
 10
2511.151300577159
 20
-703.1081511249668
 30
0.0
 11
2511.151300577159
 21
-674.6081511249658
 31
0.0
  0
LINE
  5
24697
330
18
100
AcDbEntity
  8
01
  6
CONTINUOUS
100
AcDbLine
 10
2551.148472535011
 20
-703.1081511249668
 30
0.0
 11
2551.148472535011
 21
-674.6081511249658
 31
0.0
  0
ARC
  5
24698
330
18
100
AcDbEntity
  8
01
  6
CONTINUOUS
100
AcDbCircle
 10
2550.148472535011
 20
-703.1081511249668
 30
0.0
 40
1.0
100
AcDbArc
 50
270.0
 51
0.0
  0
LINE
  5
24699
330
18
100
AcDbEntity
  8
01
  6
CONTINUOUS
100
AcDbLine
 10
2511.151300577159
 20
-674.6081511249658
 30
0.0
 11
2551.148472535011
 21
-674.6081511249658
 31
0.0
  0
LINE
  5
2469A
330
18
100
AcDbEntity
  8
1CENTER
100
AcDbLine
 10
2531.149886556086
 20
-705.6019239988336
 30
0.0
 11
2531.149886556086
 21
-672.3601987489569
 31
0.0
  0
LINE
  5
246A1
330
18
100
AcDbEntity
  8
1PHANTOM
 48
0.3
100
AcDbLine
 10
2531.14989421162
 20
-684.0454274059407
 30
0.0
 11
2531.14989421162
 21
-670.591915207794
 31
0.0
  0
LINE
  5
246A2
330
18
100
AcDbEntity
  8
1PHANTOM
 48
0.3
100
AcDbLine
 10
2535.64989421162
 20
-674.6081511249663
 30
0.0
 11
2526.649894211621
 21
-674.6081511249663
 31
0.0
  0
LINE
  5
246A3
330
18
100
AcDbEntity
  8
1PHANTOM
 48
0.3
100
AcDbLine
 10
2531.149894213276
 20
-674.8119799257252
 30
0.0
 11
2531.149894213276
 21
-681.8043534057251
 31
0.0
  0
ARC
  5
246A4
330
18
100
AcDbEntity
  8
1PHANTOM
 48
0.3
100
AcDbCircle
 10
2528.149886556086
 20
-677.8081581053539
 30
0.0
 40
4.0
100
AcDbArc
 50
180.0
 51
270.000133315525
  0
LINE
  5
246A5
330
18
100
AcDbEntity
  8
1PHANTOM
 48
0.3
100
AcDbLine
 10
2524.149886556086
 20
-677.8081581053539
 30
0.0
 11
2524.149886556086
 21
-676.6081674125303
 31
0.0
  0
LINE
  5
246A6
330
18
100
AcDbEntity
  8
1PHANTOM
 48
0.3
100
AcDbLine
 10
2534.149895863265
 20
-681.8081441445738
 30
0.0
 11
2528.149895863265
 21
-681.8081581053434
 31
0.0
  0
LINE
  5
246A7
330
18
100
AcDbEntity
  8
1PHANTOM
 48
0.3
100
AcDbLine
 10
2527.149836208511
 20
-676.608160432263
 30
0.0
 11
2524.149886556086
 21
-676.6081674125303
 31
0.0
  0
ARC
  5
246A8
330
18
100
AcDbEntity
  8
1PHANTOM
 48
0.3
100
AcDbCircle
 10
2534.149886556086
 20
-677.8081441445843
 30
0.0
 40
4.0
100
AcDbArc
 50
270.000133315525
 51
0.0
  0
LINE
  5
246A9
330
18
100
AcDbEntity
  8
1PHANTOM
 48
0.3
100
AcDbLine
 10
2538.149886556086
 20
-677.8081441445843
 30
0.0
 11
2538.149886556086
 21
-676.6081348374014
 31
0.0
  0
LINE
  5
246AA
330
18
100
AcDbEntity
  8
1PHANTOM
 48
0.3
100
AcDbLine
 10
2538.149886556086
 20
-676.6081348374014
 30
0.0
 11
2535.149836208713
 21
-676.6081418179033
 31
0.0
  0
LINE
  5
246AB
330
18
100
AcDbEntity
  8
1PHANTOM
 48
0.3
100
AcDbLine
 10
2538.849886556085
 20
-674.6081511249663
 30
0.0
 11
2523.449886556086
 21
-674.6081511249663
 31
0.0
  0
LINE
  5
246AC
330
18
100
AcDbEntity
  8
1PHANTOM
 48
0.3
100
AcDbLine
 10
2523.449886556086
 20
-674.6081511249663
 30
0.0
 11
2523.449886556086
 21
-676.6081511249663
 31
0.0
  0
LINE
  5
246AD
330
18
100
AcDbEntity
  8
1PHANTOM
 48
0.3
100
AcDbLine
 10
2523.449886556086
 20
-676.6081511249663
 30
0.0
 11
2538.849886556085
 21
-676.6081511249663
 31
0.0
  0
LINE
  5
246AE
330
18
100
AcDbEntity
  8
1PHANTOM
 48
0.3
100
AcDbLine
 10
2538.849886556085
 20
-676.6081511249663
 30
0.0
 11
2538.849886556085
 21
-674.6081511249663
 31
0.0
  0
LINE
  5
246AF
330
18
100
AcDbEntity
  8
1PHANTOM
100
AcDbLine
 10
2527.150060831563
 20
-637.2381545672297
 30
0.0
 11
2527.150339679073
 21
-676.6081604310912
 31
0.0
  0
LINE
  5
246B0
330
18
100
AcDbEntity
  8
1PHANTOM
100
AcDbLine
 10
2527.780050718465
 20
-636.6081589648252
 30
0.0
 11
2527.15005658192
 21
-637.2381545672388
 31
0.0
  0
LINE
  5
246B1
330
18
100
AcDbEntity
  8
1PHANTOM
100
AcDbLine
 10
2534.520050718611
 20
-636.6081432822275
 30
0.0
 11
2527.780050718465
 21
-636.6081589648252
 31
0.0
  0
LINE
  5
246B2
330
18
100
AcDbEntity
  8
1PHANTOM
100
AcDbLine
 10
2535.15005658212
 20
-637.2381388845592
 30
0.0
 11
2535.150339679275
 21
-676.6081418167314
 31
0.0
  0
LINE
  5
246B3
330
18
100
AcDbEntity
  8
1PHANTOM
100
AcDbLine
 10
2534.520050718611
 20
-636.6081432822275
 30
0.0
 11
2535.15005658212
 21
-637.2381388845592
 31
0.0
  0
LINE
  5
246B4
330
18
100
AcDbEntity
  8
1PHANTOM
100
AcDbLine
 10
2527.780054990898
 20
-636.6081589648147
 30
0.0
 11
2527.780339819759
 21
-676.6081589652104
 31
0.0
  0
LINE
  5
246B5
330
18
100
AcDbEntity
  8
1PHANTOM
100
AcDbLine
 10
2534.520054991076
 20
-636.6081475546221
 30
0.0
 11
2534.520339819935
 21
-676.6081432826122
 31
0.0
  0
LINE
  5
246B6
330
18
100
AcDbEntity
  8
1PHANTOM
100
AcDbLine
 10
2527.15005658192
 20
-637.2381545672388
 30
0.0
 11
2535.15005658212
 21
-637.2381388845592
 31
0.0
  0
LINE
  5
246B7
330
18
100
AcDbEntity
  8
1CENTER
100
AcDbLine
 10
2531.149895863265
 20
-683.9499579598473
 30
0.0
 11
2531.149895863265
 21
-633.5217406047818
 31
0.0
  0
LINE
  5
2473F
330
18
100
AcDbEntity
  8
01
  6
CONTINUOUS
100
AcDbLine
 10
2701.14989421162
 20
-888.1082433879676
 30
0.0
 11
2701.14989421162
 21
-916.1082433879676
 31
0.0
  0
ARC
  5
24740
330
18
100
AcDbEntity
  8
1PHANTOM
100
AcDbCircle
 10
2695.449887231233
 20
-899.1082433879676
 30
0.0
 40
4.0
100
AcDbArc
 50
90.0
 51
180.0001333155251
  0
LINE
  5
24741
330
18
100
AcDbEntity
  8
1PHANTOM
100
AcDbLine
 10
2695.449887231233
 20
-895.1082433879676
 30
0.0
 11
2696.649877924056
 21
-895.1082433879676
 31
0.0
  0
LINE
  5
24742
330
18
100
AcDbEntity
  8
1PHANTOM
100
AcDbLine
 10
2691.449901192013
 20
-905.108252695147
 30
0.0
 11
2691.449887231243
 21
-899.108252695147
 31
0.0
  0
LINE
  5
24743
330
18
100
AcDbEntity
  8
1PHANTOM
100
AcDbLine
 10
2696.649884904324
 20
-898.1081930403927
 30
0.0
 11
2696.649877924056
 21
-895.1082433879676
 31
0.0
  0
ARC
  5
24744
330
18
100
AcDbEntity
  8
1PHANTOM
100
AcDbCircle
 10
2695.449901192002
 20
-905.1082433879676
 30
0.0
 40
4.0
100
AcDbArc
 50
180.0001333155251
 51
270.0
  0
LINE
  5
24745
330
18
100
AcDbEntity
  8
1PHANTOM
100
AcDbLine
 10
2695.449901192002
 20
-909.1082433879676
 30
0.0
 11
2696.649910499185
 21
-909.1082433879676
 31
0.0
  0
LINE
  5
24746
330
18
100
AcDbEntity
  8
1PHANTOM
100
AcDbLine
 10
2696.649910499185
 20
-909.1082433879676
 30
0.0
 11
2696.649903518683
 21
-906.1081930405946
 31
0.0
  0
LINE
  5
24747
330
18
100
AcDbEntity
  8
1PHANTOM
100
AcDbLine
 10
2696.649884904324
 20
-898.1081930403927
 30
0.0
 11
2696.649903518683
 21
-906.1081930405946
 31
0.0
  0
LINE
  5
24748
330
18
100
AcDbEntity
  8
01
  6
CONTINUOUS
100
AcDbLine
 10
2698.64989421162
 20
-909.8082433879674
 30
0.0
 11
2698.64989421162
 21
-894.4082433879678
 31
0.0
  0
LINE
  5
24749
330
18
100
AcDbEntity
  8
1PHANTOM
100
AcDbLine
 10
2698.64989421162
 20
-894.4082433879678
 30
0.0
 11
2696.64989421162
 21
-894.4082433879678
 31
0.0
  0
LINE
  5
2474A
330
18
100
AcDbEntity
  8
1PHANTOM
100
AcDbLine
 10
2696.64989421162
 20
-894.4082433879678
 30
0.0
 11
2696.64989421162
 21
-909.8082433879674
 31
0.0
  0
LINE
  5
2474B
330
18
100
AcDbEntity
  8
1PHANTOM
100
AcDbLine
 10
2696.64989421162
 20
-909.8082433879674
 30
0.0
 11
2698.64989421162
 21
-909.8082433879674
 31
0.0
  0
LINE
  5
2474C
330
18
100
AcDbEntity
  8
1PHANTOM
100
AcDbLine
 10
2736.019890769357
 20
-898.1084176634452
 30
0.0
 11
2696.649884905496
 21
-898.1086965109546
 31
0.0
  0
LINE
  5
2474D
330
18
100
AcDbEntity
  8
1PHANTOM
100
AcDbLine
 10
2736.649886371762
 20
-898.7384075503471
 30
0.0
 11
2736.019890769348
 21
-898.108413413802
 31
0.0
  0
LINE
  5
2474E
330
18
100
AcDbEntity
  8
1PHANTOM
100
AcDbLine
 10
2736.649902054359
 20
-905.4784075504933
 30
0.0
 11
2736.649886371762
 21
-898.7384075503471
 31
0.0
  0
LINE
  5
2474F
330
18
100
AcDbEntity
  8
1PHANTOM
100
AcDbLine
 10
2736.019906452027
 20
-906.1084134140021
 30
0.0
 11
2696.649903519855
 21
-906.1086965111574
 31
0.0
  0
LINE
  5
24751
330
18
100
AcDbEntity
  8
1PHANTOM
100
AcDbLine
 10
2736.649886371772
 20
-898.7384118227803
 30
0.0
 11
2696.649886371376
 21
-898.7386966516408
 31
0.0
  0
LINE
  5
24752
330
18
100
AcDbEntity
  8
1PHANTOM
100
AcDbLine
 10
2736.649897781965
 20
-905.4784118229575
 30
0.0
 11
2696.649902053975
 21
-905.478696651817
 31
0.0
  0
LINE
  5
24753
330
18
100
AcDbEntity
  8
1PHANTOM
100
AcDbLine
 10
2736.019890769348
 20
-898.108413413802
 30
0.0
 11
2736.019906452027
 21
-906.1084134140021
 31
0.0
  0
LINE
  5
24755
330
18
100
AcDbEntity
  8
1PHANTOM
100
AcDbLine
 10
2736.649886371762
 20
-898.7384168575265
 30
0.0
 11
2736.019890769348
 21
-898.1084227209815
 31
0.0
  0
LINE
  5
24756
330
18
100
AcDbEntity
  8
1PHANTOM
100
AcDbLine
 10
2736.649902054359
 20
-905.4784168576728
 30
0.0
 11
2736.649886371762
 21
-898.7384168575265
 31
0.0
  0
LINE
  5
24758
330
18
100
AcDbEntity
  8
1PHANTOM
100
AcDbLine
 10
2736.019890769348
 20
-898.1084227209815
 30
0.0
 11
2736.019906452027
 21
-906.1084227211816
 31
0.0
  0
LINE
  5
24759
330
18
100
AcDbEntity
  8
1PHANTOM
100
AcDbLine
 10
2701.14989421162
 20
-921.4992478738725
 30
0.0
 11
2701.14989421162
 21
-882.7172575164216
 31
0.0
  0
LINE
  5
2475A
330
18
100
AcDbEntity
  8
1PHANTOM
100
AcDbLine
 10
2709.14989421162
 20
-921.4991729888725
 30
0.0
 11
2709.14989421162
 21
-882.7171826314216
 31
0.0
  0
LINE
  5
2475B
330
18
100
AcDbEntity
  8
01
  6
CONTINUOUS
100
AcDbLine
 10
2709.14989421162
 20
-888.1082518198946
 30
0.0
 11
2709.14989421162
 21
-916.1082518198946
 31
0.0
  0
LINE
  5
2475C
330
18
100
AcDbEntity
  8
01
  6
CONTINUOUS
100
AcDbLine
 10
2712.149797766018
 20
-888.1082518198946
 30
0.0
 11
2709.14989421162
 21
-888.1082518198946
 31
0.0
  0
LINE
  5
2475D
330
18
100
AcDbEntity
  8
01
  6
CONTINUOUS
100
AcDbLine
 10
2709.14989421162
 20
-916.1082518198946
 30
0.0
 11
2712.14989421162
 21
-916.1082518198946
 31
0.0
  0
LINE
  5
2475E
330
18
100
AcDbEntity
  8
1CENTER
100
AcDbLine
 10
2774.280500500715
 20
-902.108252695147
 30
0.0
 11
2688.776562898044
 21
-902.108252695147
 31
0.0
  0
ARC
  5
24760
330
18
100
AcDbEntity
  8
01
  6
CONTINUOUS
100
AcDbCircle
 10
2756.649764886868
 20
-902.108177810147
 30
0.0
 40
12.65
100
AcDbArc
 50
271.7303341610219
 51
88.2698587519778
  0
ARC
  5
24761
330
18
100
AcDbEntity
  8
01
  6
CONTINUOUS
100
AcDbCircle
 10
2756.649764886868
 20
-902.108177810147
 30
0.0
 40
12.65
100
AcDbArc
 50
114.1337147205416
 51
245.8662852794583
  0
LINE
  5
24762
330
18
100
AcDbEntity
  8
01
  6
CONTINUOUS
100
AcDbLine
 10
2712.149990606845
 20
-888.1082550535757
 30
0.0
 11
2757.031694603143
 21
-889.4639447495056
 31
0.0
  0
LINE
  5
24763
330
18
100
AcDbEntity
  8
01
  6
CONTINUOUS
100
AcDbLine
 10
2712.149990606845
 20
-916.1082518198946
 30
0.0
 11
2757.031737175855
 21
-914.7524095847721
 31
0.0
  0
LINE
  5
24768
330
18
100
AcDbEntity
  8
01
  6
CONTINUOUS
100
AcDbLine
 10
2701.14989421162
 20
-888.108252695147
 30
0.0
 11
2701.14989421162
 21
-916.108252695147
 31
0.0
  0
LINE
  5
2476B
330
18
100
AcDbEntity
  8
01
  6
CONTINUOUS
100
AcDbLine
 10
2698.64989421162
 20
-894.3582526951461
 30
0.0
 11
2698.649894211621
 21
-909.8582526951461
 31
0.0
  0
LINE
  5
2476E
330
18
100
AcDbEntity
  8
01
  6
CONTINUOUS
100
AcDbLine
 10
2698.649894211621
 20
-890.858252695147
 30
0.0
 11
2698.649894211621
 21
-888.108252695147
 31
0.0
  0
LINE
  5
2476F
330
18
100
AcDbEntity
  8
1PHANTOM
 48
0.3
100
AcDbLine
 10
2698.649894211621
 20
-913.3582526951461
 30
0.0
 11
2698.649894211621
 21
-916.108252695147
 31
0.0
  0
LINE
  5
24770
330
18
100
AcDbEntity
  8
01
  6
CONTINUOUS
100
AcDbLine
 10
2698.649894211621
 20
-916.108252695147
 30
0.0
 11
2701.14989421162
 21
-916.108252695147
 31
0.0
  0
LINE
  5
24771
330
18
100
AcDbEntity
  8
01
  6
CONTINUOUS
100
AcDbLine
 10
2698.649894211621
 20
-888.108252695147
 30
0.0
 11
2701.14989421162
 21
-888.108252695147
 31
0.0
  0
LINE
  5
24776
330
18
100
AcDbEntity
  8
1PHANTOM
 48
0.3
100
AcDbLine
 10
2698.64989421162
 20
-894.3582526951461
 30
0.0000000000000005
 11
2681.341168008402
 21
-894.0561277554455
 31
0.0000000000000005
  0
LINE
  5
24777
330
18
100
AcDbEntity
  8
1PHANTOM
 48
0.3
100
AcDbLine
 10
2681.341168008402
 20
-891.1603776348486
 30
0.0000000000000007
 11
2698.64989421162
 21
-890.8582526951461
 31
0.0000000000000007
  0
LINE
  5
24778
330
18
100
AcDbEntity
  8
1PHANTOM
 48
0.3
100
AcDbLine
 10
2681.341168008402
 20
-910.1603776348486
 30
-0.0000000000000005
 11
2698.64989421162
 21
-909.8582526951461
 31
-0.0000000000000005
  0
LINE
  5
24779
330
18
100
AcDbEntity
  8
1PHANTOM
 48
0.3
100
AcDbLine
 10
2680.84989421162
 20
-912.5562039078661
 30
-0.0000000000000006
 11
2680.84989421162
 21
-891.6603014824261
 31
0.0000000000000006
  0
LINE
  5
2477A
330
18
100
AcDbEntity
  8
1PHANTOM
 48
0.3
100
AcDbLine
 10
2698.64989421162
 20
-913.3582526951461
 30
-0.0000000000000007
 11
2681.341168008402
 21
-913.0561277554445
 31
-0.0000000000000006
  0
ARC
  5
2477B
330
18
100
AcDbEntity
  8
1PHANTOM
 48
0.3
100
AcDbCircle
 10
2681.34989421162
 20
-893.5562039078661
 30
0.0000000000000005
 40
0.5
100
AcDbArc
 50
180.0
 51
269.0000000000243
  0
ARC
  5
2477C
330
18
100
AcDbEntity
  8
1PHANTOM
 48
0.3
100
AcDbCircle
 10
2681.34989421162
 20
-891.6603014824261
 30
0.0000000000000006
 40
0.5
100
AcDbArc
 50
91.00000000002784
 51
180.0
  0
ARC
  5
2477D
330
18
100
AcDbEntity
  8
1PHANTOM
 48
0.3
100
AcDbCircle
 10
2681.34989421162
 20
-912.5562039078661
 30
-0.0000000000000006
 40
0.5
100
AcDbArc
 50
180.0
 51
269.0000000000243
  0
ARC
  5
2477E
330
18
100
AcDbEntity
  8
1PHANTOM
 48
0.3
100
AcDbCircle
 10
2681.34989421162
 20
-910.6603014824261
 30
-0.0000000000000005
 40
0.5
100
AcDbArc
 50
91.00000000002784
 51
180.0
  0
LINE
  5
24787
330
18
100
AcDbEntity
  8
01
  6
CONTINUOUS
100
AcDbLine
 10
2669.14989421162
 20
-889.108252695147
 30
0.0
 11
2669.14989421162
 21
-940.108252695147
 31
0.0
  0
ARC
  5
24788
330
18
100
AcDbEntity
  8
01
  6
CONTINUOUS
100
AcDbCircle
 10
2670.14989421162
 20
-940.108252695147
 30
0.0
 40
1.0
100
AcDbArc
 50
180.0
 51
270.0
  0
LINE
  5
24789
330
18
100
AcDbEntity
  8
01
  6
CONTINUOUS
100
AcDbLine
 10
2677.14989421162
 20
-940.108252695147
 30
0.0
 11
2677.14989421162
 21
-916.108252695147
 31
0.0
  0
ARC
  5
2478A
330
18
100
AcDbEntity
  8
01
  6
CONTINUOUS
100
AcDbCircle
 10
2676.14989421162
 20
-940.108252695147
 30
0.0
 40
1.0
100
AcDbArc
 50
270.0
 51
0.0
  0
LINE
  5
2478B
330
18
100
AcDbEntity
  8
01
  6
CONTINUOUS
100
AcDbLine
 10
2670.14989421162
 20
-941.108252695147
 30
0.0
 11
2676.14989421162
 21
-941.108252695147
 31
0.0
  0
LINE
  5
2478C
330
18
100
AcDbEntity
  8
01
  6
CONTINUOUS
100
AcDbLine
 10
2698.64989421162
 20
-916.108252695147
 30
0.0
 11
2677.14989421162
 21
-916.108252695147
 31
0.0
  0
LINE
  5
2478D
330
18
100
AcDbEntity
  8
01
  6
CONTINUOUS
100
AcDbLine
 10
2698.649894211621
 20
-888.108252695147
 30
0.0
 11
2670.14989421162
 21
-888.108252695147
 31
0.0
  0
ARC
  5
2478E
330
18
100
AcDbEntity
  8
01
  6
CONTINUOUS
100
AcDbCircle
 10
2670.14989421162
 20
-889.108252695147
 30
0.0
 40
1.0
100
AcDbArc
 50
90.0
 51
180.0
  0
LINE
  5
2478F
330
18
100
AcDbEntity
  8
1CENTER
100
AcDbLine
 10
2686.54989421162
 20
-906.9425184002921
 30
0.0
 11
2686.549894211621
 21
-917.8928086136286
 31
0.0
  0
LINE
  5
24795
330
18
100
AcDbEntity
  8
1PHANTOM
 48
0.3
100
AcDbLine
 10
2698.649894211621
 20
-888.108252695147
 30
0.0
 11
2698.649894211621
 21
-916.108252695147
 31
0.0
  0
LINE
  5
2479F
330
18
100
AcDbEntity
  8
1PHANTOM
100
AcDbLine
 10
2690.54989421162
 20
-916.108252695147
 30
0.0
 11
2682.54989421162
 21
-916.108252695147
 31
0.0
  0
LINE
  5
247A0
330
18
100
AcDbEntity
  8
1PHANTOM
100
AcDbLine
 10
2688.64989421162
 20
-908.108252695147
 30
0.0
 11
2684.44989421162
 21
-908.108252695147
 31
0.0
  0
LINE
  5
247A1
330
18
100
AcDbEntity
  8
1PHANTOM
100
AcDbLine
 10
2682.54989421162
 20
-916.108252695147
 30
0.0
 11
2682.54989421162
 21
-915.8082526951468
 31
0.0
  0
LINE
  5
247A2
330
18
100
AcDbEntity
  8
1PHANTOM
100
AcDbLine
 10
2690.54989421162
 20
-915.8082526951468
 30
0.0
 11
2682.54989421162
 21
-915.8082526951468
 31
0.0
  0
LINE
  5
247A3
330
18
100
AcDbEntity
  8
1PHANTOM
100
AcDbLine
 10
2690.54989421162
 20
-916.108252695147
 30
0.0
 11
2690.54989421162
 21
-915.8082526951468
 31
0.0
  0
LINE
  5
247A4
330
18
100
AcDbEntity
  8
1PHANTOM
100
AcDbLine
 10
2684.44989421162
 20
-913.908252695149
 30
0.0
 11
2684.44989421162
 21
-908.108252695147
 31
0.0
  0
LINE
  5
247A5
330
18
100
AcDbEntity
  8
1PHANTOM
100
AcDbLine
 10
2688.64989421162
 20
-913.9082526951472
 30
0.0
 11
2688.64989421162
 21
-908.108252695147
 31
0.0
  0
LINE
  5
247A6
330
18
100
AcDbEntity
  8
1PHANTOM
100
AcDbLine
 10
2684.04989421162
 20
-914.3082526951496
 30
0.0
 11
2684.04989421162
 21
-908.5082526951476
 31
0.0
  0
LINE
  5
247A7
330
18
100
AcDbEntity
  8
1PHANTOM
100
AcDbLine
 10
2684.44989421162
 20
-908.108252695147
 30
0.0
 11
2684.04989421162
 21
-908.5082526951476
 31
0.0
  0
LINE
  5
247A8
330
18
100
AcDbEntity
  8
1PHANTOM
100
AcDbLine
 10
2689.04989421162
 20
-914.3082526951468
 30
0.0
 11
2689.04989421162
 21
-908.5082526951476
 31
0.0
  0
LINE
  5
247A9
330
18
100
AcDbEntity
  8
1PHANTOM
100
AcDbLine
 10
2688.64989421162
 20
-908.108252695147
 30
0.0
 11
2689.04989421162
 21
-908.5082526951476
 31
0.0
  0
LINE
  5
247AA
330
18
100
AcDbEntity
  8
1PHANTOM
100
AcDbLine
 10
2690.54989421162
 20
-915.8082526951468
 30
0.0
 11
2688.64989421162
 21
-913.9082526951472
 31
0.0
  0
LINE
  5
247AB
330
18
100
AcDbEntity
  8
1PHANTOM
100
AcDbLine
 10
2682.549894211622
 20
-915.8082526951478
 30
0.0
 11
2684.44989421162
 21
-913.908252695149
 31
0.0
  0
LINE
  5
247AC
330
18
100
AcDbEntity
  8
1PHANTOM
100
AcDbLine
 10
2689.04989421162
 20
-908.5082526951476
 30
0.0
 11
2684.04989421162
 21
-908.5082526951476
 31
0.0
  0
LINE
  5
2481F
330
18
100
AcDbEntity
  8
01
  6
CONTINUOUS
100
AcDbLine
 10
2101.149906891677
 20
-909.1082518198943
 30
0.0
 11
2101.149906891677
 21
-895.1082518198943
 31
0.0
  0
ARC
  5
24820
330
18
100
AcDbEntity
  8
01
  6
CONTINUOUS
100
AcDbCircle
 10
2094.149906891677
 20
-909.1082518198943
 30
0.0
 40
7.0
100
AcDbArc
 50
270.0
 51
0.0
  0
LINE
  5
24821
330
18
100
AcDbEntity
  8
01
  6
CONTINUOUS
100
AcDbLine
 10
2061.149894164873
 20
-895.1082518198943
 30
0.0
 11
2061.149894164873
 21
-909.1082518198943
 31
0.0
  0
ARC
  5
24822
330
18
100
AcDbEntity
  8
01
  6
CONTINUOUS
100
AcDbCircle
 10
2068.149894164873
 20
-909.1082518198943
 30
0.0
 40
7.0
100
AcDbArc
 50
180.0
 51
270.0
  0
ARC
  5
24823
330
18
100
AcDbEntity
  8
01
  6
CONTINUOUS
100
AcDbCircle
 10
2068.149894164873
 20
-895.1082518198943
 30
0.0
 40
7.0
100
AcDbArc
 50
90.0
 51
180.0
  0
LINE
  5
24824
330
18
100
AcDbEntity
  8
01
  6
CONTINUOUS
100
AcDbLine
 10
2068.149894164873
 20
-888.1082518198943
 30
0.0
 11
2094.149906891677
 21
-888.1082518198943
 31
0.0
  0
ARC
  5
24825
330
18
100
AcDbEntity
  8
01
  6
CONTINUOUS
100
AcDbCircle
 10
2094.149906891677
 20
-895.1082518198943
 30
0.0
 40
7.0
100
AcDbArc
 50
0.0
 51
90.0
  0
LINE
  5
24826
330
18
100
AcDbEntity
  8
01
  6
CONTINUOUS
100
AcDbLine
 10
2068.149894164873
 20
-916.1082518198943
 30
0.0
 11
2094.149906891677
 21
-916.1082518198943
 31
0.0
  0
LINE
  5
24827
330
18
100
AcDbEntity
  8
1CENTER
100
AcDbLine
 10
2057.457040491781
 20
-902.1082518198943
 30
0.0
 11
2170.029003835414
 21
-902.1082518198943
 31
0.0
  0
LINE
  5
24828
330
18
100
AcDbEntity
  8
01
  6
CONTINUOUS
100
AcDbLine
 10
2121.149841724254
 20
-914.2570069000674
 30
0.0
 11
2121.149841724255
 21
-889.9594967397227
 31
0.0
  0
LINE
  5
24829
330
18
100
AcDbEntity
  8
01
  6
CONTINUOUS
100
AcDbLine
 10
2120.649841724254
 20
-914.7570069000674
 30
0.0
 11
2120.649841724255
 21
-889.4594967397209
 31
0.0
  0
SPLINE
  5
2482A
330
18
100
AcDbEntity
  8
01
  6
CONTINUOUS
100
AcDbSpline
210
0.0
220
0.0
230
1.0
 70
     8
 71
     3
 72
    12
 73
     8
 74
     0
 42
0.000000001
 43
0.0000000001
 40
0.0
 40
0.0
 40
0.0
 40
0.0
 40
10.29460207596728
 40
13.21715842668309
 40
15.98236109060196
 40
21.56275403291446
 40
22.50056492955794
 40
22.50056492955794
 40
22.50056492955794
 40
22.50056492955794
 10
2120.648442203133
 20
-914.7583150659414
 30
0.0
 10
2117.216915807091
 20
-914.7643899492889
 30
0.0
 10
2112.811170536494
 20
-914.7485830728294
 30
0.0
 10
2107.483764737653
 20
-914.7793253420939
 30
0.0
 10
2103.728060174319
 20
-914.8306690338356
 30
0.0
 10
2100.634197266882
 20
-914.8984036844688
 30
0.0
 10
2098.463222754367
 20
-914.9876966216455
 30
0.0
 10
2098.150948957652
 20
-915.0020887244693
 30
0.0
  0
SPLINE
  5
2482B
330
18
100
AcDbEntity
  8
01
  6
CONTINUOUS
100
AcDbSpline
210
0.0
220
0.0
230
1.0
 70
     8
 71
     3
 72
    13
 73
     9
 74
     0
 42
0.000000001
 43
0.0000000001
 40
2.342733179104076
 40
2.342733179104076
 40
2.342733179104076
 40
2.342733179104076
 40
3.309384649924763
 40
8.8757454577472
 40
14.56551998264569
 40
16.53663535459709
 40
17.43355414052359
 40
24.84333602167255
 40
24.84333602167255
 40
24.84333602167255
 40
24.84333602167255
 10
2098.150916720424
 20
-889.2143924596464
 30
0.0
 10
2098.47279518851
 20
-889.2291724263944
 30
0.0
 10
2100.648733734918
 20
-889.3178276529259
 30
0.0
 10
2104.722141270744
 20
-889.4095737693917
 30
0.0
 10
2109.131071867623
 20
-889.4513027356791
 30
0.0
 10
2111.983687266756
 20
-889.4562341703834
 30
0.0
 10
2115.409617941282
 20
-889.4567015106566
 30
0.0
 10
2118.178525647713
 20
-889.4576385054836
 30
0.0
 10
2120.648450033709
 20
-889.4581050491754
 30
0.0
  0
LINE
  5
2482C
330
18
100
AcDbEntity
  8
01
  6
CONTINUOUS
100
AcDbLine
 10
2120.648450033709
 20
-889.4581050491754
 30
0.0
 11
2121.149841724254
 21
-889.9594967397213
 31
0.0
  0
LINE
  5
2482D
330
18
100
AcDbEntity
  8
01
  6
CONTINUOUS
100
AcDbLine
 10
2120.648450033709
 20
-914.7583985906133
 30
0.0
 11
2121.149841724254
 21
-914.2570069000674
 31
0.0
  0
LINE
  5
2482E
330
18
100
AcDbEntity
  8
1CENTER
100
AcDbLine
 10
2081.14989421162
 20
-921.0048452269809
 30
0.0
 11
2081.14989421162
 21
-883.2116584128078
 31
0.0
  0
LINE
  5
2482F
330
18
100
AcDbEntity
  8
1CENTER
100
AcDbLine
 10
2063.39989421162
 20
-902.1082518198943
 30
0.0
 11
2098.89989421162
 21
-902.1082518198943
 31
0.0
  0
LINE
  5
24830
330
18
100
AcDbEntity
  8
01
  6
CONTINUOUS
100
AcDbLine
 10
2490.64990258151
 20
-914.608251815991
 30
0.0
 11
2192.80682190682
 21
-914.6082518159909
 31
0.0
  0
LINE
  5
24831
330
18
100
AcDbEntity
  8
01
  6
CONTINUOUS
100
AcDbLine
 10
2490.64990258151
 20
-889.6082518159906
 30
0.0
 11
2190.518566469154
 21
-889.6082518159905
 31
0.0
  0
LINE
  5
24832
330
18
100
AcDbEntity
  8
01
100
AcDbLine
 10
2121.64988584173
 20
-914.6082518159903
 30
0.0
 11
2121.14988584173
 21
-914.1082518159903
 31
0.0
  0
LINE
  5
24833
330
18
100
AcDbEntity
  8
01
100
AcDbLine
 10
2121.64988584173
 20
-889.6082518159903
 30
0.0
 11
2121.14988584173
 21
-890.1082518159903
 31
0.0
  0
LINE
  5
24834
330
18
100
AcDbEntity
  8
01
100
AcDbLine
 10
2121.64988584173
 20
-914.6082518159903
 30
0.0
 11
2121.64988584173
 21
-889.6082518159899
 31
0.0
  0
LINE
  5
24838
330
18
100
AcDbEntity
  8
01
  6
CONTINUOUS
100
AcDbLine
 10
2511.149881531562
 20
-934.1082518198946
 30
0.0
 11
2511.149881531562
 21
-895.1082518198946
 31
0.0
  0
ARC
  5
24839
330
18
100
AcDbEntity
  8
01
  6
CONTINUOUS
100
AcDbCircle
 10
2518.149881531562
 20
-934.1082518198946
 30
0.0
 40
7.0
100
AcDbArc
 50
180.0
 51
270.0
  0
LINE
  5
2483A
330
18
100
AcDbEntity
  8
01
  6
CONTINUOUS
100
AcDbLine
 10
2551.149894258366
 20
-895.1082518198946
 30
0.0
 11
2551.149894258366
 21
-934.1082518198946
 31
0.0
  0
ARC
  5
2483B
330
18
100
AcDbEntity
  8
01
  6
CONTINUOUS
100
AcDbCircle
 10
2544.149894258366
 20
-934.1082518198946
 30
0.0
 40
7.0
100
AcDbArc
 50
270.0
 51
0.0
  0
ARC
  5
2483C
330
18
100
AcDbEntity
  8
01
  6
CONTINUOUS
100
AcDbCircle
 10
2544.149894258366
 20
-895.1082518198946
 30
0.0
 40
7.0
100
AcDbArc
 50
0.0
 51
90.0
  0
LINE
  5
2483D
330
18
100
AcDbEntity
  8
01
  6
CONTINUOUS
100
AcDbLine
 10
2544.149894258366
 20
-888.1082518198946
 30
0.0
 11
2518.149881531562
 21
-888.1082518198946
 31
0.0
  0
ARC
  5
2483E
330
18
100
AcDbEntity
  8
01
  6
CONTINUOUS
100
AcDbCircle
 10
2518.149881531562
 20
-895.1082518198946
 30
0.0
 40
7.0
100
AcDbArc
 50
90.0
 51
180.0
  0
LINE
  5
2483F
330
18
100
AcDbEntity
  8
01
  6
CONTINUOUS
100
AcDbLine
 10
2544.149894258366
 20
-941.1082518198946
 30
0.0
 11
2518.149881531562
 21
-941.1082518198946
 31
0.0
  0
LINE
  5
24840
330
18
100
AcDbEntity
  8
01
100
AcDbLine
 10
2491.149946698986
 20
-914.2570069000676
 30
0.0
 11
2491.149946698984
 21
-889.9594967397234
 31
0.0
  0
LINE
  5
24841
330
18
100
AcDbEntity
  8
01
  6
CONTINUOUS
100
AcDbLine
 10
2491.649946698986
 20
-914.7570069000676
 30
0.0
 11
2491.649946698986
 21
-889.4594967397211
 31
0.0
  0
SPLINE
  5
24842
330
18
100
AcDbEntity
  8
01
  6
CONTINUOUS
100
AcDbSpline
210
0.0
220
0.0
230
1.0
 70
     8
 71
     3
 72
    11
 73
     7
 74
     0
 42
0.000000001
 43
0.0000000001
 40
0.0
 40
0.0
 40
0.0
 40
0.0
 40
10.29460207596728
 40
13.21715842668309
 40
15.98236109060196
 40
19.49966757513943
 40
19.49966757513943
 40
19.49966757513943
 40
19.49966757513943
 10
2491.651346220106
 20
-914.7583150659416
 30
0.0
 10
2495.082872616148
 20
-914.7643899492891
 30
0.0
 10
2499.488617886746
 20
-914.7485830728297
 30
0.0
 10
2504.816023685586
 20
-914.7793253420941
 30
0.0
 10
2507.884096128443
 20
-914.8212685149638
 30
0.0
 10
2509.977909454078
 20
-914.8628525801964
 30
0.0
 10
2511.149881531562
 20
-914.8952947370867
 30
0.0
  0
SPLINE
  5
24843
330
18
100
AcDbEntity
  8
01
  6
CONTINUOUS
100
AcDbSpline
210
0.0
220
0.0
230
1.0
 70
     8
 71
     3
 72
    13
 73
     9
 74
     0
 42
0.000000001
 43
0.0000000001
 40
2.342733179104076
 40
2.342733179104076
 40
2.342733179104076
 40
2.342733179104076
 40
3.309384649924763
 40
8.8757454577472
 40
14.56551998264569
 40
16.53663535459709
 40
17.43355414052359
 40
24.84333602167255
 40
24.84333602167255
 40
24.84333602167255
 40
24.84333602167255
 10
2514.148871702815
 20
-889.2143924596467
 30
0.0
 10
2513.826993234729
 20
-889.2291724263946
 30
0.0
 10
2511.651054688322
 20
-889.3178276529261
 30
0.0
 10
2507.577647152496
 20
-889.409573769392
 30
0.0
 10
2503.168716555616
 20
-889.4513027356793
 30
0.0
 10
2500.316101156483
 20
-889.4562341703836
 30
0.0
 10
2496.890170481958
 20
-889.4567015106568
 30
0.0
 10
2494.121262775527
 20
-889.4576385054838
 30
0.0
 10
2491.651338389531
 20
-889.4581050491756
 30
0.0
  0
LINE
  5
24844
330
18
100
AcDbEntity
  8
01
  6
CONTINUOUS
100
AcDbLine
 10
2491.651338389531
 20
-889.4581050491756
 30
0.0
 11
2491.149946698986
 21
-889.9594967397215
 31
0.0
  0
LINE
  5
24845
330
18
100
AcDbEntity
  8
01
100
AcDbLine
 10
2491.651338389531
 20
-914.7583985906135
 30
0.0
 11
2491.149946698986
 21
-914.2570069000676
 31
0.0
  0
LINE
  5
24846
330
18
100
AcDbEntity
  8
01
  6
CONTINUOUS
100
AcDbLine
 10
2531.14989421162
 20
-951.08313946616
 30
0.0
 11
2531.14989421162
 21
-883.4320666813392
 31
0.0
  0
LINE
  5
24847
330
18
100
AcDbEntity
  8
01
  6
CONTINUOUS
100
AcDbLine
 10
2548.89989421162
 20
-902.1082518198946
 30
0.0
 11
2513.39989421162
 21
-902.1082518198946
 31
0.0
  0
LINE
  5
24848
330
18
100
AcDbEntity
  8
01
100
AcDbLine
 10
2490.64990258151
 20
-914.6082518159906
 30
0.0
 11
2491.14990258151
 21
-914.1082518159906
 31
0.0
  0
LINE
  5
24849
330
18
100
AcDbEntity
  8
01
100
AcDbLine
 10
2490.64990258151
 20
-889.6082518159906
 30
0.0
 11
2491.14990258151
 21
-890.1082518159906
 31
0.0
  0
LINE
  5
2484A
330
18
100
AcDbEntity
  8
01
100
AcDbLine
 10
2490.64990258151
 20
-914.6082518159906
 30
0.0
 11
2490.64990258151
 21
-889.608251815991
 31
0.0
  0
CIRCLE
  5
2488B
330
18
100
AcDbEntity
  8
1PHANTOM
100
AcDbCircle
 10
2531.14989421162
 20
-902.1082518198946
 30
0.0
 40
4.25
  0
CIRCLE
  5
2488C
330
18
100
AcDbEntity
  8
1PHANTOM
100
AcDbCircle
 10
2081.14989421162
 20
-902.1082518198943
 30
0.0
 40
4.25
  0
SPLINE
  5
24913
330
18
100
AcDbEntity
  8
1HATCH
100
AcDbSpline
210
0.0
220
0.0
230
1.0
 70
     8
 71
     3
 72
    11
 73
     7
 74
     0
 42
0.000000001
 43
0.0000000001
 40
5.796353607216234
 40
5.796353607216234
 40
5.796353607216234
 40
5.796353607216234
 40
14.75041900229587
 40
32.7265473475629
 40
46.64867464349661
 40
48.7492566349615
 40
48.7492566349615
 40
48.7492566349615
 40
48.7492566349615
 10
2061.151190129945
 20
-634.4312919712651
 30
0.0
 10
2064.086279716912
 20
-633.7673176267897
 30
0.0
 10
2072.922972756798
 20
-632.3100971045903
 30
0.0
 10
2086.434040885608
 20
-636.36617086191
 30
0.0
 10
2097.825044892451
 20
-635.1331850459324
 30
0.0
 10
2103.132868179739
 20
-635.6248922143335
 30
0.0
 10
2103.827979947775
 20
-635.7025864231612
 30
0.0
  0
LINE
  5
24959
330
18
100
AcDbEntity
  8
01
  6
CONTINUOUS
100
AcDbLine
 10
2491.148481842192
 20
-604.4582697419337
 30
0.0
 11
2491.149867354845
 21
-628.7587645382832
 31
0.0
  0
CIRCLE
  5
2499C
330
18
100
AcDbEntity
  8
1PHANTOM
 48
0.3
100
AcDbCircle
 10
2531.14993690355
 20
-686.6081511249672
 30
0.0
 40
2.0
  0
CIRCLE
  5
2499D
330
18
100
AcDbEntity
  8
1PHANTOM
 48
0.3
100
AcDbCircle
 10
2531.14993690355
 20
-686.6081511249672
 30
0.0
 40
1.75
  0
LINE
  5
249CC
330
18
100
AcDbEntity
  8
01
100
AcDbLine
 10
2538.899879157035
 20
-664.108151124966
 30
0.0
 11
2538.899879157035
 21
-672.1081511249661
 31
0.0
  0
LINE
  5
249CD
330
18
100
AcDbEntity
  8
01
100
AcDbLine
 10
2539.149879157035
 20
-664.108151124966
 30
0.0
 11
2539.149879157035
 21
-672.1081511249661
 31
0.0
  0
LINE
  5
249CE
330
18
100
AcDbEntity
  8
01
100
AcDbLine
 10
2523.399879157035
 20
-664.108151124966
 30
0.0
 11
2523.399879157035
 21
-672.1081511249661
 31
0.0
  0
LINE
  5
249CF
330
18
100
AcDbEntity
  8
01
100
AcDbLine
 10
2523.149879157035
 20
-664.108151124966
 30
0.0
 11
2523.149879157035
 21
-672.1081511249661
 31
0.0
  0
LINE
  5
24A0C
330
18
100
AcDbEntity
  8
01
100
AcDbLine
 10
2088.899772013122
 20
-664.108151124968
 30
0.0
 11
2088.899772013122
 21
-672.1081511249681
 31
0.0
  0
LINE
  5
24A0D
330
18
100
AcDbEntity
  8
01
100
AcDbLine
 10
2089.149772013122
 20
-664.108151124968
 30
0.0
 11
2089.149772013122
 21
-672.1081511249681
 31
0.0
  0
LINE
  5
24A0E
330
18
100
AcDbEntity
  8
01
100
AcDbLine
 10
2073.399772013122
 20
-664.108151124968
 30
0.0
 11
2073.399772013122
 21
-672.1081511249681
 31
0.0
  0
LINE
  5
24A0F
330
18
100
AcDbEntity
  8
01
100
AcDbLine
 10
2073.149772013122
 20
-664.108151124968
 30
0.0
 11
2073.149772013122
 21
-672.1081511249681
 31
0.0
  0
LINE
  5
24A4F
330
18
100
AcDbEntity
  8
1DIM
100
AcDbLine
 10
2578.692234796076
 20
-659.9601475820035
 30
0.0
 11
2788.692234775076
 21
-659.9601475820018
 31
0.0
  0
TEXT
  5
24A50
330
18
100
AcDbEntity
  8
1TEXT
100
AcDbText
 10
2590.625568128215
 20
-656.9159376222764
 30
0.0
 40
7.9999999992
  1
\U+30D8\U+30A2\U+30E9\U+30A4\U+30F3
 72
     1
 11
2613.692234792575
 21
-656.9159376222764
 31
0.0
100
AcDbText
  0
TEXT
  5
24A51
330
18
100
AcDbEntity
  8
1TEXT
100
AcDbText
 10
2724.092234781537
 20
-657.3888615495586
 30
0.0
 40
7.9999999992
  1
SH-022-XT-3
 41
0.7
 72
     1
 11
2753.492234778597
 21
-657.3888615495586
 31
0.0
100
AcDbText
  0
TEXT
  5
24A52
330
18
100
AcDbEntity
  8
1TEXT
100
AcDbText
 10
2660.625568121215
 20
-656.9159376222764
 30
0.0
 40
7.9999999992
  1
\U+30D8\U+30A2\U+30E9\U+30A4\U+30F3
 72
     1
 11
2683.692234785575
 21
-656.9159376222764
 31
0.0
100
AcDbText
  0
SPLINE
  5
24A73
330
18
100
AcDbEntity
  8
1DIM
100
AcDbSpline
210
0.0
220
0.0
230
1.0
 70
     8
 71
     3
 72
    10
 73
     6
 74
     0
 42
0.000000001
 43
0.0000000001
 40
3.617122468010598
 40
3.617122468010598
 40
3.617122468010598
 40
3.617122468010598
 40
9.117674525349772
 40
27.92747863124929
 40
29.77874226029411
 40
29.77874226029411
 40
29.77874226029411
 40
29.77874226029411
 10
2170.518566469154
 20
-889.6082518159903
 30
0.0
 10
2169.530234324777
 20
-891.2286698665192
 30
0.0
 10
2166.11947670452
 20
-898.4801084401214
 30
0.0
 10
2173.925908885792
 20
-907.3604122840998
 30
0.0
 10
2172.937493164148
 20
-914.014179663629
 30
0.0
 10
2172.80682190682
 20
-914.6082518159906
 30
0.0
  0
SPLINE
  5
24A75
330
18
100
AcDbEntity
  8
1DIM
100
AcDbSpline
210
0.0
220
0.0
230
1.0
 70
     8
 71
     3
 72
    10
 73
     6
 74
     0
 42
0.000000001
 43
0.0000000001
 40
3.617122468010709
 40
3.617122468010709
 40
3.617122468010709
 40
3.617122468010709
 40
9.117674525349772
 40
27.92747863124929
 40
29.778742260294
 40
29.778742260294
 40
29.778742260294
 40
29.778742260294
 10
2190.518566469154
 20
-889.6082518159906
 30
0.0
 10
2189.530234324777
 20
-891.2286698665196
 30
0.0
 10
2186.11947670452
 20
-898.4801084401215
 30
0.0
 10
2193.925908885793
 20
-907.3604122840998
 30
0.0
 10
2192.937493164148
 20
-914.0141796636289
 30
0.0
 10
2192.80682190682
 20
-914.6082518159906
 30
0.0
  0
SPLINE
  5
24A7A
330
18
100
AcDbEntity
  8
1DIM
100
AcDbSpline
210
0.0
220
0.0
230
1.0
 70
     8
 71
     3
 72
    10
 73
     6
 74
     0
 42
0.000000001
 43
0.0000000001
 40
4.036313949391357
 40
4.036313949391357
 40
4.036313949391357
 40
4.036313949391357
 40
9.117674525349772
 40
27.92747863124929
 40
30.16422700997499
 40
30.16422700997499
 40
30.16422700997499
 40
30.16422700997499
 10
2170.296526831401
 20
-604.1081231258706
 30
0.0
 10
2169.415779676559
 20
-605.608077587948
 30
0.0
 10
2166.244560315411
 20
-612.7514312140162
 30
0.0
 10
2174.040934659395
 20
-621.6202936403203
 30
0.0
 10
2172.898120177827
 20
-628.3913728002024
 30
0.0
 10
2172.719854829274
 20
-629.1081231258672
 30
0.0
  0
SPLINE
  5
24A7B
330
18
100
AcDbEntity
  8
1DIM
100
AcDbSpline
210
0.0
220
0.0
230
1.0
 70
     8
 71
     3
 72
    10
 73
     6
 74
     0
 42
0.000000001
 43
0.0000000001
 40
4.036313949391702
 40
4.036313949391702
 40
4.036313949391702
 40
4.036313949391702
 40
9.117674525349772
 40
27.92747863124929
 40
30.16422700996458
 40
30.16422700996458
 40
30.16422700996458
 40
30.16422700996458
 10
2190.296526831401
 20
-604.1081231258709
 30
0.0
 10
2189.415779676559
 20
-605.6080775879478
 30
0.0
 10
2186.24456031541
 20
-612.7514312140164
 30
0.0
 10
2194.040934659391
 20
-621.6202936403167
 30
0.0
 10
2192.898120177828
 20
-628.3913728001955
 30
0.0
 10
2192.719854829278
 20
-629.1081231258572
 30
0.0
  0
LINE
  5
24A7C
330
18
100
AcDbEntity
  8
01
  6
CONTINUOUS
100
AcDbLine
 10
2190.296526831401
 20
-604.1081231258709
 30
0.0
 11
2490.649835994839
 21
-604.1081231258709
 31
0.0
  0
LINE
  5
24A7D
330
18
100
AcDbEntity
  8
01
  6
CONTINUOUS
100
AcDbLine
 10
2192.719854829278
 20
-629.1081231258573
 30
0.0
 11
2490.649835977338
 21
-629.1081231258322
 31
0.0
  0
LINE
  5
24A7E
330
18
100
AcDbEntity
  8
01
  6
CONTINUOUS
100
AcDbLine
 10
2170.518566469154
 20
-889.6082518159903
 30
0.0
 11
2121.64988584173
 21
-889.6082518159903
 31
0.0
  0
LINE
  5
24A7F
330
18
100
AcDbEntity
  8
1CENTER
100
AcDbLine
 10
2190.029003835414
 20
-902.1082518198945
 30
0.0
 11
2553.961394860872
 21
-902.1082518198946
 31
0.0
  0
LINE
  5
24A80
330
18
100
AcDbEntity
  8
01
  6
CONTINUOUS
100
AcDbLine
 10
2172.80682190682
 20
-914.6082518159908
 30
0.0
 11
2121.64988584173
 21
-914.6082518159908
 31
0.0
  0
LINE
  5
24C55
330
18
100
AcDbEntity
  8
1DIM
100
AcDbLine
 10
2709.349894211619
 20
-952.1082014724278
 30
0.0
 11
2709.349894211619
 21
-971.152709173115
 31
0.0
1001
ACAD
1000
DSTYLE
1002
{
1070
    40
1040
2.0
1070
    45
1040
0.5
1002
}
  0
LINE
  5
24C56
330
18
100
AcDbEntity
  8
1DIM
100
AcDbLine
 10
2769.29976488685
 20
-902.1081565140806
 30
0.0
 11
2769.29976488685
 21
-971.152709173115
 31
0.0
1001
ACAD
1000
DSTYLE
1002
{
1070
    40
1040
2.0
1070
    45
1040
0.5
1002
}
  0
LINE
  5
24C57
330
18
100
AcDbEntity
  8
1DIM
100
AcDbLine
 10
2713.349894211619
 20
-969.152709173115
 30
0.0
 11
2765.29976488685
 21
-969.152709173115
 31
0.0
1001
ACAD
1000
DSTYLE
1002
{
1070
    40
1040
2.0
1070
    45
1040
0.5
1002
}
  0
LINE
  5
24C5B
330
18
100
AcDbEntity
  8
1DIM
100
AcDbLine
 10
2701.14989421162
 20
-952.1082014724278
 30
0.0
 11
2701.14989421162
 21
-970.1821076679835
 31
0.0
1001
ACAD
1000
DSTYLE
1002
{
1070
    40
1040
2.0
1070
    45
1040
0.5
1002
}
  0
LINE
  5
24C5C
330
18
100
AcDbEntity
  8
1DIM
100
AcDbLine
 10
2669.14989421162
 20
-940.108252695147
 30
0.0
 11
2669.14989421162
 21
-970.1821076679835
 31
0.0
1001
ACAD
1000
DSTYLE
1002
{
1070
    40
1040
2.0
1070
    45
1040
0.5
1002
}
  0
LINE
  5
24C5D
330
18
100
AcDbEntity
  8
1DIM
100
AcDbLine
 10
2697.14989421162
 20
-968.1821076679835
 30
0.0
 11
2673.14989421162
 21
-968.1821076679835
 31
0.0
1001
ACAD
1000
DSTYLE
1002
{
1070
    40
1040
2.0
1070
    45
1040
0.5
1002
}
  0
LINE
  5
24C61
330
18
100
AcDbEntity
  8
1DIM
100
AcDbLine
 10
2701.14989421162
 20
-916.6099887615261
 30
0.0
 11
2701.14989421162
 21
-941.7546931612096
 31
0.0
1001
ACAD
1000
DSTYLE
1002
{
1070
    40
1040
2.0
1070
    45
1040
0.5
1002
}
  0
LINE
  5
24C62
330
18
100
AcDbEntity
  8
1DIM
100
AcDbLine
 10
2686.549894211621
 20
-917.7895124620425
 30
0.0
 11
2686.549894211621
 21
-941.7546931612096
 31
0.0
1001
ACAD
1000
DSTYLE
1002
{
1070
    40
1040
2.0
1070
    45
1040
0.5
1002
}
  0
LINE
  5
24C63
330
18
100
AcDbEntity
  8
1DIM
100
AcDbLine
 10
2697.14989421162
 20
-939.7546931612096
 30
0.0
 11
2690.549894211621
 21
-939.7546931612096
 31
0.0
1001
ACAD
1000
DSTYLE
1002
{
1070
    40
1040
2.0
1070
    45
1040
0.5
1002
}
  0
LINE
  5
24C67
330
18
100
AcDbEntity
  8
1DIM
100
AcDbLine
 10
2670.14989421162
 20
-888.108252695147
 30
0.0
 11
2631.190020374385
 21
-888.108252695147
 31
0.0
1001
ACAD
1000
DSTYLE
1002
{
1070
    40
1040
2.0
1070
    45
1040
0.5
1002
}
  0
LINE
  5
24C68
330
18
100
AcDbEntity
  8
1DIM
100
AcDbLine
 10
2670.14989421162
 20
-941.108252695147
 30
0.0
 11
2631.190020374385
 21
-941.108252695147
 31
0.0
1001
ACAD
1000
DSTYLE
1002
{
1070
    40
1040
2.0
1070
    45
1040
0.5
1002
}
  0
LINE
  5
24C69
330
18
100
AcDbEntity
  8
1DIM
100
AcDbLine
 10
2633.190020374385
 20
-892.108252695147
 30
0.0
 11
2633.190020374385
 21
-937.108252695147
 31
0.0
1001
ACAD
1000
DSTYLE
1002
{
1070
    40
1040
2.0
1070
    45
1040
0.5
1002
}
  0
LINE
  5
24C6D
330
18
100
AcDbEntity
  8
1HATCH
  6
CONTINUOUS
100
AcDbLine
 10
2098.137205832337
 20
-682.2311106589751
 30
0.0
 11
2098.09024551582
 21
-682.278070975492
 31
0.0
1001
ACAD
1010
0.0
1020
0.0
1030
0.0
  0
LINE
  5
24C6E
330
18
100
AcDbEntity
  8
1HATCH
  6
CONTINUOUS
100
AcDbLine
 10
2098.308911026163
 20
-679.8143414348825
 30
0.0
 11
2096.081152108156
 21
-682.0421003528885
 31
0.0
1001
ACAD
1010
0.0
1020
0.0
1030
0.0
  0
LINE
  5
24C6F
330
18
100
AcDbEntity
  8
1HATCH
  6
CONTINUOUS
100
AcDbLine
 10
2098.3487949409
 20
-677.5293934898775
 30
0.0
 11
2095.991907852819
 21
-679.8862805779592
 31
0.0
1001
ACAD
1010
0.0
1020
0.0
1030
0.0
  0
LINE
  5
24C70
330
18
100
AcDbEntity
  8
1HATCH
  6
CONTINUOUS
100
AcDbLine
 10
2101.148371394978
 20
-672.4847530055328
 30
0.0
 11
2099.024973275544
 21
-674.608151124967
 31
0.0
1001
ACAD
1010
0.0
1020
0.0
1030
0.0
  0
LINE
  5
24C71
330
18
100
AcDbEntity
  8
1HATCH
  6
CONTINUOUS
100
AcDbLine
 10
2098.388678855638
 20
-675.2444455448724
 30
0.0
 11
2095.953392404062
 21
-677.6797319964492
 31
0.0
1001
ACAD
1010
0.0
1020
0.0
1030
0.0
  0
LINE
  5
24C72
330
18
100
AcDbEntity
  8
1HATCH
  6
CONTINUOUS
100
AcDbLine
 10
2099.279909245277
 20
-672.1081511249662
 30
0.0
 11
2099.148371394978
 21
-672.2396889752654
 31
0.0
1001
ACAD
1010
0.0
1020
0.0
1030
0.0
  0
LINE
  5
24C73
330
18
100
AcDbEntity
  8
1HATCH
  6
CONTINUOUS
100
AcDbLine
 10
2098.779909245277
 20
-672.6081511249662
 30
0.0
 11
2095.914876955304
 21
-675.4731834149392
 31
0.0
1001
ACAD
1010
0.0
1020
0.0
1030
0.0
  0
LINE
  5
24C74
330
18
100
AcDbEntity
  8
1HATCH
  6
CONTINUOUS
100
AcDbLine
 10
2096.53484521501
 20
-672.6081511249661
 30
0.0
 11
2094.534845215009
 21
-674.6081511249674
 31
0.0
1001
ACAD
1010
0.0
1020
0.0
1030
0.0
  0
LINE
  5
24C75
330
18
100
AcDbEntity
  8
1HATCH
  6
CONTINUOUS
100
AcDbLine
 10
2094.289781184743
 20
-672.6081511249661
 30
0.0
 11
2092.289781184742
 21
-674.6081511249671
 31
0.0
1001
ACAD
1010
0.0
1020
0.0
1030
0.0
  0
LINE
  5
24C76
330
18
100
AcDbEntity
  8
1HATCH
  6
CONTINUOUS
100
AcDbLine
 10
2092.044717154476
 20
-672.608151124966
 30
0.0
 11
2090.044717154475
 21
-674.6081511249668
 31
0.0
1001
ACAD
1010
0.0
1020
0.0
1030
0.0
  0
LINE
  5
24C77
330
18
100
AcDbEntity
  8
1HATCH
  6
CONTINUOUS
100
AcDbLine
 10
2089.799653124208
 20
-672.6081511249658
 30
0.0
 11
2087.799653124207
 21
-674.6081511249665
 31
0.0
1001
ACAD
1010
0.0
1020
0.0
1030
0.0
  0
LINE
  5
24C78
330
18
100
AcDbEntity
  8
1HATCH
  6
CONTINUOUS
100
AcDbLine
 10
2087.554589093941
 20
-672.6081511249658
 30
0.0
 11
2085.649776108872
 21
-674.5129641100351
 31
0.0
1001
ACAD
1010
0.0
1020
0.0
1030
0.0
  0
LINE
  5
24C79
330
18
100
AcDbEntity
  8
1HATCH
  6
CONTINUOUS
100
AcDbLine
 10
2076.649794723231
 20
-674.5326893746071
 30
0.0
 11
2076.574332972872
 21
-674.6081511249662
 31
0.0
1001
ACAD
1010
0.0
1020
0.0
1030
0.0
  0
LINE
  5
24C7A
330
18
100
AcDbEntity
  8
1HATCH
  6
CONTINUOUS
100
AcDbLine
 10
2076.329268942604
 20
-672.6081511249662
 30
0.0
 11
2074.329268942604
 21
-674.6081511249662
 31
0.0
1001
ACAD
1010
0.0
1020
0.0
1030
0.0
  0
LINE
  5
24C7B
330
18
100
AcDbEntity
  8
1HATCH
  6
CONTINUOUS
100
AcDbLine
 10
2074.084204912337
 20
-672.6081511249662
 30
0.0
 11
2072.084204912337
 21
-674.6081511249662
 31
0.0
1001
ACAD
1010
0.0
1020
0.0
1030
0.0
  0
LINE
  5
24C7C
330
18
100
AcDbEntity
  8
1HATCH
  6
CONTINUOUS
100
AcDbLine
 10
2066.298793020305
 20
-680.3935630169976
 30
0.0
 11
2064.354778566176
 21
-682.3375774711269
 31
0.0
1001
ACAD
1010
0.0
1020
0.0
1030
0.0
  0
LINE
  5
24C7D
330
18
100
AcDbEntity
  8
1HATCH
  6
CONTINUOUS
100
AcDbLine
 10
2071.83914088207
 20
-672.6081511249662
 30
0.0
 11
2069.83914088207
 21
-674.6081511249662
 31
0.0
1001
ACAD
1010
0.0
1020
0.0
1030
0.0
  0
LINE
  5
24C7E
330
18
100
AcDbEntity
  8
1HATCH
  6
CONTINUOUS
100
AcDbLine
 10
2069.594076851802
 20
-672.6081511249662
 30
0.0
 11
2067.594076851802
 21
-674.6081511249662
 31
0.0
1001
ACAD
1010
0.0
1020
0.0
1030
0.0
  0
LINE
  5
24C7F
330
18
100
AcDbEntity
  8
1HATCH
  6
CONTINUOUS
100
AcDbLine
 10
2066.338676935043
 20
-678.1086150719929
 30
0.0
 11
2064.001678697498
 21
-680.4456133095374
 31
0.0
1001
ACAD
1010
0.0
1020
0.0
1030
0.0
  0
LINE
  5
24C80
330
18
100
AcDbEntity
  8
1HATCH
  6
CONTINUOUS
100
AcDbLine
 10
2066.378560849781
 20
-675.8236671269881
 30
0.0
 11
2063.963163248741
 21
-678.2390647280274
 31
0.0
1001
ACAD
1010
0.0
1020
0.0
1030
0.0
  0
LINE
  5
24C81
330
18
100
AcDbEntity
  8
1HATCH
  6
CONTINUOUS
100
AcDbLine
 10
2067.349012821535
 20
-672.6081511249662
 30
0.0
 11
2063.924647799984
 21
-676.0325161465175
 31
0.0
1001
ACAD
1010
0.0
1020
0.0
1030
0.0
  0
LINE
  5
24C82
330
18
100
AcDbEntity
  8
1HATCH
  6
CONTINUOUS
100
AcDbLine
 10
2065.103948791268
 20
-672.6081511249662
 30
0.0
 11
2063.103948791269
 21
-674.6081511249654
 31
0.0
1001
ACAD
1010
0.0
1020
0.0
1030
0.0
  0
LINE
  5
24C83
330
18
100
AcDbEntity
  8
1HATCH
  6
CONTINUOUS
100
AcDbLine
 10
2063.151199437124
 20
-672.3158364488422
 30
0.0
 11
2061.151199437125
 21
-674.315836448842
 31
0.0
1001
ACAD
1010
0.0
1020
0.0
1030
0.0
  0
LINE
  5
24C84
330
18
100
AcDbEntity
  8
1HATCH
  6
CONTINUOUS
100
AcDbLine
 10
2100.47340694786
 20
-674.6081511249662
 30
0.0
 11
2101.148371394973
 21
-675.2831155720801
 31
0.0
1001
ACAD
1010
0.0
1020
0.0
1030
0.0
  0
LINE
  5
24C85
330
18
100
AcDbEntity
  8
1HATCH
  6
CONTINUOUS
100
AcDbLine
 10
2098.65119943712
 20
-675.0310076444939
 30
0.0
 11
2101.148371394973
 21
-677.5281796023473
 31
0.0
1001
ACAD
1010
0.0
1020
0.0
1030
0.0
  0
LINE
  5
24C86
330
18
100
AcDbEntity
  8
1HATCH
  6
CONTINUOUS
100
AcDbLine
 10
2098.65119943712
 20
-677.2760716747612
 30
0.0
 11
2101.148371394973
 21
-679.7732436326146
 31
0.0
1001
ACAD
1010
0.0
1020
0.0
1030
0.0
  0
LINE
  5
24C87
330
18
100
AcDbEntity
  8
1HATCH
  6
CONTINUOUS
100
AcDbLine
 10
2098.65119943712
 20
-679.5211357050285
 30
0.0
 11
2101.148371394973
 21
-682.018307662882
 31
0.0
1001
ACAD
1010
0.0
1020
0.0
1030
0.0
  0
LINE
  5
24C88
330
18
100
AcDbEntity
  8
1HATCH
  6
CONTINUOUS
100
AcDbLine
 10
2098.65119943712
 20
-681.7661997352958
 30
0.0
 11
2101.148371394973
 21
-684.2633716931492
 31
0.0
1001
ACAD
1010
0.0
1020
0.0
1030
0.0
  0
LINE
  5
24C89
330
18
100
AcDbEntity
  8
1HATCH
  6
CONTINUOUS
100
AcDbLine
 10
2098.65119943712
 20
-684.0112637655631
 30
0.0
 11
2100.78124179764
 21
-686.1413061260832
 31
0.0
1001
ACAD
1010
0.0
1020
0.0
1030
0.0
  0
LINE
  5
24C8A
330
18
100
AcDbEntity
  8
1HATCH
  6
CONTINUOUS
100
AcDbLine
 10
2096.803022766255
 20
-684.4081511249655
 30
0.0
 11
2098.803022766255
 21
-686.4081511249655
 31
0.0
1001
ACAD
1010
0.0
1020
0.0
1030
0.0
  0
LINE
  5
24C8B
330
18
100
AcDbEntity
  8
1HATCH
  6
CONTINUOUS
100
AcDbLine
 10
2094.557958735988
 20
-684.4081511249655
 30
0.0
 11
2096.557958735988
 21
-686.4081511249655
 31
0.0
1001
ACAD
1010
0.0
1020
0.0
1030
0.0
  0
LINE
  5
24C8C
330
18
100
AcDbEntity
  8
1HATCH
  6
CONTINUOUS
100
AcDbLine
 10
2092.31289470572
 20
-684.4081511249655
 30
0.0
 11
2094.31289470572
 21
-686.4081511249655
 31
0.0
1001
ACAD
1010
0.0
1020
0.0
1030
0.0
  0
LINE
  5
24C8D
330
18
100
AcDbEntity
  8
1HATCH
  6
CONTINUOUS
100
AcDbLine
 10
2090.067830675453
 20
-684.4081511249655
 30
0.0
 11
2092.067830675453
 21
-686.4081511249655
 31
0.0
1001
ACAD
1010
0.0
1020
0.0
1030
0.0
  0
LINE
  5
24C8E
330
18
100
AcDbEntity
  8
1HATCH
  6
CONTINUOUS
100
AcDbLine
 10
2087.822766645186
 20
-684.4081511249655
 30
0.0
 11
2089.822766645186
 21
-686.4081511249655
 31
0.0
1001
ACAD
1010
0.0
1020
0.0
1030
0.0
  0
LINE
  5
24C8F
330
18
100
AcDbEntity
  8
1HATCH
  6
CONTINUOUS
100
AcDbLine
 10
2085.577702614919
 20
-684.4081511249655
 30
0.0
 11
2087.577702614919
 21
-686.4081511249655
 31
0.0
1001
ACAD
1010
0.0
1020
0.0
1030
0.0
  0
LINE
  5
24C90
330
18
100
AcDbEntity
  8
1HATCH
  6
CONTINUOUS
100
AcDbLine
 10
2083.332638584651
 20
-684.4081511249655
 30
0.0
 11
2085.332638584651
 21
-686.4081511249655
 31
0.0
1001
ACAD
1010
0.0
1020
0.0
1030
0.0
  0
LINE
  5
24C91
330
18
100
AcDbEntity
  8
1HATCH
  6
CONTINUOUS
100
AcDbLine
 10
2081.087574554384
 20
-684.4081511249655
 30
0.0
 11
2083.087574554384
 21
-686.4081511249655
 31
0.0
1001
ACAD
1010
0.0
1020
0.0
1030
0.0
  0
LINE
  5
24C92
330
18
100
AcDbEntity
  8
1HATCH
  6
CONTINUOUS
100
AcDbLine
 10
2078.842510524117
 20
-684.4081511249655
 30
0.0
 11
2080.842510524117
 21
-686.4081511249655
 31
0.0
1001
ACAD
1010
0.0
1020
0.0
1030
0.0
  0
LINE
  5
24C93
330
18
100
AcDbEntity
  8
1HATCH
  6
CONTINUOUS
100
AcDbLine
 10
2076.597446493849
 20
-684.4081511249655
 30
0.0
 11
2078.597446493849
 21
-686.4081511249655
 31
0.0
1001
ACAD
1010
0.0
1020
0.0
1030
0.0
  0
LINE
  5
24C94
330
18
100
AcDbEntity
  8
1HATCH
  6
CONTINUOUS
100
AcDbLine
 10
2074.352382463582
 20
-684.4081511249655
 30
0.0
 11
2076.352382463582
 21
-686.4081511249655
 31
0.0
1001
ACAD
1010
0.0
1020
0.0
1030
0.0
  0
LINE
  5
24C95
330
18
100
AcDbEntity
  8
1HATCH
  6
CONTINUOUS
100
AcDbLine
 10
2062.307318433315
 20
-674.6081511249653
 30
0.0
 11
2063.65119943712
 21
-675.9520321287705
 31
0.0
1001
ACAD
1010
0.0
1020
0.0
1030
0.0
  0
LINE
  5
24C96
330
18
100
AcDbEntity
  8
1HATCH
  6
CONTINUOUS
100
AcDbLine
 10
2072.107318433315
 20
-684.4081511249655
 30
0.0
 11
2074.107318433315
 21
-686.4081511249655
 31
0.0
1001
ACAD
1010
0.0
1020
0.0
1030
0.0
  0
LINE
  5
24C97
330
18
100
AcDbEntity
  8
1HATCH
  6
CONTINUOUS
100
AcDbLine
 10
2061.15119943712
 20
-675.6970961590378
 30
0.0
 11
2063.65119943712
 21
-678.1970961590378
 31
0.0
1001
ACAD
1010
0.0
1020
0.0
1030
0.0
  0
LINE
  5
24C98
330
18
100
AcDbEntity
  8
1HATCH
  6
CONTINUOUS
100
AcDbLine
 10
2061.15119943712
 20
-677.9421601893051
 30
0.0
 11
2063.65119943712
 21
-680.4421601893051
 31
0.0
1001
ACAD
1010
0.0
1020
0.0
1030
0.0
  0
LINE
  5
24C99
330
18
100
AcDbEntity
  8
1HATCH
  6
CONTINUOUS
100
AcDbLine
 10
2061.15119943712
 20
-680.1872242195724
 30
0.0
 11
2063.65119943712
 21
-682.6872242195724
 31
0.0
1001
ACAD
1010
0.0
1020
0.0
1030
0.0
  0
LINE
  5
24C9A
330
18
100
AcDbEntity
  8
1HATCH
  6
CONTINUOUS
100
AcDbLine
 10
2069.862254403048
 20
-684.4081511249655
 30
0.0
 11
2071.862254403048
 21
-686.4081511249655
 31
0.0
1001
ACAD
1010
0.0
1020
0.0
1030
0.0
  0
LINE
  5
24C9B
330
18
100
AcDbEntity
  8
1HATCH
  6
CONTINUOUS
100
AcDbLine
 10
2067.61719037278
 20
-684.4081511249655
 30
0.0
 11
2069.61719037278
 21
-686.4081511249655
 31
0.0
1001
ACAD
1010
0.0
1020
0.0
1030
0.0
  0
LINE
  5
24C9C
330
18
100
AcDbEntity
  8
1HATCH
  6
CONTINUOUS
100
AcDbLine
 10
2065.372126342513
 20
-684.4081511249655
 30
0.0
 11
2067.372126342513
 21
-686.4081511249655
 31
0.0
1001
ACAD
1010
0.0
1020
0.0
1030
0.0
  0
LINE
  5
24C9D
330
18
100
AcDbEntity
  8
1HATCH
  6
CONTINUOUS
100
AcDbLine
 10
2061.15119943712
 20
-682.4322882498396
 30
0.0
 11
2065.127062312245
 21
-686.4081511249655
 31
0.0
1001
ACAD
1010
0.0
1020
0.0
1030
0.0
  0
LINE
  5
24C9E
330
18
100
AcDbEntity
  8
1HATCH
  6
CONTINUOUS
100
AcDbLine
 10
2061.15119943712
 20
-684.6773522801069
 30
0.0
 11
2062.881998281978
 21
-686.4081511249655
 31
0.0
1001
ACAD
1010
0.0
1020
0.0
1030
0.0
  0
LINE
  5
24C9F
330
18
100
AcDbEntity
  8
1DIM
100
AcDbLine
 10
2061.149894164873
 20
-909.1082518198943
 30
0.0
 11
2061.149894164873
 21
-1014.108251819895
 31
0.0
1001
ACAD
1000
DSTYLE
1002
{
1070
    40
1040
2.0
1070
    45
1040
0.5
1002
}
  0
LINE
  5
24CA0
330
18
100
AcDbEntity
  8
1DIM
100
AcDbLine
 10
2551.149894258366
 20
-934.1082518198946
 30
0.0
 11
2551.149894258366
 21
-1014.108251819895
 31
0.0
1001
ACAD
1000
DSTYLE
1002
{
1070
    40
1040
2.0
1070
    45
1040
0.5
1002
}
  0
LINE
  5
24CA1
330
18
100
AcDbEntity
  8
1DIM
100
AcDbLine
 10
2065.149894164873
 20
-1012.108251819895
 30
0.0
 11
2547.149894258366
 21
-1012.108251819895
 31
0.0
1001
ACAD
1000
DSTYLE
1002
{
1070
    40
1040
2.0
1070
    45
1040
0.5
1002
}
  0
LINE
  5
24CA5
330
18
100
AcDbEntity
  8
1DIM
100
AcDbLine
 10
2081.14989421162
 20
-921.0048452269809
 30
0.0
 11
2081.14989421162
 21
-984.1082518198946
 31
0.0
1001
ACAD
1000
DSTYLE
1002
{
1070
    40
1040
2.0
1070
    45
1040
0.5
1002
}
  0
LINE
  5
24CA6
330
18
100
AcDbEntity
  8
1DIM
100
AcDbLine
 10
2531.14989421162
 20
-907.4597505902395
 30
0.0
 11
2531.14989421162
 21
-984.1082518198946
 31
0.0
1001
ACAD
1000
DSTYLE
1002
{
1070
    40
1040
2.0
1070
    45
1040
0.5
1002
}
  0
LINE
  5
24CA7
330
18
100
AcDbEntity
  8
1DIM
100
AcDbLine
 10
2085.14989421162
 20
-982.1082518198946
 30
0.0
 11
2527.14989421162
 21
-982.1082518198946
 31
0.0
1001
ACAD
1000
DSTYLE
1002
{
1070
    40
1040
2.0
1070
    45
1040
0.5
1002
}
  0
LINE
  5
24CAB
330
18
100
AcDbEntity
  8
1DIM
100
AcDbLine
 10
2306.155146517103
 20
-889.6082518159906
 30
0.0
 11
2277.970034932371
 21
-889.6082518159905
 31
0.0
1001
ACAD
1000
DSTYLE
1002
{
1070
    40
1040
2.0
1070
    45
1040
0.5
1002
}
  0
LINE
  5
24CAC
330
18
100
AcDbEntity
  8
1DIM
100
AcDbLine
 10
2306.155146517103
 20
-914.608251815991
 30
0.0
 11
2277.970034932371
 21
-914.6082518159909
 31
0.0
1001
ACAD
1000
DSTYLE
1002
{
1070
    40
1040
2.0
1070
    45
1040
0.5
1002
}
  0
LINE
  5
24CAD
330
18
100
AcDbEntity
  8
1DIM
100
AcDbLine
 10
2279.970034932371
 20
-910.6082518159909
 30
0.0
 11
2279.970034932371
 21
-893.6082518159905
 31
0.0
1001
ACAD
1000
DSTYLE
1002
{
1070
    40
1040
2.0
1070
    45
1040
0.5
1002
}
  0
LINE
  5
24CAE
330
18
100
AcDbEntity
  8
1DIM
100
AcDbLine
 10
2279.970034932371
 20
-889.6082518159905
 30
0.0
 11
2279.970034932371
 21
-865.9415851493264
 31
0.0
1001
ACAD
1000
DSTYLE
1002
{
1070
    40
1040
2.0
1070
    45
1040
0.5
1002
}
  0
LINE
  5
24CB2
330
18
100
AcDbEntity
  8
1HATCH
  6
CONTINUOUS
100
AcDbLine
 10
2061.151190129945
 20
-635.0916274584288
 30
0.0
 11
2061.96986754713
 21
-634.2729500412433
 31
0.0
1001
ACAD
1010
0.0
1020
0.0
1030
0.0
  0
LINE
  5
24CB3
330
18
100
AcDbEntity
  8
1HATCH
  6
CONTINUOUS
100
AcDbLine
 10
2061.151190129945
 20
-637.3366914886961
 30
0.0
 11
2064.753275765292
 21
-633.7346058533494
 31
0.0
1001
ACAD
1010
0.0
1020
0.0
1030
0.0
  0
LINE
  5
24CB4
330
18
100
AcDbEntity
  8
1HATCH
  6
CONTINUOUS
100
AcDbLine
 10
2061.151190129945
 20
-639.5817555189634
 30
0.0
 11
2064.939251247278
 21
-635.7936944016303
 31
0.0
1001
ACAD
1010
0.0
1020
0.0
1030
0.0
  0
LINE
  5
24CB5
330
18
100
AcDbEntity
  8
1HATCH
  6
CONTINUOUS
100
AcDbLine
 10
2061.151190129945
 20
-641.8268195492307
 30
0.0
 11
2064.874738938763
 21
-638.1032707404129
 31
0.0
1001
ACAD
1010
0.0
1020
0.0
1030
0.0
  0
LINE
  5
24CB6
330
18
100
AcDbEntity
  8
1HATCH
  6
CONTINUOUS
100
AcDbLine
 10
2061.151190129945
 20
-644.0718835794979
 30
0.0
 11
2064.810226630248
 21
-640.4128470791953
 31
0.0
1001
ACAD
1010
0.0
1020
0.0
1030
0.0
  0
LINE
  5
24CB7
330
18
100
AcDbEntity
  8
1HATCH
  6
CONTINUOUS
100
AcDbLine
 10
2061.151190129945
 20
-646.3169476097653
 30
0.0
 11
2064.745714321733
 21
-642.7224234179779
 31
0.0
1001
ACAD
1010
0.0
1020
0.0
1030
0.0
  0
LINE
  5
24CB8
330
18
100
AcDbEntity
  8
1HATCH
  6
CONTINUOUS
100
AcDbLine
 10
2061.151190129945
 20
-648.5620116400326
 30
0.0
 11
2064.681202013217
 21
-645.0319997567603
 31
0.0
1001
ACAD
1010
0.0
1020
0.0
1030
0.0
  0
LINE
  5
24CB9
330
18
100
AcDbEntity
  8
1HATCH
  6
CONTINUOUS
100
AcDbLine
 10
2061.151190129945
 20
-650.8070756702998
 30
0.0
 11
2064.616689704702
 21
-647.3415760955428
 31
0.0
1001
ACAD
1010
0.0
1020
0.0
1030
0.0
  0
LINE
  5
24CBA
330
18
100
AcDbEntity
  8
1HATCH
  6
CONTINUOUS
100
AcDbLine
 10
2061.151190129945
 20
-653.0521397005672
 30
0.0
 11
2064.552177396187
 21
-649.6511524343254
 31
0.0
1001
ACAD
1010
0.0
1020
0.0
1030
0.0
  0
LINE
  5
24CBB
330
18
100
AcDbEntity
  8
1HATCH
  6
CONTINUOUS
100
AcDbLine
 10
2061.151190129945
 20
-655.2972037308344
 30
0.0
 11
2064.487665087672
 21
-651.9607287731078
 31
0.0
1001
ACAD
1010
0.0
1020
0.0
1030
0.0
  0
LINE
  5
24CBC
330
18
100
AcDbEntity
  8
1HATCH
  6
CONTINUOUS
100
AcDbLine
 10
2061.151190129945
 20
-657.5422677611017
 30
0.0
 11
2064.423152779156
 21
-654.2703051118903
 31
0.0
1001
ACAD
1010
0.0
1020
0.0
1030
0.0
  0
LINE
  5
24CBD
330
18
100
AcDbEntity
  8
1HATCH
  6
CONTINUOUS
100
AcDbLine
 10
2061.151190129945
 20
-659.787331791369
 30
0.0
 11
2064.358640470641
 21
-656.5798814506728
 31
0.0
1001
ACAD
1010
0.0
1020
0.0
1030
0.0
  0
LINE
  5
24CBE
330
18
100
AcDbEntity
  8
1HATCH
  6
CONTINUOUS
100
AcDbLine
 10
2061.151190129945
 20
-662.0323958216363
 30
0.0
 11
2064.294128162126
 21
-658.8894577894553
 31
0.0
1001
ACAD
1010
0.0
1020
0.0
1030
0.0
  0
LINE
  5
24CBF
330
18
100
AcDbEntity
  8
1HATCH
  6
CONTINUOUS
100
AcDbLine
 10
2061.320498856882
 20
-664.1081511249662
 30
0.0
 11
2064.320498856882
 21
-661.1081511249662
 31
0.0
1001
ACAD
1010
0.0
1020
0.0
1030
0.0
  0
LINE
  5
24CC0
330
18
100
AcDbEntity
  8
1HATCH
  6
CONTINUOUS
100
AcDbLine
 10
2075.3429335724
 20
-650.085716409448
 30
0.0
 11
2076.320498856882
 21
-649.1081511249663
 31
0.0
1001
ACAD
1010
0.0
1020
0.0
1030
0.0
  0
LINE
  5
24CC1
330
18
100
AcDbEntity
  8
1HATCH
  6
CONTINUOUS
100
AcDbLine
 10
2064.06556288715
 20
-663.6081511249662
 30
0.0
 11
2066.56556288715
 21
-661.1081511249662
 31
0.0
1001
ACAD
1010
0.0
1020
0.0
1030
0.0
  0
LINE
  5
24CC2
330
18
100
AcDbEntity
  8
1HATCH
  6
CONTINUOUS
100
AcDbLine
 10
2066.310626917417
 20
-663.6081511249662
 30
0.0
 11
2068.810626917417
 21
-661.1081511249662
 31
0.0
1001
ACAD
1010
0.0
1020
0.0
1030
0.0
  0
LINE
  5
24CC3
330
18
100
AcDbEntity
  8
1HATCH
  6
CONTINUOUS
100
AcDbLine
 10
2068.555690947684
 20
-663.6081511249662
 30
0.0
 11
2071.055690947684
 21
-661.1081511249662
 31
0.0
1001
ACAD
1010
0.0
1020
0.0
1030
0.0
  0
LINE
  5
24CC4
330
18
100
AcDbEntity
  8
1HATCH
  6
CONTINUOUS
100
AcDbLine
 10
2075.303044533401
 20
-652.3706694787146
 30
0.0
 11
2077.149785416051
 21
-650.5239285960647
 31
0.0
1001
ACAD
1010
0.0
1020
0.0
1030
0.0
  0
LINE
  5
24CC5
330
18
100
AcDbEntity
  8
1HATCH
  6
CONTINUOUS
100
AcDbLine
 10
2075.263155494402
 20
-654.6556225479811
 30
0.0
 11
2077.149785416051
 21
-652.768992626332
 31
0.0
1001
ACAD
1010
0.0
1020
0.0
1030
0.0
  0
LINE
  5
24CC6
330
18
100
AcDbEntity
  8
1HATCH
  6
CONTINUOUS
100
AcDbLine
 10
2075.223266455403
 20
-656.9405756172476
 30
0.0
 11
2077.149785416051
 21
-655.0140566565993
 31
0.0
1001
ACAD
1010
0.0
1020
0.0
1030
0.0
  0
LINE
  5
24CC7
330
18
100
AcDbEntity
  8
1HATCH
  6
CONTINUOUS
100
AcDbLine
 10
2070.800754977951
 20
-663.6081511249662
 30
0.0
 11
2073.319263755098
 21
-661.0896423478198
 31
0.0
1001
ACAD
1010
0.0
1020
0.0
1030
0.0
  0
LINE
  5
24CC8
330
18
100
AcDbEntity
  8
1HATCH
  6
CONTINUOUS
100
AcDbLine
 10
2075.167646746898
 20
-659.2412593560201
 30
0.0
 11
2077.149785416051
 21
-657.2591206868666
 31
0.0
1001
ACAD
1010
0.0
1020
0.0
1030
0.0
  0
LINE
  5
24CC9
330
18
100
AcDbEntity
  8
1HATCH
  6
CONTINUOUS
100
AcDbLine
 10
2073.045819008219
 20
-663.6081511249662
 30
0.0
 11
2077.149785416051
 21
-659.5041847171339
 31
0.0
1001
ACAD
1010
0.0
1020
0.0
1030
0.0
  0
LINE
  5
24CCA
330
18
100
AcDbEntity
  8
1HATCH
  6
CONTINUOUS
100
AcDbLine
 10
2075.290883038486
 20
-663.6081511249662
 30
0.0
 11
2077.149785416051
 21
-661.7492487474011
 31
0.0
1001
ACAD
1010
0.0
1020
0.0
1030
0.0
  0
LINE
  5
24CCB
330
18
100
AcDbEntity
  8
1HATCH
  6
CONTINUOUS
100
AcDbLine
 10
2085.150019842555
 20
-649.2588862603625
 30
0.0
 11
2085.300754977951
 21
-649.1081511249668
 31
0.0
1001
ACAD
1010
0.0
1020
0.0
1030
0.0
  0
LINE
  5
24CCC
330
18
100
AcDbEntity
  8
1HATCH
  6
CONTINUOUS
100
AcDbLine
 10
2097.391639923454
 20
-637.0172661794638
 30
0.0
 11
2098.956635309421
 21
-635.4522707934967
 31
0.0
1001
ACAD
1010
0.0
1020
0.0
1030
0.0
  0
LINE
  5
24CCD
330
18
100
AcDbEntity
  8
1HATCH
  6
CONTINUOUS
100
AcDbLine
 10
2085.15003598598
 20
-651.5039341472053
 30
0.0
 11
2086.949973501364
 21
-649.7039966318209
 31
0.0
1001
ACAD
1010
0.0
1020
0.0
1030
0.0
  0
LINE
  5
24CCE
330
18
100
AcDbEntity
  8
1HATCH
  6
CONTINUOUS
100
AcDbLine
 10
2097.452646180959
 20
-639.2013239522263
 30
0.0
 11
2101.152678598478
 21
-635.5012915347066
 31
0.0
1001
ACAD
1010
0.0
1020
0.0
1030
0.0
  0
LINE
  5
24CCF
330
18
100
AcDbEntity
  8
1HATCH
  6
CONTINUOUS
100
AcDbLine
 10
2085.150052129404
 20
-653.7489820340481
 30
0.0
 11
2086.98849382441
 21
-651.9105403390417
 31
0.0
1001
ACAD
1010
0.0
1020
0.0
1030
0.0
  0
LINE
  5
24CD0
330
18
100
AcDbEntity
  8
1HATCH
  6
CONTINUOUS
100
AcDbLine
 10
2097.513652438463
 20
-641.3853817249886
 30
0.0
 11
2103.248662377162
 21
-635.6503717862909
 31
0.0
1001
ACAD
1010
0.0
1020
0.0
1030
0.0
  0
LINE
  5
24CD1
330
18
100
AcDbEntity
  8
1HATCH
  6
CONTINUOUS
100
AcDbLine
 10
2085.150068272828
 20
-655.994029920891
 30
0.0
 11
2087.027014038415
 21
-654.1170841553046
 31
0.0
1001
ACAD
1010
0.0
1020
0.0
1030
0.0
  0
LINE
  5
24CD2
330
18
100
AcDbEntity
  8
1HATCH
  6
CONTINUOUS
100
AcDbLine
 10
2097.574658695969
 20
-643.5694394977511
 30
0.0
 11
2102.280492254435
 21
-638.8636059392845
 31
0.0
1001
ACAD
1010
0.0
1020
0.0
1030
0.0
  0
LINE
  5
24CD3
330
18
100
AcDbEntity
  8
1HATCH
  6
CONTINUOUS
100
AcDbLine
 10
2085.150084416253
 20
-658.2390778077337
 30
0.0
 11
2087.065534218348
 21
-656.3236280056389
 31
0.0
1001
ACAD
1010
0.0
1020
0.0
1030
0.0
  0
LINE
  5
24CD4
330
18
100
AcDbEntity
  8
1HATCH
  6
CONTINUOUS
100
AcDbLine
 10
2097.635664953473
 20
-645.7534972705134
 30
0.0
 11
2101.512678348482
 21
-641.8764838755046
 31
0.0
1001
ACAD
1010
0.0
1020
0.0
1030
0.0
  0
LINE
  5
24CD5
330
18
100
AcDbEntity
  8
1HATCH
  6
CONTINUOUS
100
AcDbLine
 10
2085.150100559677
 20
-660.4841256945765
 30
0.0
 11
2087.104054398281
 21
-658.5301718559731
 31
0.0
1001
ACAD
1010
0.0
1020
0.0
1030
0.0
  0
LINE
  5
24CD6
330
18
100
AcDbEntity
  8
1HATCH
  6
CONTINUOUS
100
AcDbLine
 10
2097.696671210978
 20
-647.9375550432759
 30
0.0
 11
2101.148362087798
 21
-644.4858641664556
 31
0.0
1001
ACAD
1010
0.0
1020
0.0
1030
0.0
  0
LINE
  5
24CD7
330
18
100
AcDbEntity
  8
1HATCH
  6
CONTINUOUS
100
AcDbLine
 10
2085.150116703102
 20
-662.7291735814193
 30
0.0
 11
2087.546325546222
 21
-660.3329647382993
 31
0.0
1001
ACAD
1010
0.0
1020
0.0
1030
0.0
  0
LINE
  5
24CD8
330
18
100
AcDbEntity
  8
1HATCH
  6
CONTINUOUS
100
AcDbLine
 10
2097.757677468483
 20
-650.1216128160384
 30
0.0
 11
2101.148362087798
 21
-646.7309281967229
 31
0.0
1001
ACAD
1010
0.0
1020
0.0
1030
0.0
  0
LINE
  5
24CD9
330
18
100
AcDbEntity
  8
1HATCH
  6
CONTINUOUS
100
AcDbLine
 10
2086.516203189823
 20
-663.6081511249662
 30
0.0
 11
2089.020861598294
 21
-661.1034927164947
 31
0.0
1001
ACAD
1010
0.0
1020
0.0
1030
0.0
  0
LINE
  5
24CDA
330
18
100
AcDbEntity
  8
1HATCH
  6
CONTINUOUS
100
AcDbLine
 10
2097.818683725988
 20
-652.3056705888007
 30
0.0
 11
2101.148362087798
 21
-648.9759922269901
 31
0.0
1001
ACAD
1010
0.0
1020
0.0
1030
0.0
  0
LINE
  5
24CDB
330
18
100
AcDbEntity
  8
1HATCH
  6
CONTINUOUS
100
AcDbLine
 10
2088.76126722009
 20
-663.6081511249662
 30
0.0
 11
2091.26126722009
 21
-661.1081511249662
 31
0.0
1001
ACAD
1010
0.0
1020
0.0
1030
0.0
  0
LINE
  5
24CDC
330
18
100
AcDbEntity
  8
1HATCH
  6
CONTINUOUS
100
AcDbLine
 10
2091.006331250357
 20
-663.6081511249662
 30
0.0
 11
2093.506331250357
 21
-661.1081511249662
 31
0.0
1001
ACAD
1010
0.0
1020
0.0
1030
0.0
  0
LINE
  5
24CDD
330
18
100
AcDbEntity
  8
1HATCH
  6
CONTINUOUS
100
AcDbLine
 10
2093.251395280624
 20
-663.6081511249662
 30
0.0
 11
2095.751395280624
 21
-661.1081511249662
 31
0.0
1001
ACAD
1010
0.0
1020
0.0
1030
0.0
  0
LINE
  5
24CDE
330
18
100
AcDbEntity
  8
1HATCH
  6
CONTINUOUS
100
AcDbLine
 10
2095.496459310892
 20
-663.6081511249662
 30
0.0
 11
2097.996459310892
 21
-661.1081511249662
 31
0.0
1001
ACAD
1010
0.0
1020
0.0
1030
0.0
  0
LINE
  5
24CDF
330
18
100
AcDbEntity
  8
1HATCH
  6
CONTINUOUS
100
AcDbLine
 10
2097.879689983493
 20
-654.4897283615632
 30
0.0
 11
2101.148362087798
 21
-651.2210562572574
 31
0.0
1001
ACAD
1010
0.0
1020
0.0
1030
0.0
  0
LINE
  5
24CE0
330
18
100
AcDbEntity
  8
1HATCH
  6
CONTINUOUS
100
AcDbLine
 10
2097.940696240998
 20
-656.6737861343255
 30
0.0
 11
2101.148362087798
 21
-653.4661202875247
 31
0.0
1001
ACAD
1010
0.0
1020
0.0
1030
0.0
  0
LINE
  5
24CE1
330
18
100
AcDbEntity
  8
1HATCH
  6
CONTINUOUS
100
AcDbLine
 10
2098.001702498502
 20
-658.857843907088
 30
0.0
 11
2101.148362087798
 21
-655.711184317792
 31
0.0
1001
ACAD
1010
0.0
1020
0.0
1030
0.0
  0
LINE
  5
24CE2
330
18
100
AcDbEntity
  8
1HATCH
  6
CONTINUOUS
100
AcDbLine
 10
2098.062708756007
 20
-661.0419016798504
 30
0.0
 11
2101.148362087798
 21
-657.9562483480593
 31
0.0
1001
ACAD
1010
0.0
1020
0.0
1030
0.0
  0
LINE
  5
24CE3
330
18
100
AcDbEntity
  8
1HATCH
  6
CONTINUOUS
100
AcDbLine
 10
2097.741523341159
 20
-663.6081511249662
 30
0.0
 11
2101.148362087798
 21
-660.2013123783266
 31
0.0
1001
ACAD
1010
0.0
1020
0.0
1030
0.0
  0
LINE
  5
24CE4
330
18
100
AcDbEntity
  8
1HATCH
  6
CONTINUOUS
100
AcDbLine
 10
2099.486587371426
 20
-664.1081511249662
 30
0.0
 11
2101.148362087798
 21
-662.4463764085939
 31
0.0
1001
ACAD
1010
0.0
1020
0.0
1030
0.0
  0
SOLID
  5
24CE5
330
18
100
AcDbEntity
  8
1DIM
100
AcDbTrace
 10
2511.464619583842
 20
-702.4118168190212
 30
0.0
 11
2513.64994621073
 21
-698.9958554641082
 31
0.0
 12
2512.690624705808
 22
-702.9359248409895
 32
0.0
 13
2512.690624705808
 23
-702.9359248409895
 33
0.0
1001
ACAD
1000
DSTYLE
1002
{
1070
    40
1040
2.0
1070
    45
1040
0.5
1002
}
  0
LINE
  5
24CE6
330
18
100
AcDbEntity
  8
1DIM
100
AcDbLine
 10
2512.077622144825
 20
-702.6738708300054
 30
0.0
 11
2480.78720501194
 21
-775.8691093407333
 31
0.0
1001
ACAD
1000
DSTYLE
1002
{
1070
    40
1040
2.0
1070
    45
1040
0.5
1002
}
  0
LINE
  5
24CE7
330
18
100
AcDbEntity
  8
1DIM
100
AcDbLine
 10
2480.78720501194
 20
-775.8691093407333
 30
0.0
 11
2401.420538345273
 21
-775.8691093407333
 31
0.0
1001
ACAD
1000
DSTYLE
1002
{
1070
    40
1040
2.0
1070
    45
1040
0.5
1002
}
  0
TEXT
  5
24CE8
330
18
100
AcDbEntity
  8
1DIM
  6
CONTINUOUS
100
AcDbText
 10
2410.28720501194
 20
-762.8024426740667
 30
0.0
 40
7.0
  1
\U+6750\U+8CEA\U+FF1A\U+30B9\U+30C6\U+30F3\U+30EC\U+30B9
100
AcDbText
  0
TEXT
  5
24CE9
330
18
100
AcDbEntity
  8
1DIM
  6
CONTINUOUS
100
AcDbText
 10
2401.18720501194
 20
-774.4691093407333
 30
0.0
 40
7.0
  1
\U+4ED5\U+4E0A\U+3052\U+FF1A\U+5404\U+7A2E\U+4ED5\U+4E0A\U+3052
100
AcDbText
  0
LINE
  5
24CEA
330
18
100
AcDbEntity
  8
1DIM
100
AcDbLine
 10
2511.151300577159
 20
-703.1081511249668
 30
0.0
 11
2511.151300577159
 21
-747.6291647072833
 31
0.0
1001
ACAD
1000
DSTYLE
1002
{
1070
    40
1040
2.0
1002
}
  0
LINE
  5
24CEB
330
18
100
AcDbEntity
  8
1DIM
100
AcDbLine
 10
2551.148472535011
 20
-703.1081511249668
 30
0.0
 11
2551.148472535011
 21
-747.6291647072833
 31
0.0
1001
ACAD
1000
DSTYLE
1002
{
1070
    40
1040
2.0
1002
}
  0
LINE
  5
24CEC
330
18
100
AcDbEntity
  8
1DIM
100
AcDbLine
 10
2515.151300577159
 20
-745.6291647072833
 30
0.0
 11
2547.148472535011
 21
-745.6291647072833
 31
0.0
1001
ACAD
1000
DSTYLE
1002
{
1070
    40
1040
2.0
1002
}
  0
SOLID
  5
24CF0
330
18
100
AcDbEntity
  8
1DIM
100
AcDbTrace
 10
2517.971257015716
 20
-675.4250105729706
 30
0.0
 11
2520.974313391633
 21
-672.6999239968214
 31
0.0
 12
2519.017396249922
 22
-676.2516728259086
 32
0.0
 13
2519.017396249922
 23
-676.2516728259086
 33
0.0
1001
ACAD
1000
DSTYLE
1002
{
1070
    40
1040
2.0
1070
    45
1040
0.5
1002
}
  0
LINE
  5
24CF1
330
18
100
AcDbEntity
  8
1DIM
100
AcDbLine
 10
2518.494326632819
 20
-675.8383416994395
 30
0.0
 11
2473.911466129689
 21
-732.2578520613766
 31
0.0
1001
ACAD
1000
DSTYLE
1002
{
1070
    40
1040
2.0
1070
    45
1040
0.5
1002
}
  0
LINE
  5
24CF2
330
18
100
AcDbEntity
  8
1DIM
100
AcDbLine
 10
2473.911466129689
 20
-732.2578520613766
 30
0.0
 11
2411.578132796355
 21
-732.2578520613766
 31
0.0
1001
ACAD
1000
DSTYLE
1002
{
1070
    40
1040
2.0
1070
    45
1040
0.5
1002
}
  0
TEXT
  5
24CF3
330
18
100
AcDbEntity
  8
1DIM
  6
CONTINUOUS
100
AcDbText
 10
2411.111466129688
 20
-719.19118539471
 30
0.0
 40
7.0
  1
\U+6750\U+8CEA\U+FF1A\U+5408\U+6210\U+30B4\U+30E0
100
AcDbText
  0
TEXT
  5
24CF4
330
18
100
AcDbEntity
  8
1DIM
  6
CONTINUOUS
100
AcDbText
 10
2412.044799463022
 20
-730.8578520613767
 30
0.0
 40
7.0
  1
\U+4ED5\U+4E0A\U+3052\U+FF1A\U+30B0\U+30EC\U+30FC
100
AcDbText
  0
SOLID
  5
24CF5
330
18
100
AcDbEntity
  8
1DIM
100
AcDbTrace
 10
2518.552933244152
 20
-669.9650211821826
 30
0.0
 11
2522.091682325823
 21
-667.984693082747
 31
0.0
 12
2519.386485551086
 22
-671.0056788249174
 32
0.0
 13
2519.386485551086
 23
-671.0056788249174
 33
0.0
1001
ACAD
1000
DSTYLE
1002
{
1070
    40
1040
2.0
1070
    45
1040
0.5
1002
}
  0
LINE
  5
24CF6
330
18
100
AcDbEntity
  8
1DIM
100
AcDbLine
 10
2518.969709397619
 20
-670.48535000355
 30
0.0
 11
2487.276230444036
 21
-695.8713861134756
 31
0.0
1001
ACAD
1000
DSTYLE
1002
{
1070
    40
1040
2.0
1070
    45
1040
0.5
1002
}
  0
LINE
  5
24CF7
330
18
100
AcDbEntity
  8
1DIM
100
AcDbLine
 10
2487.276230444036
 20
-695.8713861134756
 30
0.0
 11
2417.242897110702
 21
-695.8713861134756
 31
0.0
1001
ACAD
1000
DSTYLE
1002
{
1070
    40
1040
2.0
1070
    45
1040
0.5
1002
}
  0
TEXT
  5
24CF8
330
18
100
AcDbEntity
  8
1DIM
  6
CONTINUOUS
100
AcDbText
 10
2441.276230444036
 20
-682.804719446809
 30
0.0
 40
7.0
  1
\U+6750\U+8CEA\U+FF1A\U+30B4\U+30E0
100
AcDbText
  0
TEXT
  5
24CF9
330
18
100
AcDbEntity
  8
1DIM
  6
CONTINUOUS
100
AcDbText
 10
2417.009563777369
 20
-694.4713861134757
 30
0.0
 40
7.0
  1
\U+4ED5\U+4E0A\U+3052\U+FF1A\U+30D6\U+30E9\U+30C3\U+30AF
100
AcDbText
  0
SOLID
  5
24CFA
330
18
100
AcDbEntity
  8
1DIM
100
AcDbTrace
 10
2537.371679388302
 20
-608.0409759647762
 30
0.0
 11
2539.300333276631
 21
-611.6081511249663
 31
0.0
 12
2536.319009276258
 22
-608.8593056128932
 32
0.0
 13
2536.319009276258
 23
-608.8593056128932
 33
0.0
1001
ACAD
1000
DSTYLE
1002
{
1070
    40
1040
2.0
1070
    45
1040
0.5
1002
}
  0
LINE
  5
24CFB
330
18
100
AcDbEntity
  8
1DIM
100
AcDbLine
 10
2536.84534433228
 20
-608.4501407888347
 30
0.0
 11
2522.145057296784
 21
-589.540215141707
 31
0.0
1001
ACAD
1000
DSTYLE
1002
{
1070
    40
1040
2.0
1070
    45
1040
0.5
1002
}
  0
LINE
  5
24CFC
330
18
100
AcDbEntity
  8
1DIM
100
AcDbLine
 10
2522.145057296784
 20
-589.540215141707
 30
0.0
 11
2442.778390630117
 21
-589.540215141707
 31
0.0
1001
ACAD
1000
DSTYLE
1002
{
1070
    40
1040
2.0
1070
    45
1040
0.5
1002
}
  0
TEXT
  5
24CFD
330
18
100
AcDbEntity
  8
1DIM
  6
CONTINUOUS
100
AcDbText
 10
2451.645057296783
 20
-576.4735484750404
 30
0.0
 40
7.0
  1
\U+6750\U+8CEA\U+FF1A\U+30B9\U+30C6\U+30F3\U+30EC\U+30B9
100
AcDbText
  0
TEXT
  5
24CFE
330
18
100
AcDbEntity
  8
1DIM
  6
CONTINUOUS
100
AcDbText
 10
2442.545057296783
 20
-588.140215141707
 30
0.0
 40
7.0
  1
\U+4ED5\U+4E0A\U+3052\U+FF1A\U+5404\U+7A2E\U+4ED5\U+4E0A\U+3052
100
AcDbText
  0
SOLID
  5
24CFF
330
18
100
AcDbEntity
  8
1DIM
100
AcDbTrace
 10
2356.001754943716
 20
-665.5844327454389
 30
0.0
 11
2359.108525601018
 21
-668.1906600047874
 31
0.0
 12
2355.324425597835
 22
-666.732911188853
 32
0.0
 13
2355.324425597835
 23
-666.732911188853
 33
0.0
1001
ACAD
1000
DSTYLE
1002
{
1070
    40
1040
2.0
1070
    45
1040
0.5
1002
}
  0
LINE
  5
24D00
330
18
100
AcDbEntity
  8
1DIM
100
AcDbLine
 10
2355.663090270776
 20
-666.1586719671459
 30
0.0
 11
2332.516361322691
 21
-652.5076027045191
 31
0.0
1001
ACAD
1000
DSTYLE
1002
{
1070
    40
1040
2.0
1070
    45
1040
0.5
1002
}
  0
LINE
  5
24D01
330
18
100
AcDbEntity
  8
1DIM
100
AcDbLine
 10
2332.516361322691
 20
-652.5076027045191
 30
0.0
 11
2270.183027989357
 21
-652.5076027045191
 31
0.0
1001
ACAD
1000
DSTYLE
1002
{
1070
    40
1040
2.0
1070
    45
1040
0.5
1002
}
  0
TEXT
  5
24D02
330
18
100
AcDbEntity
  8
1DIM
  6
CONTINUOUS
100
AcDbText
 10
2269.716361322691
 20
-639.4409360378525
 30
0.0
 40
7.0
  1
\U+30AC\U+30E9\U+30B9
100
AcDbText
  0
TEXT
  5
24D03
330
18
100
AcDbEntity
  8
1DIM
  6
CONTINUOUS
100
AcDbText
 10
2294.916361322691
 20
-639.4409360378525
 30
0.0
 40
7.0
  1
\U+6249
100
AcDbText
  0
TEXT
  5
24D04
330
18
100
AcDbEntity
  8
1DIM
  6
CONTINUOUS
100
AcDbText
 10
2303.316361322691
 20
-639.4409360378525
 30
0.0
 40
7.0
  1
\U+5BFE\U+5FDC\U+539A
100
AcDbText
  0
TEXT
  5
24D05
330
18
100
AcDbEntity
  8
1DIM
  6
CONTINUOUS
100
AcDbText
 10
2288.383027989358
 20
-651.1076027045191
 30
0.0
 40
7.0
  1
8\U+FF5E12mm
100
AcDbText
  0
SOLID
  5
24D06
330
18
100
AcDbEntity
  8
1DIM
100
AcDbTrace
 10
2263.136411169339
 20
-600.0929150671249
 30
0.0
 11
2265.322871119501
 21
-603.5081511249664
 31
0.0
 12
2262.146954066804
 22
-600.9866445676013
 32
0.0
 13
2262.146954066804
 23
-600.9866445676013
 33
0.0
1001
ACAD
1000
DSTYLE
1002
{
1070
    40
1040
2.0
1070
    45
1040
0.5
1002
}
  0
LINE
  5
24D07
330
18
100
AcDbEntity
  8
1DIM
100
AcDbLine
 10
2262.641682618072
 20
-600.5397798173631
 30
0.0
 11
2251.188501248203
 21
-587.8598451760761
 31
0.0
1001
ACAD
1000
DSTYLE
1002
{
1070
    40
1040
2.0
1070
    45
1040
0.5
1002
}
  0
LINE
  5
24D08
330
18
100
AcDbEntity
  8
1DIM
100
AcDbLine
 10
2251.188501248203
 20
-587.8598451760761
 30
0.0
 11
2171.821834581536
 21
-587.8598451760761
 31
0.0
1001
ACAD
1000
DSTYLE
1002
{
1070
    40
1040
2.0
1070
    45
1040
0.5
1002
}
  0
TEXT
  5
24D09
330
18
100
AcDbEntity
  8
1DIM
  6
CONTINUOUS
100
AcDbText
 10
2180.688501248203
 20
-574.7931785094095
 30
0.0
 40
7.0
  1
\U+6750\U+8CEA\U+FF1A\U+30B9\U+30C6\U+30F3\U+30EC\U+30B9
100
AcDbText
  0
TEXT
  5
24D0A
330
18
100
AcDbEntity
  8
1DIM
  6
CONTINUOUS
100
AcDbText
 10
2171.588501248203
 20
-586.4598451760761
 30
0.0
 40
7.0
  1
\U+4ED5\U+4E0A\U+3052\U+FF1A\U+5404\U+7A2E\U+4ED5\U+4E0A\U+3052
100
AcDbText
  0
LINE
  5
24D0B
330
18
100
AcDbEntity
  8
1DIM
100
AcDbLine
 10
2253.222535382272
 20
-629.1081231258522
 30
0.0
 11
2240.108943581854
 21
-629.1081231258522
 31
0.0
1001
ACAD
1000
DSTYLE
1002
{
1070
    40
1040
2.0
1070
    45
1040
0.5
1002
}
  0
LINE
  5
24D0C
330
18
100
AcDbEntity
  8
1DIM
100
AcDbLine
 10
2252.394144092236
 20
-604.1081231258709
 30
0.0
 11
2240.108943581854
 21
-604.1081231258709
 31
0.0
1001
ACAD
1000
DSTYLE
1002
{
1070
    40
1040
2.0
1070
    45
1040
0.5
1002
}
  0
LINE
  5
24D0D
330
18
100
AcDbEntity
  8
1DIM
100
AcDbLine
 10
2242.108943581854
 20
-608.1081231258709
 30
0.0
 11
2242.108943581854
 21
-625.1081231258522
 31
0.0
1001
ACAD
1000
DSTYLE
1002
{
1070
    40
1040
2.0
1070
    45
1040
0.5
1002
}
  0
LINE
  5
24D0E
330
18
100
AcDbEntity
  8
1DIM
100
AcDbLine
 10
2242.108943581854
 20
-629.1081231258522
 30
0.0
 11
2242.108943581854
 21
-652.2414564591854
 31
0.0
1001
ACAD
1000
DSTYLE
1002
{
1070
    40
1040
2.0
1070
    45
1040
0.5
1002
}
  0
LINE
  5
24D12
330
18
100
AcDbEntity
  8
1DIM
100
AcDbLine
 10
2089.149772013122
 20
-672.1081511249662
 30
0.0
 11
2106.355061285523
 21
-701.9085863036834
 31
0.0
1001
ACAD
1000
DSTYLE
1002
{
1070
     3
1000
\U+03C6<>
1070
    40
1040
2.0
1070
    45
1040
0.5
1002
}
1001
ACADSTRINGINFO
1000
MIFCodePage
1070
     1
  0
LINE
  5
24D13
330
18
100
AcDbEntity
  8
1DIM
100
AcDbLine
 10
2073.149772013122
 20
-672.1081511249681
 30
0.0
 11
2090.355061285522
 21
-701.9085863036834
 31
0.0
1001
ACAD
1000
DSTYLE
1002
{
1070
     3
1000
\U+03C6<>
1070
    40
1040
2.0
1070
    45
1040
0.5
1002
}
1001
ACADSTRINGINFO
1000
MIFCodePage
1070
     1
  0
LINE
  5
24D14
330
18
100
AcDbEntity
  8
1DIM
100
AcDbLine
 10
2093.200360747142
 20
-699.9085863036834
 30
0.0
 11
2101.200360747143
 21
-699.9085863036834
 31
0.0
1001
ACAD
1000
DSTYLE
1002
{
1070
     3
1000
\U+03C6<>
1070
    40
1040
2.0
1070
    45
1040
0.5
1002
}
1001
ACADSTRINGINFO
1000
MIFCodePage
1070
     1
  0
LINE
  5
24D15
330
18
100
AcDbEntity
  8
1DIM
100
AcDbLine
 10
2105.200360747143
 20
-699.9085863036834
 30
0.0
 11
2222.216893109062
 21
-699.9085863036834
 31
0.0
1001
ACAD
1000
DSTYLE
1002
{
1070
     3
1000
\U+03C6<>
1070
    40
1040
2.0
1070
    45
1040
0.5
1002
}
1001
ACADSTRINGINFO
1000
MIFCodePage
1070
     1
  0
SOLID
  5
24D19
330
18
100
AcDbEntity
  8
1DIM
100
AcDbTrace
 10
2075.76068712905
 20
-691.0485938769547
 30
0.0
 11
2074.608565535696
 21
-687.1605274836726
 31
0.0
 12
2076.959404792096
 22
-690.4647670686621
 32
0.0
 13
2076.959404792096
 23
-690.4647670686621
 33
0.0
1001
ACAD
1000
DSTYLE
1002
{
1070
    40
1040
2.0
1070
    45
1040
0.5
1002
}
  0
LINE
  5
24D1A
330
18
100
AcDbEntity
  8
1DIM
100
AcDbLine
 10
2076.360045960573
 20
-690.7566804728084
 30
0.0
 11
2101.73209772186
 21
-742.8507709838315
 31
0.0
1001
ACAD
1000
DSTYLE
1002
{
1070
    40
1040
2.0
1070
    45
1040
0.5
1002
}
  0
LINE
  5
24D1B
330
18
100
AcDbEntity
  8
1DIM
100
AcDbLine
 10
2101.73209772186
 20
-742.8507709838315
 30
0.0
 11
2181.098764388526
 21
-742.8507709838315
 31
0.0
1001
ACAD
1000
DSTYLE
1002
{
1070
    40
1040
2.0
1070
    45
1040
0.5
1002
}
  0
TEXT
  5
24D1C
330
18
100
AcDbEntity
  8
1DIM
  6
CONTINUOUS
100
AcDbText
 10
2106.665431055193
 20
-729.7841043171649
 30
0.0
 40
7.0
  1
\U+6750\U+8CEA\U+FF1A\U+30B9\U+30C6\U+30F3\U+30EC\U+30B9
100
AcDbText
  0
TEXT
  5
24D1D
330
18
100
AcDbEntity
  8
1DIM
  6
CONTINUOUS
100
AcDbText
 10
2106.898764388527
 20
-741.4507709838315
 30
0.0
 40
7.0
  1
\U+4ED5\U+4E0A\U+3052\U+FF1A\U+5404\U+7A2E\U+4ED5\U+4E0A\U+3052
100
AcDbText
  0
LINE
  5
24D1E
330
18
100
AcDbEntity
  8
0
  6
BYBLOCK
100
AcDbLine
 10
2713.349894211619
 20
-970.224505933115
 30
0.0
 11
2709.349894211619
 21
-969.152709173115
 31
0.0
  0
LINE
  5
24D1F
330
18
100
AcDbEntity
  8
0
  6
BYBLOCK
100
AcDbLine
 10
2709.349894211619
 20
-969.152709173115
 30
0.0
 11
2713.349894211619
 21
-968.080912413115
 31
0.0
  0
LINE
  5
24D20
330
18
100
AcDbEntity
  8
0
  6
BYBLOCK
100
AcDbLine
 10
2709.349894211619
 20
-969.152709173115
 30
0.0
 11
2713.349894211619
 21
-969.152709173115
 31
0.0
  0
LINE
  5
24D21
330
18
100
AcDbEntity
  8
0
  6
BYBLOCK
100
AcDbLine
 10
2765.29976488685
 20
-968.080912413115
 30
0.0
 11
2769.29976488685
 21
-969.152709173115
 31
0.0
  0
LINE
  5
24D22
330
18
100
AcDbEntity
  8
0
  6
BYBLOCK
100
AcDbLine
 10
2769.29976488685
 20
-969.152709173115
 30
0.0
 11
2765.29976488685
 21
-970.224505933115
 31
0.0
  0
LINE
  5
24D23
330
18
100
AcDbEntity
  8
0
  6
BYBLOCK
100
AcDbLine
 10
2769.29976488685
 20
-969.152709173115
 30
0.0
 11
2765.29976488685
 21
-969.152709173115
 31
0.0
  0
TEXT
  5
24D24
330
18
100
AcDbEntity
  8
1DIM
  6
CONTINUOUS
100
AcDbText
 10
2734.229755322731
 20
-967.752709173115
 30
0.0
 40
7.0
  1
60
100
AcDbText
1001
ACAD
1000
DSTYLE
1002
{
1070
    40
1040
2.0
1070
    45
1040
0.5
1002
}
  0
LINE
  5
24D25
330
18
100
AcDbEntity
  8
0
  6
BYBLOCK
100
AcDbLine
 10
2697.14989421162
 20
-967.1103109079835
 30
0.0
 11
2701.14989421162
 21
-968.1821076679835
 31
0.0
  0
LINE
  5
24D26
330
18
100
AcDbEntity
  8
0
  6
BYBLOCK
100
AcDbLine
 10
2701.14989421162
 20
-968.1821076679835
 30
0.0
 11
2697.14989421162
 21
-969.2539044279835
 31
0.0
  0
LINE
  5
24D27
330
18
100
AcDbEntity
  8
0
  6
BYBLOCK
100
AcDbLine
 10
2701.14989421162
 20
-968.1821076679835
 30
0.0
 11
2697.14989421162
 21
-968.1821076679835
 31
0.0
  0
LINE
  5
24D28
330
18
100
AcDbEntity
  8
0
  6
BYBLOCK
100
AcDbLine
 10
2673.14989421162
 20
-969.2539044279835
 30
0.0
 11
2669.14989421162
 21
-968.1821076679835
 31
0.0
  0
LINE
  5
24D29
330
18
100
AcDbEntity
  8
0
  6
BYBLOCK
100
AcDbLine
 10
2669.14989421162
 20
-968.1821076679835
 30
0.0
 11
2673.14989421162
 21
-967.1103109079835
 31
0.0
  0
LINE
  5
24D2A
330
18
100
AcDbEntity
  8
0
  6
BYBLOCK
100
AcDbLine
 10
2669.14989421162
 20
-968.1821076679835
 30
0.0
 11
2673.14989421162
 21
-968.1821076679835
 31
0.0
  0
TEXT
  5
24D2B
330
18
100
AcDbEntity
  8
1DIM
  6
CONTINUOUS
100
AcDbText
 10
2670.166560878286
 20
-966.7821076679835
 30
0.0
 40
7.0
  1
32
100
AcDbText
1001
ACAD
1000
DSTYLE
1002
{
1070
    40
1040
2.0
1070
    45
1040
0.5
1002
}
  0
LINE
  5
24D2C
330
18
100
AcDbEntity
  8
0
  6
BYBLOCK
100
AcDbLine
 10
2697.14989421162
 20
-938.6828964012096
 30
0.0
 11
2701.14989421162
 21
-939.7546931612096
 31
0.0
  0
LINE
  5
24D2D
330
18
100
AcDbEntity
  8
0
  6
BYBLOCK
100
AcDbLine
 10
2701.14989421162
 20
-939.7546931612096
 30
0.0
 11
2697.14989421162
 21
-940.8264899212096
 31
0.0
  0
LINE
  5
24D2E
330
18
100
AcDbEntity
  8
0
  6
BYBLOCK
100
AcDbLine
 10
2701.14989421162
 20
-939.7546931612096
 30
0.0
 11
2697.14989421162
 21
-939.7546931612096
 31
0.0
  0
LINE
  5
24D2F
330
18
100
AcDbEntity
  8
0
  6
BYBLOCK
100
AcDbLine
 10
2690.549894211621
 20
-940.8264899212096
 30
0.0
 11
2686.549894211621
 21
-939.7546931612096
 31
0.0
  0
LINE
  5
24D30
330
18
100
AcDbEntity
  8
0
  6
BYBLOCK
100
AcDbLine
 10
2686.549894211621
 20
-939.7546931612096
 30
0.0
 11
2690.549894211621
 21
-938.6828964012096
 31
0.0
  0
LINE
  5
24D31
330
18
100
AcDbEntity
  8
0
  6
BYBLOCK
100
AcDbLine
 10
2686.549894211621
 20
-939.7546931612096
 30
0.0
 11
2690.549894211621
 21
-939.7546931612096
 31
0.0
  0
TEXT
  5
24D32
330
18
100
AcDbEntity
  8
1DIM
  6
CONTINUOUS
100
AcDbText
 10
2684.516560878287
 20
-938.3546931612095
 30
0.0
 40
7.0
  1
14.5
100
AcDbText
1001
ACAD
1000
DSTYLE
1002
{
1070
    40
1040
2.0
1070
    45
1040
0.5
1002
}
  0
LINE
  5
24D33
330
18
100
AcDbEntity
  8
0
  6
BYBLOCK
100
AcDbLine
 10
2632.118223614385
 20
-892.108252695147
 30
0.0
 11
2633.190020374385
 21
-888.108252695147
 31
0.0
  0
LINE
  5
24D34
330
18
100
AcDbEntity
  8
0
  6
BYBLOCK
100
AcDbLine
 10
2633.190020374385
 20
-888.108252695147
 30
0.0
 11
2634.261817134385
 21
-892.108252695147
 31
0.0
  0
LINE
  5
24D35
330
18
100
AcDbEntity
  8
0
  6
BYBLOCK
100
AcDbLine
 10
2633.190020374385
 20
-888.108252695147
 30
0.0
 11
2633.190020374385
 21
-892.108252695147
 31
0.0
  0
LINE
  5
24D36
330
18
100
AcDbEntity
  8
0
  6
BYBLOCK
100
AcDbLine
 10
2634.261817134385
 20
-937.108252695147
 30
0.0
 11
2633.190020374385
 21
-941.108252695147
 31
0.0
  0
LINE
  5
24D37
330
18
100
AcDbEntity
  8
0
  6
BYBLOCK
100
AcDbLine
 10
2633.190020374385
 20
-941.108252695147
 30
0.0
 11
2632.118223614385
 21
-937.108252695147
 31
0.0
  0
LINE
  5
24D38
330
18
100
AcDbEntity
  8
0
  6
BYBLOCK
100
AcDbLine
 10
2633.190020374385
 20
-941.108252695147
 30
0.0
 11
2633.190020374385
 21
-937.108252695147
 31
0.0
  0
TEXT
  5
24D39
330
18
100
AcDbEntity
  8
1DIM
  6
CONTINUOUS
100
AcDbText
 10
2631.790020374385
 20
-920.4658915840355
 30
0.0
 40
7.0
  1
53
 50
90.0
100
AcDbText
1001
ACAD
1000
DSTYLE
1002
{
1070
    40
1040
2.0
1070
    45
1040
0.5
1002
}
  0
LINE
  5
24D3A
330
18
100
AcDbEntity
  8
0
  6
BYBLOCK
100
AcDbLine
 10
2065.149894164873
 20
-1013.180048579895
 30
0.0
 11
2061.149894164873
 21
-1012.108251819895
 31
0.0
  0
LINE
  5
24D3B
330
18
100
AcDbEntity
  8
0
  6
BYBLOCK
100
AcDbLine
 10
2061.149894164873
 20
-1012.108251819895
 30
0.0
 11
2065.149894164873
 21
-1011.036455059895
 31
0.0
  0
LINE
  5
24D3C
330
18
100
AcDbEntity
  8
0
  6
BYBLOCK
100
AcDbLine
 10
2061.149894164873
 20
-1012.108251819895
 30
0.0
 11
2065.149894164873
 21
-1012.108251819895
 31
0.0
  0
LINE
  5
24D3D
330
18
100
AcDbEntity
  8
0
  6
BYBLOCK
100
AcDbLine
 10
2547.149894258366
 20
-1011.036455059895
 30
0.0
 11
2551.149894258366
 21
-1012.108251819895
 31
0.0
  0
LINE
  5
24D3E
330
18
100
AcDbEntity
  8
0
  6
BYBLOCK
100
AcDbLine
 10
2551.149894258366
 20
-1012.108251819895
 30
0.0
 11
2547.149894258366
 21
-1013.180048579895
 31
0.0
  0
LINE
  5
24D3F
330
18
100
AcDbEntity
  8
0
  6
BYBLOCK
100
AcDbLine
 10
2551.149894258366
 20
-1012.108251819895
 30
0.0
 11
2547.149894258366
 21
-1012.108251819895
 31
0.0
  0
TEXT
  5
24D40
330
18
100
AcDbEntity
  8
1DIM
  6
CONTINUOUS
100
AcDbText
 10
2297.228134952361
 20
-1010.708251819895
 30
0.0
 40
7.0
  1
590
100
AcDbText
1001
ACAD
1000
DSTYLE
1002
{
1070
    40
1040
2.0
1070
    45
1040
0.5
1002
}
  0
LINE
  5
24D41
330
18
100
AcDbEntity
  8
0
  6
BYBLOCK
100
AcDbLine
 10
2085.14989421162
 20
-983.1800485798946
 30
0.0
 11
2081.14989421162
 21
-982.1082518198946
 31
0.0
  0
LINE
  5
24D42
330
18
100
AcDbEntity
  8
0
  6
BYBLOCK
100
AcDbLine
 10
2081.14989421162
 20
-982.1082518198946
 30
0.0
 11
2085.14989421162
 21
-981.0364550598946
 31
0.0
  0
LINE
  5
24D43
330
18
100
AcDbEntity
  8
0
  6
BYBLOCK
100
AcDbLine
 10
2081.14989421162
 20
-982.1082518198946
 30
0.0
 11
2085.14989421162
 21
-982.1082518198946
 31
0.0
  0
LINE
  5
24D44
330
18
100
AcDbEntity
  8
0
  6
BYBLOCK
100
AcDbLine
 10
2527.14989421162
 20
-981.0364550598946
 30
0.0
 11
2531.14989421162
 21
-982.1082518198946
 31
0.0
  0
LINE
  5
24D45
330
18
100
AcDbEntity
  8
0
  6
BYBLOCK
100
AcDbLine
 10
2531.14989421162
 20
-982.1082518198946
 30
0.0
 11
2527.14989421162
 21
-983.1800485798946
 31
0.0
  0
LINE
  5
24D46
330
18
100
AcDbEntity
  8
0
  6
BYBLOCK
100
AcDbLine
 10
2531.14989421162
 20
-982.1082518198946
 30
0.0
 11
2527.14989421162
 21
-982.1082518198946
 31
0.0
  0
TEXT
  5
24D47
330
18
100
AcDbEntity
  8
1DIM
  6
CONTINUOUS
100
AcDbText
 10
2293.705449767176
 20
-980.7082518198946
 30
0.0
 40
7.0
  1
P550
100
AcDbText
1001
ACAD
1000
DSTYLE
1002
{
1070
    40
1040
2.0
1070
    45
1040
0.5
1002
}
  0
LINE
  5
24D48
330
18
100
AcDbEntity
  8
0
  6
BYBLOCK
100
AcDbLine
 10
2281.041831692371
 20
-910.6082518159909
 30
0.0
 11
2279.970034932371
 21
-914.6082518159909
 31
0.0
  0
LINE
  5
24D49
330
18
100
AcDbEntity
  8
0
  6
BYBLOCK
100
AcDbLine
 10
2279.970034932371
 20
-914.6082518159909
 30
0.0
 11
2278.898238172371
 21
-910.6082518159909
 31
0.0
  0
LINE
  5
24D4A
330
18
100
AcDbEntity
  8
0
  6
BYBLOCK
100
AcDbLine
 10
2279.970034932371
 20
-914.6082518159909
 30
0.0
 11
2279.970034932371
 21
-910.6082518159909
 31
0.0
  0
LINE
  5
24D4B
330
18
100
AcDbEntity
  8
0
  6
BYBLOCK
100
AcDbLine
 10
2278.898238172371
 20
-893.6082518159905
 30
0.0
 11
2279.970034932371
 21
-889.6082518159905
 31
0.0
  0
LINE
  5
24D4C
330
18
100
AcDbEntity
  8
0
  6
BYBLOCK
100
AcDbLine
 10
2279.970034932371
 20
-889.6082518159905
 30
0.0
 11
2281.041831692371
 21
-893.6082518159905
 31
0.0
  0
LINE
  5
24D4D
330
18
100
AcDbEntity
  8
0
  6
BYBLOCK
100
AcDbLine
 10
2279.970034932371
 20
-889.6082518159905
 30
0.0
 11
2279.970034932371
 21
-893.6082518159905
 31
0.0
  0
TEXT
  5
24D4E
330
18
100
AcDbEntity
  8
1DIM
  6
CONTINUOUS
100
AcDbText
 10
2278.570034932371
 20
-878.841585149326
 30
0.0
 40
7.0
  1
25
 50
90.0
100
AcDbText
1001
ACAD
1000
DSTYLE
1002
{
1070
    40
1040
2.0
1070
    45
1040
0.5
1002
}
  0
LINE
  5
24D4F
330
18
100
AcDbEntity
  8
0
  6
BYBLOCK
100
AcDbLine
 10
2515.151300577159
 20
-746.7009614672833
 30
0.0
 11
2511.151300577159
 21
-745.6291647072833
 31
0.0
  0
LINE
  5
24D50
330
18
100
AcDbEntity
  8
0
  6
BYBLOCK
100
AcDbLine
 10
2511.151300577159
 20
-745.6291647072833
 30
0.0
 11
2515.151300577159
 21
-744.5573679472833
 31
0.0
  0
LINE
  5
24D51
330
18
100
AcDbEntity
  8
0
  6
BYBLOCK
100
AcDbLine
 10
2511.151300577159
 20
-745.6291647072833
 30
0.0
 11
2515.151300577159
 21
-745.6291647072833
 31
0.0
  0
LINE
  5
24D52
330
18
100
AcDbEntity
  8
0
  6
BYBLOCK
100
AcDbLine
 10
2547.148472535011
 20
-744.5573679472833
 30
0.0
 11
2551.148472535011
 21
-745.6291647072833
 31
0.0
  0
LINE
  5
24D53
330
18
100
AcDbEntity
  8
0
  6
BYBLOCK
100
AcDbLine
 10
2551.148472535011
 20
-745.6291647072833
 30
0.0
 11
2547.148472535011
 21
-746.7009614672833
 31
0.0
  0
LINE
  5
24D54
330
18
100
AcDbEntity
  8
0
  6
BYBLOCK
100
AcDbLine
 10
2551.148472535011
 20
-745.6291647072833
 30
0.0
 11
2547.148472535011
 21
-745.6291647072833
 31
0.0
  0
TEXT
  5
24D55
330
18
100
AcDbEntity
  8
1DIM
  6
CONTINUOUS
100
AcDbText
 10
2526.560980040714
 20
-744.2291647072833
 30
0.0
 40
7.0
  1
40
100
AcDbText
1001
ACAD
1000
DSTYLE
1002
{
1070
    40
1040
2.0
1002
}
  0
LINE
  5
24D56
330
18
100
AcDbEntity
  8
0
  6
BYBLOCK
100
AcDbLine
 10
2241.037146821854
 20
-608.1081231258709
 30
0.0
 11
2242.108943581854
 21
-604.1081231258709
 31
0.0
  0
LINE
  5
24D57
330
18
100
AcDbEntity
  8
0
  6
BYBLOCK
100
AcDbLine
 10
2242.108943581854
 20
-604.1081231258709
 30
0.0
 11
2243.180740341853
 21
-608.1081231258709
 31
0.0
  0
LINE
  5
24D58
330
18
100
AcDbEntity
  8
0
  6
BYBLOCK
100
AcDbLine
 10
2242.108943581854
 20
-604.1081231258709
 30
0.0
 11
2242.108943581854
 21
-608.1081231258709
 31
0.0
  0
LINE
  5
24D59
330
18
100
AcDbEntity
  8
0
  6
BYBLOCK
100
AcDbLine
 10
2243.180740341853
 20
-625.1081231258522
 30
0.0
 11
2242.108943581854
 21
-629.1081231258522
 31
0.0
  0
LINE
  5
24D5A
330
18
100
AcDbEntity
  8
0
  6
BYBLOCK
100
AcDbLine
 10
2242.108943581854
 20
-629.1081231258522
 30
0.0
 11
2241.037146821854
 21
-625.1081231258522
 31
0.0
  0
LINE
  5
24D5B
330
18
100
AcDbEntity
  8
0
  6
BYBLOCK
100
AcDbLine
 10
2242.108943581854
 20
-629.1081231258522
 30
0.0
 11
2242.108943581854
 21
-625.1081231258522
 31
0.0
  0
TEXT
  5
24D5C
330
18
100
AcDbEntity
  8
1DIM
  6
CONTINUOUS
100
AcDbText
 10
2240.708943581853
 20
-651.0081231258519
 30
0.0
 40
7.0
  1
25
 50
90.0
100
AcDbText
1001
ACAD
1000
DSTYLE
1002
{
1070
    40
1040
2.0
1070
    45
1040
0.5
1002
}
  0
LINE
  5
24D5D
330
18
100
AcDbEntity
  8
0
  6
BYBLOCK
100
AcDbLine
 10
2093.200360747142
 20
-700.9803830636833
 30
0.0
 11
2089.200360747142
 21
-699.9085863036834
 31
0.0
  0
LINE
  5
24D5E
330
18
100
AcDbEntity
  8
0
  6
BYBLOCK
100
AcDbLine
 10
2089.200360747142
 20
-699.9085863036834
 30
0.0
 11
2093.200360747142
 21
-698.8367895436834
 31
0.0
  0
LINE
  5
24D5F
330
18
100
AcDbEntity
  8
0
  6
BYBLOCK
100
AcDbLine
 10
2089.200360747142
 20
-699.9085863036834
 30
0.0
 11
2093.200360747142
 21
-699.9085863036834
 31
0.0
  0
LINE
  5
24D60
330
18
100
AcDbEntity
  8
0
  6
BYBLOCK
100
AcDbLine
 10
2101.200360747143
 20
-698.8367895436834
 30
0.0
 11
2105.200360747143
 21
-699.9085863036834
 31
0.0
  0
LINE
  5
24D61
330
18
100
AcDbEntity
  8
0
  6
BYBLOCK
100
AcDbLine
 10
2105.200360747143
 20
-699.9085863036834
 30
0.0
 11
2101.200360747143
 21
-700.9803830636833
 31
0.0
  0
LINE
  5
24D62
330
18
100
AcDbEntity
  8
0
  6
BYBLOCK
100
AcDbLine
 10
2105.200360747143
 20
-699.9085863036834
 30
0.0
 11
2101.200360747143
 21
-699.9085863036834
 31
0.0
  0
TEXT
  5
24D63
330
18
100
AcDbEntity
  8
1DIM
  6
CONTINUOUS
100
AcDbText
 10
2134.150226442396
 20
-698.5085863036834
 30
0.0
 40
7.0
  1
\U+30AC\U+30E9\U+30B9\U+6249\U+7A74\U+52A0\U+5DE5\U+FF1A\U+03C616
100
AcDbText
1001
ACAD
1000
DSTYLE
1002
{
1070
     3
1000
\U+03C6<>
1070
    40
1040
2.0
1070
    45
1040
0.5
1002
}
1001
ACADSTRINGINFO
1000
MIFCodePage
1070
     1
  0
VIEWPORT
  5
57
330
15
100
AcDbEntity
 67
     1
  8
0
100
AcDbViewport
 68
     1
 10
-12.73141056964357
 20
15.27374812568402
 30
0.0
 40
562.6681999210983
 41
284.3048929907556
 68
     1
 69
     1
1001
ACAD
1000
MVIEW
1002
{
1070
    16
1010
0.0
1020
0.0
1030
0.0
1010
0.0
1020
0.0
1030
1.0
1040
0.0
1040
284.3048929907556
1040
-12.73141056964357
1040
15.27374812568402
1040
50.0
1040
0.0
1040
0.0
1070
     0
1070
   100
1070
     0
1070
     1
1070
     0
1070
     0
1070
     0
1070
     0
1040
0.0
1040
0.0
1040
0.0
1040
10.0
1040
10.0
1040
10.0
1040
10.0
1070
     0
1002
{
1002
}
1002
}
  0
ENDSEC
  0
SECTION
  2
OBJECTS
  0
DICTIONARY
  5
C
330
0
100
AcDbDictionary
  3
ACAD_CIP_PREVIOUS_PRODUCT_INFO
350
24B75
  3
ACAD_COLOR
350
2D0
  3
ACAD_DETAILVIEWSTYLE
350
24B63
  3
ACAD_GROUP
350
D
  3
ACAD_LAYOUT
350
2D1
  3
ACAD_MATERIAL
350
2CF
  3
ACAD_MLEADERSTYLE
350
19E18
  3
ACAD_MLINESTYLE
350
1B
  3
ACAD_PLOTSETTINGS
350
2D2
  3
ACAD_SCALELIST
350
19DF6
  3
ACAD_SECTIONVIEWSTYLE
350
24B61
  3
ACAD_VISUALSTYLE
350
19DE5
  3
ACDBHEADERROUNDTRIPXREC
350
24D64
  3
ACDBVARIABLEDICTIONARY
350
37
  3
AEC_PROPERTY_SET_DEFS
350
22E8F
  3
CONTENTDICTIONARY
350
D8
  3
DRAWINGVARIABLESDICT
350
20
  3
DWGPROPS
350
24D67
1001
ACAD
1000
TREAT_AS_HARD
1070
     0
  0
DICTIONARY
  5
18FE8
330
2
100
AcDbDictionary
  3
ACAD_LAYERSTATES
360
18FE9
1001
ACAD
1000
TREAT_AS_HARD
1070
     1
  0
DICTIONARY
  5
1A20A
330
E
100
AcDbDictionary
  3
ADSK_XREC_LAYER_RECONCILED
360
1A20B
1001
ACAD
1000
TREAT_AS_HARD
1070
     1
  0
DICTIONARY
  5
1A20C
330
29
100
AcDbDictionary
  3
ADSK_XREC_LAYER_RECONCILED
360
1A20D
1001
ACAD
1000
TREAT_AS_HARD
1070
     1
  0
DICTIONARY
  5
1A20E
330
31
100
AcDbDictionary
  3
ADSK_XREC_LAYER_RECONCILED
360
1A20F
1001
ACAD
1000
TREAT_AS_HARD
1070
     1
  0
DICTIONARY
  5
1A218
330
101
100
AcDbDictionary
  3
ADSK_XREC_LAYER_RECONCILED
360
1A219
1001
ACAD
1000
TREAT_AS_HARD
1070
     1
  0
DICTIONARY
  5
1A21C
330
103
100
AcDbDictionary
  3
ADSK_XREC_LAYER_RECONCILED
360
1A21D
1001
ACAD
1000
TREAT_AS_HARD
1070
     1
  0
DICTIONARY
  5
1A220
330
25F
100
AcDbDictionary
  3
ADSK_XREC_LAYER_RECONCILED
360
1A221
1001
ACAD
1000
TREAT_AS_HARD
1070
     1
  0
DICTIONARY
  5
1A23C
330
26D
100
AcDbDictionary
  3
ADSK_XREC_LAYER_RECONCILED
360
1A23D
1001
ACAD
1000
TREAT_AS_HARD
1070
     1
  0
DICTIONARY
  5
6E9
330
18
100
AcDbDictionary
  3
ACAD_SORTENTS
360
6EA
1001
ACAD
1000
TREAT_AS_HARD
1070
     1
  0
DICTIONARY
  5
59B
330
15
100
AcDbDictionary
  3
ACAD_SORTENTS
360
59C
1001
ACAD
1000
TREAT_AS_HARD
1070
     1
  0
XRECORD
  5
24B75
102
{ACAD_REACTORS
330
C
102
}
330
C
100
AcDbXrecord
300
ACDLT
300
2019
300
ACDLT_F_S
  0
DICTIONARY
  5
2D0
102
{ACAD_REACTORS
330
C
102
}
330
C
100
AcDbDictionary
1001
ACAD
1000
TREAT_AS_HARD
1070
     0
  0
DICTIONARY
  5
24B63
102
{ACAD_REACTORS
330
C
102
}
330
C
100
AcDbDictionary
  3
METRIC50
350
24B64
1001
ACAD
1000
TREAT_AS_HARD
1070
     0
  0
DICTIONARY
  5
D
102
{ACAD_REACTORS
330
C
102
}
330
C
100
AcDbDictionary
1001
ACAD
1000
TREAT_AS_HARD
1070
     0
  0
DICTIONARY
  5
2D1
102
{ACAD_REACTORS
330
C
102
}
330
C
100
AcDbDictionary
1001
ACADSTRINGINFO
1000
MIFCodePage
1070
     1
1001
ACAD
1000
TREAT_AS_HARD
1070
     0
  0
DICTIONARY
  5
2CF
102
{ACAD_REACTORS
330
C
102
}
330
C
100
AcDbDictionary
  3
BYBLOCK
350
19DD5
  3
BYLAYER
350
19DCD
  3
GLOBAL
350
19DDD
1001
ACAD
1000
TREAT_AS_HARD
1070
     0
  0
DICTIONARY
  5
19E18
102
{ACAD_REACTORS
330
C
102
}
330
C
100
AcDbDictionary
  3
STANDARD
350
19E19
1001
ACAD
1000
TREAT_AS_HARD
1070
     0
  0
DICTIONARY
  5
1B
102
{ACAD_REACTORS
330
C
102
}
330
C
100
AcDbDictionary
  3
STANDARD
350
1C
1001
ACAD
1000
TREAT_AS_HARD
1070
     0
  0
DICTIONARY
  5
2D2
102
{ACAD_REACTORS
330
C
102
}
330
C
100
AcDbDictionary
1001
ACAD
1000
TREAT_AS_HARD
1070
     0
  0
DICTIONARY
  5
19DF6
102
{ACAD_REACTORS
330
C
102
}
330
C
100
AcDbDictionary
  3
A0
350
19DF7
  3
A1
350
19DF8
  3
A2
350
19DF9
  3
A3
350
19DFA
  3
A4
350
19DFB
  3
A5
350
19DFC
  3
A6
350
19DFD
  3
A7
350
19DFE
  3
A8
350
19DFF
  3
A9
350
19E00
  3
B0
350
19E01
  3
B1
350
19E02
  3
B2
350
19E03
  3
B3
350
19E04
  3
B4
350
19E05
  3
B5
350
19E06
  3
B6
350
19E07
  3
B7
350
19E08
  3
B8
350
19E09
  3
B9
350
19E0A
  3
C0
350
19E0B
  3
C1
350
19E0C
  3
C2
350
19E0D
  3
C3
350
19E0E
  3
C4
350
19E0F
  3
C5
350
19E10
  3
C6
350
19E11
  3
C7
350
19E12
  3
C8
350
19E13
  3
C9
350
19E14
  3
D0
350
19E15
  3
D1
350
19E16
  3
D2
350
19E17
1001
ACAD
1000
TREAT_AS_HARD
1070
     0
  0
DICTIONARY
  5
24B61
102
{ACAD_REACTORS
330
C
102
}
330
C
100
AcDbDictionary
  3
METRIC50
350
24B62
1001
ACAD
1000
TREAT_AS_HARD
1070
     0
  0
DICTIONARY
  5
19DE5
102
{ACAD_REACTORS
330
C
102
}
330
C
100
AcDbDictionary
  3
2DWIREFRAME
350
19DEB
  3
3D_HIDDEN
350
19DED
  3
3DWIREFRAME
350
19DEC
  3
BASIC
350
19DEA
  3
BRIGHTEN
350
19DF1
  3
COLORCHANGE
350
19DF5
  3
CONCEPTUAL
350
19DEE
  3
DIM
350
19DF0
  3
EDGECOLOROFF
350
1E02A
  3
FACEPATTERN
350
19DF4
  3
FLAT
350
19DE6
  3
FLATWITHEDGES
350
19DE7
  3
GOURAUD
350
19DE8
  3
GOURAUDWITHEDGES
350
19DE9
  3
HIDDEN
350
24B5A
  3
JITTEROFF
350
1E028
  3
LINEPATTERN
350
19DF3
  3
MODELING
350
24BE2
  3
OVERHANGOFF
350
1E029
  3
REALISTIC
350
19DEF
  3
SHADED
350
24B5F
  3
SHADED_WITH_EDGES
350
24B5E
  3
SHADES_OF_GRAY
350
24B5B
  3
SKETCHY
350
24B5C
  3
THICKEN
350
19DF2
  3
WIREFRAME
350
24B59
  3
X-RAY
350
24B5D
1001
ACAD
1000
TREAT_AS_HARD
1070
     0
  0
DICTIONARY
  5
24D64
102
{ACAD_REACTORS
330
C
102
}
330
C
100
AcDbDictionary
  3
COLORDICT
350
24D65
  3
MATERIALDICT
350
24D66
1001
ACAD
1000
TREAT_AS_HARD
1070
     0
  0
DICTIONARY
  5
37
102
{ACAD_REACTORS
330
C
102
}
330
C
100
AcDbDictionary
  3
CANNOSCALE
350
1AC1A
  3
CMLEADERSTYLE
350
1AC19
  3
CTABLESTYLE
350
4F1
  3
CVIEWDETAILSTYLE
350
24BDF
  3
CVIEWSECTIONSTYLE
350
24BE0
  3
DIMADEC
350
38
  3
DIMASSOC
350
408
  3
HIDETEXT
350
1891
  3
INDEXCTL
350
1AC1C
  3
INTERSECTIONCOLOR
350
1895
  3
INTERSECTIONDISPLAY
350
1894
  3
MSLTSCALE
350
24C53
  3
OBSCOLOR
350
1892
  3
OBSLTYPE
350
1893
  3
PROJECTNAME
350
409
  3
SORTENTS
350
1AC1B
  3
XCLIPFRAME
350
24BE1
1001
ACAD
1000
TREAT_AS_HARD
1070
     0
  0
DICTIONARY
  5
22E8F
102
{ACAD_REACTORS
330
C
102
}
330
C
100
AcDbDictionary
1001
ACAD
1000
TREAT_AS_HARD
1070
     0
  0
DICTIONARY
  5
D8
102
{ACAD_REACTORS
330
C
102
}
330
C
100
AcDbDictionary
1001
CONTENTTABDATA
1070
    11
1000
Child
1000
D:\ACLT\TABset\CHILDREN.dwg
1070
     0
1070
     0
1070
     1
1000
PK
1000
D:\ACLT\TABset\PK.dwg
1070
     0
1070
     0
1070
     1
1000
Lev1
1000
D:\ACLT\TABset\Lever01.dwg
1070
     0
1070
     0
1070
     1
1000
Lev2
1000
D:\ACLT\TABset\Lever02.dwg
1070
     0
1070
     0
1070
     1
1000
L3
1000
D:\Aclt\TABset\Lever03.dwg
1070
     0
1070
     0
1070
     1
1000
Form
1000
D:\ACLT\FORMAT
1070
     1
1070
     0
1070
     1
1000
Jnt
1000
D:\ACLT\TABset\JOINTPARTS.dwg
1070
     0
1070
     0
1070
     1
1000
ISO
1000
D:\ACLT\TABset\Isome01.dwg
1070
     0
1070
     0
1070
     1
1000
R
1000
D:\ACLT\TABset\REGION.dwg
1070
     0
1070
     0
1070
     1
1000
std
1000
D:\ACLT\TABset\std_sym_all.dwg
1070
     0
1070
     0
1070
     1
1000
\U+4E38
1000
D:\Aclt\TABset\MARU.dwg
1070
     0
1070
     0
1070
     1
1001
CONTENTCURRENTTAB
1070
     0
1001
ACAD
1000
TREAT_AS_HARD
1070
     0
  0
DICTIONARY
  5
20
102
{ACAD_REACTORS
330
C
102
}
330
C
100
AcDbDictionary
1001
DRAWINGVARIABLESXDATA
1000
POLARANG
1000
0.261799387799149410000000
1000
POLARMODE
1000
1
1000
POLARSTYLE
1000
1
1001
ACAD
1000
TREAT_AS_HARD
1070
     0
  0
XRECORD
  5
24D67
102
{ACAD_REACTORS
330
C
102
}
330
C
100
AcDbXrecord
  1
DWGPROPS COOKIE
  2

  3

  4

  6

  7

  8
User
  9

300
=
301
=
302
=
303
=
304
=
305
=
306
=
307
=
308
=
309
=
 40
0.0
 41
2453033.357663484
 42
2458439.126233333
  1

 90
        0
  0
DICTIONARY
  5
18FE9
102
{ACAD_REACTORS
330
18FE8
102
}
330
18FE8
100
AcDbDictionary
1001
ACAD
1000
TREAT_AS_HARD
1070
     0
  0
ACAD_PROXY_OBJECT
  5
1A20B
102
{ACAD_REACTORS
330
1A20A
102
}
330
1A20A
100
AcDbZombieObject
 90
      499
 91
      520
 93
       34
310
40C8804040
  0
ACAD_PROXY_OBJECT
  5
1A20D
102
{ACAD_REACTORS
330
1A20C
102
}
330
1A20C
100
AcDbZombieObject
 90
      499
 91
      520
 93
       34
310
40C8804040
  0
ACAD_PROXY_OBJECT
  5
1A20F
102
{ACAD_REACTORS
330
1A20E
102
}
330
1A20E
100
AcDbZombieObject
 90
      499
 91
      520
 93
       34
310
40C8804040
  0
ACAD_PROXY_OBJECT
  5
1A219
102
{ACAD_REACTORS
330
1A218
102
}
330
1A218
100
AcDbZombieObject
 90
      499
 91
      520
 93
       34
310
40C8804040
  0
ACAD_PROXY_OBJECT
  5
1A21D
102
{ACAD_REACTORS
330
1A21C
102
}
330
1A21C
100
AcDbZombieObject
 90
      499
 91
      520
 93
       34
310
40C8804040
  0
ACAD_PROXY_OBJECT
  5
1A221
102
{ACAD_REACTORS
330
1A220
102
}
330
1A220
100
AcDbZombieObject
 90
      499
 91
      520
 93
       34
310
40C8804040
  0
ACAD_PROXY_OBJECT
  5
1A23D
102
{ACAD_REACTORS
330
1A23C
102
}
330
1A23C
100
AcDbZombieObject
 90
      499
 91
      520
 93
       34
310
40C8804040
  0
SORTENTSTABLE
  5
6EA
102
{ACAD_REACTORS
330
6E9
102
}
330
6E9
100
AcDbSortentsTable
330
18
331
0
  5
99AB
331
0
  5
AB53
331
0
  5
AB54
331
0
  5
ECB5
331
20F12
  5
21030
331
0
  5
221FC
331
22318
  5
2231D
331
22319
  5
2231E
331
2231A
  5
2231F
331
2231B
  5
22320
331
2231C
  5
22321
331
2231D
  5
22322
331
2231E
  5
22323
331
2231F
  5
22324
331
22320
  5
22325
331
22321
  5
22334
331
22322
  5
22338
331
22323
  5
22339
331
22324
  5
2233A
331
22325
  5
2233F
331
22338
  5
22340
331
22339
  5
2238D
331
2233A
  5
225F6
331
23C09
  5
245DE
331
23C0A
  5
245DF
331
23C0B
  5
245E0
331
23C0C
  5
245E1
331
23C21
  5
24607
331
23C4D
  5
24609
331
245B9
  5
2460A
331
245BC
  5
24610
331
245BE
  5
24612
331
245C0
  5
24613
331
245C1
  5
24614
331
245C2
  5
24616
331
245C3
  5
2461E
331
245C4
  5
24639
331
245C5
  5
2463A
331
245C8
  5
24655
331
245C9
  5
24656
331
245CA
  5
24658
331
245CB
  5
24659
331
245CC
  5
2465B
331
245CD
  5
2465C
331
245CE
  5
2465D
331
245D0
  5
2467B
331
245D2
  5
2467C
331
245D4
  5
2467D
331
245D5
  5
2467E
331
245D6
  5
24680
331
245D7
  5
24682
331
245D8
  5
24685
331
245D9
  5
24689
331
245DA
  5
2468C
331
245DB
  5
2468D
331
245DC
  5
2468E
331
245DD
  5
2468F
331
245DE
  5
24690
331
245DF
  5
24696
331
245E0
  5
24697
331
245E1
  5
24698
331
245E2
  5
24699
331
245E3
  5
2469A
331
245E6
  5
2469B
331
245EA
  5
2469C
331
245EB
  5
246A3
331
245F0
  5
246A4
331
245F1
  5
246A5
331
245F2
  5
246A6
331
245F4
  5
246A7
331
245F6
  5
246A8
331
245F9
  5
246A9
331
245FA
  5
246AA
331
245FE
  5
246AB
331
245FF
  5
246AC
331
24600
  5
246AD
331
24602
  5
246AE
331
24603
  5
246AF
331
24604
  5
246B0
331
24605
  5
246B1
331
24606
  5
246B2
331
24607
  5
246B3
331
2460D
  5
246B4
331
2460E
  5
246B5
331
2460F
  5
246B6
331
24610
  5
246B7
331
24611
  5
246B8
331
24612
  5
246B9
331
24614
  5
246BA
331
2461C
  5
246BB
331
24637
  5
24743
331
24638
  5
24744
331
0
  5
2463D
331
2463A
  5
24760
331
2463B
  5
24761
331
2463C
  5
24762
331
2463D
  5
24763
331
2463E
  5
24768
331
2463F
  5
2476B
331
24640
  5
2476E
331
24641
  5
2476F
331
24642
  5
24770
331
24643
  5
24771
331
24644
  5
24776
331
24645
  5
24777
331
24646
  5
24778
331
24647
  5
24779
331
24648
  5
2477A
331
24649
  5
2477B
331
2464A
  5
2477C
331
2464B
  5
2477D
331
2464C
  5
2477E
331
2464D
  5
24787
331
2464E
  5
24788
331
2464F
  5
24789
331
24650
  5
2478A
331
24651
  5
2478B
331
24652
  5
2478C
331
24653
  5
2478D
331
24654
  5
2478E
331
0
  5
2465A
331
24657
  5
2482A
331
24658
  5
2482B
331
24659
  5
2482C
331
2465A
  5
2482D
331
2465B
  5
2482E
331
2465C
  5
2482F
331
2465D
  5
24830
331
24660
  5
24831
331
24661
  5
24832
331
24662
  5
24833
331
24663
  5
24834
331
24664
  5
24838
331
24665
  5
24839
331
24666
  5
2483A
331
24667
  5
2483B
331
24668
  5
2483C
331
24669
  5
2483D
331
2466A
  5
2483E
331
2466B
  5
2483F
331
2466C
  5
24840
331
2466D
  5
24841
331
2466E
  5
24842
331
2466F
  5
24843
331
24670
  5
24844
331
24671
  5
24845
331
24672
  5
24846
331
24673
  5
24847
331
24674
  5
24848
331
24675
  5
24849
331
24676
  5
2484A
331
24677
  5
24878
331
24679
  5
2488B
331
2467A
  5
2488D
331
2467B
  5
2488E
331
2467C
  5
248D4
331
2467E
  5
248F6
331
24680
  5
24913
331
24683
  5
2492F
331
24687
  5
24959
331
2468A
  5
2499F
331
2468B
  5
249A0
331
2468C
  5
249A1
331
2468D
  5
249A2
331
2468E
  5
249DA
331
24694
  5
249DB
331
24695
  5
249DC
331
24696
  5
249DD
331
24697
  5
24A11
331
24698
  5
24A4F
331
24699
  5
24A50
331
2469A
  5
24A51
331
246A1
  5
24A75
331
246A2
  5
24A7A
331
246A3
  5
24A7B
331
246A4
  5
24A7C
331
246A5
  5
24A7D
331
246A6
  5
24A7E
331
246A7
  5
24A7F
331
246A8
  5
24A80
331
246A9
  5
24C55
331
246AA
  5
24C56
331
246AB
  5
24C57
331
246AC
  5
24C58
331
246AD
  5
24C59
331
246AE
  5
24C5A
331
246AF
  5
24C5B
331
246B0
  5
24C5C
331
246B1
  5
24C5D
331
246B2
  5
24C5E
331
246B3
  5
24C5F
331
246B4
  5
24C60
331
246B5
  5
24C61
331
246B6
  5
24C62
331
246B7
  5
24C63
331
0
  5
246BC
331
0
  5
246BD
331
0
  5
246BE
331
0
  5
246BF
331
0
  5
246C0
331
0
  5
246C1
331
0
  5
246C2
331
0
  5
246C3
331
0
  5
246C4
331
0
  5
246C5
331
0
  5
246C6
331
0
  5
246C7
331
0
  5
246C8
331
0
  5
246C9
331
0
  5
246CA
331
0
  5
246CB
331
0
  5
246CC
331
0
  5
246CD
331
0
  5
246CE
331
0
  5
246CF
331
0
  5
246D0
331
0
  5
246D1
331
0
  5
246D2
331
0
  5
246D3
331
0
  5
246D4
331
0
  5
246D5
331
0
  5
246D6
331
0
  5
246D7
331
0
  5
246D8
331
0
  5
246D9
331
0
  5
246DA
331
0
  5
246DB
331
0
  5
246DC
331
0
  5
246DD
331
0
  5
246DE
331
0
  5
246DF
331
0
  5
246E0
331
0
  5
246E1
331
0
  5
246E2
331
0
  5
246E3
331
0
  5
246E4
331
0
  5
246E5
331
0
  5
246E6
331
0
  5
246E7
331
0
  5
246E8
331
0
  5
246E9
331
0
  5
246EA
331
0
  5
246EB
331
0
  5
246EC
331
0
  5
246ED
331
0
  5
246EE
331
0
  5
246EF
331
0
  5
246F0
331
0
  5
246F1
331
0
  5
246F2
331
0
  5
246F3
331
0
  5
246F4
331
0
  5
246F5
331
0
  5
246F6
331
0
  5
246F7
331
0
  5
246F8
331
0
  5
246F9
331
0
  5
246FA
331
0
  5
246FB
331
0
  5
246FC
331
0
  5
246FD
331
0
  5
246FE
331
0
  5
246FF
331
0
  5
24700
331
0
  5
24701
331
0
  5
24702
331
0
  5
24703
331
0
  5
24704
331
0
  5
24705
331
0
  5
24706
331
0
  5
24707
331
0
  5
24708
331
0
  5
24709
331
0
  5
2470A
331
0
  5
2470B
331
0
  5
2470C
331
0
  5
2470D
331
0
  5
2470E
331
0
  5
2470F
331
0
  5
24710
331
0
  5
24711
331
0
  5
24712
331
0
  5
24713
331
0
  5
24714
331
0
  5
24715
331
0
  5
24716
331
0
  5
24717
331
0
  5
24718
331
0
  5
24719
331
0
  5
2471A
331
0
  5
2471B
331
0
  5
2471C
331
0
  5
2471D
331
0
  5
2471E
331
0
  5
2471F
331
0
  5
24720
331
0
  5
24721
331
0
  5
24722
331
0
  5
24723
331
0
  5
24724
331
0
  5
24725
331
0
  5
24726
331
0
  5
24727
331
0
  5
24728
331
0
  5
24729
331
0
  5
2472A
331
0
  5
2472B
331
0
  5
2472C
331
0
  5
2472D
331
0
  5
2472E
331
0
  5
2472F
331
0
  5
24730
331
0
  5
24731
331
0
  5
24732
331
0
  5
24733
331
0
  5
24734
331
0
  5
24735
331
0
  5
24736
331
0
  5
24737
331
0
  5
24738
331
0
  5
24739
331
0
  5
2473A
331
0
  5
2473B
331
0
  5
2473C
331
0
  5
2473D
331
0
  5
2473E
331
0
  5
2473F
331
0
  5
24740
331
0
  5
24741
331
0
  5
24742
331
2473F
  5
24C64
331
24740
  5
24C65
331
24741
  5
24C66
331
24742
  5
24C67
331
24743
  5
24C68
331
24744
  5
24C69
331
24745
  5
24C6A
331
24746
  5
24C6B
331
24747
  5
24C6C
331
24748
  5
24C6D
331
24749
  5
24C6E
331
2474A
  5
24C6F
331
2474B
  5
24C70
331
2474C
  5
24C71
331
2474D
  5
24C72
331
2474E
  5
24C73
331
2474F
  5
24C74
331
24751
  5
24C75
331
24752
  5
24C76
331
24753
  5
24C77
331
24755
  5
24C78
331
24756
  5
24C79
331
24758
  5
24C7A
331
24759
  5
24C7B
331
2475A
  5
24C7C
331
2475B
  5
24C7D
331
2475C
  5
24C7E
331
2475D
  5
24C7F
331
2475E
  5
24C80
331
24760
  5
24C81
331
24761
  5
24C82
331
24762
  5
24C83
331
24763
  5
24C84
331
24768
  5
24C85
331
2476B
  5
24C86
331
2476E
  5
24C87
331
2476F
  5
24C88
331
24770
  5
24C89
331
24771
  5
24C8A
331
24776
  5
24C8B
331
24777
  5
24C8C
331
24778
  5
24C8D
331
24779
  5
24C8E
331
2477A
  5
24C8F
331
2477B
  5
24C90
331
2477C
  5
24C91
331
2477D
  5
24C92
331
2477E
  5
24C93
331
24787
  5
24C94
331
24788
  5
24C95
331
24789
  5
24C96
331
2478A
  5
24C97
331
2478B
  5
24C98
331
2478C
  5
24C99
331
2478D
  5
24C9A
331
2478E
  5
24C9B
331
2478F
  5
24C9C
331
24795
  5
24C9D
331
2479F
  5
24C9E
331
247A0
  5
24C9F
331
247A1
  5
24CA0
331
247A2
  5
24CA1
331
247A3
  5
24CA2
331
247A4
  5
24CA3
331
247A5
  5
24CA4
331
247A6
  5
24CA5
331
247A7
  5
24CA6
331
247A8
  5
24CA7
331
247A9
  5
24CA8
331
247AA
  5
24CA9
331
247AB
  5
24CAA
331
247AC
  5
24CAB
331
2481F
  5
24CAC
331
24820
  5
24CAD
331
24821
  5
24CAE
331
24822
  5
24CAF
331
24823
  5
24CB0
331
24824
  5
24CB1
331
24825
  5
24CB2
331
24826
  5
24CB3
331
24827
  5
24CB4
331
24828
  5
24CB6
331
24829
  5
24CB7
331
2482A
  5
24CB8
331
2482B
  5
24CB9
331
2482C
  5
24CBA
331
2482D
  5
24CBB
331
2482E
  5
24CBC
331
2482F
  5
24CBD
331
24830
  5
24CBE
331
24831
  5
24CC0
331
24832
  5
24CC5
331
24833
  5
24CC6
331
24834
  5
24CCA
331
24838
  5
24CCB
331
24839
  5
24CCC
331
2483A
  5
24CCD
331
2483B
  5
24CD1
331
2483C
  5
24CD2
331
2483D
  5
24CD3
331
2483E
  5
24CD4
331
2483F
  5
24CD5
331
24840
  5
24CD6
331
24841
  5
24CD7
331
24842
  5
24CD8
331
24843
  5
24CD9
331
24844
  5
24CDA
331
24845
  5
24CDB
331
24846
  5
24CDC
331
24847
  5
24CE0
331
24848
  5
24CE1
331
24849
  5
24CE2
331
2484A
  5
24CE3
331
2488B
  5
24CE4
331
2488C
  5
24CE5
331
0
  5
2499C
331
0
  5
2499D
331
0
  5
2499E
331
24913
  5
24D08
331
0
  5
245CA
331
0
  5
245D4
331
24959
  5
24D09
331
2499C
  5
24D0D
331
2499D
  5
24D0E
331
0
  5
249A3
331
0
  5
249A4
331
0
  5
249CC
331
0
  5
249CD
331
0
  5
249CE
331
0
  5
249CF
331
0
  5
249D9
331
249CC
  5
24D28
331
249CD
  5
24D29
331
249CE
  5
24D2A
331
249CF
  5
24D2B
331
0
  5
249DE
331
0
  5
249DF
331
0
  5
24A0B
331
0
  5
24A0C
331
0
  5
24A0D
331
0
  5
24A0E
331
0
  5
24A0F
331
0
  5
24A10
331
24A0C
  5
24D53
331
24A0D
  5
24D54
331
24A0E
  5
24D55
331
24A0F
  5
24D56
331
0
  5
24A52
331
0
  5
24A73
331
24A4F
  5
24D5C
331
24A50
  5
24D5D
331
24A51
  5
24D5E
331
24A52
  5
24D5F
331
24A73
  5
24D60
331
24A75
  5
24D61
331
24A7A
  5
24D62
331
24A7B
  5
24D63
331
24A7C
  5
24611
331
24A7D
  5
2460F
331
24A7E
  5
24CC4
331
24A7F
  5
24CB5
331
24A80
  5
24CBF
331
24C55
  5
23C09
331
24C56
  5
23C0A
331
24C57
  5
23C0B
331
0
  5
23C0C
331
0
  5
23C21
331
0
  5
23C4D
331
24C5B
  5
245C9
331
24C5C
  5
245CB
331
24C5D
  5
245CC
331
0
  5
245C0
331
0
  5
245C1
331
0
  5
245C2
331
24C61
  5
245E2
331
24C62
  5
245E3
331
24C63
  5
245E4
331
0
  5
245CD
331
0
  5
245CE
331
0
  5
245CF
331
24C67
  5
245F6
331
24C68
  5
245F8
331
24C69
  5
245FC
331
0
  5
245D7
331
0
  5
245D8
331
0
  5
245D9
331
24C6D
  5
24745
331
24C6E
  5
24746
331
24C6F
  5
24747
331
24C70
  5
24748
331
24C71
  5
24749
331
24C72
  5
2474A
331
24C73
  5
2474B
331
24C74
  5
2474C
331
24C75
  5
2474D
331
24C76
  5
2474E
331
24C77
  5
2474F
331
24C78
  5
24751
331
24C79
  5
24752
331
24C7A
  5
24753
331
24C7B
  5
24755
331
24C7C
  5
24756
331
24C7D
  5
24758
331
24C7E
  5
24759
331
24C7F
  5
2475A
331
24C80
  5
2475B
331
24C81
  5
2475C
331
24C82
  5
2475D
331
24C83
  5
2475E
331
24C84
  5
2478F
331
24C85
  5
24795
331
24C86
  5
2479F
331
24C87
  5
247A0
331
24C88
  5
247A1
331
24C89
  5
247A2
331
24C8A
  5
247A3
331
24C8B
  5
247A4
331
24C8C
  5
247A5
331
24C8D
  5
247A6
331
24C8E
  5
247A7
331
24C8F
  5
247A8
331
24C90
  5
247A9
331
24C91
  5
247AA
331
24C92
  5
247AB
331
24C93
  5
247AC
331
24C94
  5
2481F
331
24C95
  5
24820
331
24C96
  5
24821
331
24C97
  5
24822
331
24C98
  5
24823
331
24C99
  5
24824
331
24C9A
  5
24825
331
24C9B
  5
24826
331
24C9C
  5
24827
331
24C9D
  5
24828
331
24C9E
  5
24829
331
24C9F
  5
24CE6
331
24CA0
  5
24CE7
331
24CA1
  5
24CE8
331
0
  5
24CC1
331
0
  5
24CC2
331
0
  5
24CC3
331
24CA5
  5
24CF0
331
24CA6
  5
24CF1
331
24CA7
  5
24CF2
331
0
  5
24CC7
331
0
  5
24CC8
331
0
  5
24CC9
331
24CAB
  5
24CFA
331
24CAC
  5
24CFB
331
24CAD
  5
24CFC
331
24CAE
  5
24CFD
331
0
  5
24CCE
331
0
  5
24CCF
331
0
  5
24CD0
331
24CB2
  5
2463B
331
24CB3
  5
2463C
331
24CB4
  5
2463E
331
24CB5
  5
2463F
331
24CB6
  5
24640
331
24CB7
  5
24641
331
24CB8
  5
24642
331
24CB9
  5
24643
331
24CBA
  5
24644
331
24CBB
  5
24645
331
24CBC
  5
24646
331
24CBD
  5
24647
331
24CBE
  5
24648
331
24CBF
  5
24649
331
24CC0
  5
2464A
331
24CC1
  5
2464B
331
24CC2
  5
2464C
331
24CC3
  5
2464D
331
24CC4
  5
2464E
331
24CC5
  5
2464F
331
24CC6
  5
24650
331
24CC7
  5
24651
331
24CC8
  5
24652
331
24CC9
  5
24653
331
24CCA
  5
24654
331
24CCB
  5
2465E
331
24CCC
  5
2465F
331
24CCD
  5
24662
331
24CCE
  5
24663
331
24CCF
  5
24664
331
24CD0
  5
24665
331
24CD1
  5
24666
331
24CD2
  5
24667
331
24CD3
  5
24668
331
24CD4
  5
24669
331
24CD5
  5
2466A
331
24CD6
  5
2466B
331
24CD7
  5
2466C
331
24CD8
  5
2466D
331
24CD9
  5
2466E
331
24CDA
  5
2466F
331
24CDB
  5
24670
331
24CDC
  5
24671
331
24CDD
  5
24672
331
24CDE
  5
24673
331
24CDF
  5
24674
331
24CE0
  5
24675
331
24CE1
  5
24676
331
24CE2
  5
24677
331
24CE3
  5
24679
331
24CE4
  5
2467A
331
24CE5
  5
24D0F
331
24CE6
  5
24D10
331
24CE7
  5
24D11
331
24CE8
  5
24D12
331
24CE9
  5
24D13
331
24CEA
  5
24D14
331
24CEB
  5
24D15
331
24CEC
  5
24D16
331
0
  5
24CDD
331
0
  5
24CDE
331
0
  5
24CDF
331
24CF0
  5
24D1E
331
24CF1
  5
24D1F
331
24CF2
  5
24D20
331
24CF3
  5
24D21
331
24CF4
  5
24D22
331
24CF5
  5
24D23
331
24CF6
  5
24D24
331
24CF7
  5
24D25
331
24CF8
  5
24D26
331
24CF9
  5
24D27
331
24CFA
  5
24D2C
331
24CFB
  5
24D2D
331
24CFC
  5
24D2E
331
24CFD
  5
24D2F
331
24CFE
  5
24D30
331
24CFF
  5
24D31
331
24D00
  5
24D32
331
24D01
  5
24D33
331
24D02
  5
24D34
331
24D03
  5
24D35
331
24D04
  5
24D36
331
24D05
  5
24D37
331
24D06
  5
24D38
331
24D07
  5
24D39
331
24D08
  5
24D3A
331
24D09
  5
24D3B
331
24D0A
  5
24D3C
331
24D0B
  5
24D3D
331
24D0C
  5
24D3E
331
24D0D
  5
24D3F
331
24D0E
  5
24D40
331
0
  5
24D03
331
0
  5
24D04
331
0
  5
24D05
331
24D12
  5
24D48
331
24D13
  5
24D49
331
24D14
  5
24D4A
331
24D15
  5
24D4B
331
0
  5
24D0A
331
0
  5
24D0B
331
0
  5
24D0C
331
24D19
  5
24D57
331
24D1A
  5
24D58
331
24D1B
  5
24D59
331
24D1C
  5
24D5A
331
24D1D
  5
24D5B
331
24D1E
  5
245B9
331
24D1F
  5
245BC
331
24D20
  5
245BE
331
24D21
  5
245C3
331
24D22
  5
245C4
331
24D23
  5
245C5
331
24D24
  5
245C8
331
24D25
  5
245D1
331
24D26
  5
245D2
331
24D27
  5
245D6
331
24D28
  5
245DA
331
24D29
  5
245DB
331
24D2A
  5
245DC
331
24D2B
  5
245DD
331
24D2C
  5
245E5
331
24D2D
  5
245E8
331
24D2E
  5
245EC
331
24D2F
  5
245ED
331
24D30
  5
245F2
331
24D31
  5
245F3
331
24D32
  5
245F4
331
24D33
  5
245FD
331
24D34
  5
24600
331
24D35
  5
24601
331
24D36
  5
24602
331
24D37
  5
24604
331
24D38
  5
24605
331
24D39
  5
24606
331
24D3A
  5
24CE9
331
24D3B
  5
24CEA
331
24D3C
  5
24CEB
331
24D3D
  5
24CEC
331
24D3E
  5
24CED
331
24D3F
  5
24CEE
331
24D40
  5
24CEF
331
24D41
  5
24CF3
331
24D42
  5
24CF4
331
24D43
  5
24CF5
331
24D44
  5
24CF6
331
24D45
  5
24CF7
331
24D46
  5
24CF8
331
24D47
  5
24CF9
331
24D48
  5
24CFE
331
24D49
  5
24CFF
331
24D4A
  5
24D00
331
24D4B
  5
24D01
331
24D4C
  5
24D02
331
24D4D
  5
24D06
331
24D4E
  5
24D07
331
24D4F
  5
24D17
331
24D50
  5
24D18
331
24D51
  5
24D19
331
24D52
  5
24D1A
331
24D53
  5
24D1B
331
24D54
  5
24D1C
331
24D55
  5
24D1D
331
24D56
  5
24D41
331
24D57
  5
24D42
331
24D58
  5
24D43
331
24D59
  5
24D44
331
24D5A
  5
24D45
331
24D5B
  5
24D46
331
24D5C
  5
24D47
331
24D5D
  5
24D4C
331
24D5E
  5
24D4D
331
24D5F
  5
24D4E
331
24D60
  5
24D4F
331
24D61
  5
24D50
331
24D62
  5
24D51
331
24D63
  5
24D52
  0
SORTENTSTABLE
  5
59C
102
{ACAD_REACTORS
330
59B
102
}
330
59B
100
AcDbSortentsTable
330
15
  0
ACAD_PROXY_OBJECT
  5
24B64
102
{ACAD_REACTORS
330
24B63
102
}
102
{ACAD_XDICTIONARY
360
24BDD
102
}
330
24B63
100
AcDbZombieObject
 90
      499
 91
      518
 93
      877
310
9084D65747269633530481E0000000000000A20500E0000000000000A20233E0000000000000A20400000000000017202029B929E2E20B1AB30B9102B34B2BBA232BA30B4B624B21F129014129E2E20B1AB30B9102B34B2BBA9B1B0B632902E33101112B9B7111F1294A33A33800
340
F
340
0
340
14
340
F
340
14
340
14
 94
        0
  0
MATERIAL
  5
19DD5
102
{ACAD_REACTORS
330
2CF
102
}
102
{ACAD_XDICTIONARY
360
24D68
102
}
330
2CF
100
AcDbMaterial
  1
BYBLOCK
 72
     0
 73
     2
 43
0.0208333333333333
 43
0.0
 43
0.0
 43
0.0
 43
0.0
 43
0.0208333333333333
 43
0.0
 43
0.0
 43
0.0
 43
0.0
 43
1.0
 43
0.0
 43
0.0
 43
0.0
 43
0.0
 43
1.0
 77
     0
 78
     2
 47
0.0208333333333333
 47
0.0
 47
0.0
 47
0.0
 47
0.0
 47
0.0208333333333333
 47
0.0
 47
0.0
 47
0.0
 47
0.0
 47
1.0
 47
0.0
 47
0.0
 47
0.0
 47
0.0
 47
1.0
171
     0
172
     2
 49
0.0208333333333333
 49
0.0
 49
0.0
 49
0.0
 49
0.0
 49
0.0208333333333333
 49
0.0
 49
0.0
 49
0.0
 49
0.0
 49
1.0
 49
0.0
 49
0.0
 49
0.0
 49
0.0
 49
1.0
175
     0
176
     2
142
0.0208333333333333
142
0.0
142
0.0
142
0.0
142
0.0
142
0.0208333333333333
142
0.0
142
0.0
142
0.0
142
0.0
142
1.0
142
0.0
142
0.0
142
0.0
142
0.0
142
1.0
179
     0
270
     2
144
0.0208333333333333
144
0.0
144
0.0
144
0.0
144
0.0
144
0.0208333333333333
144
0.0
144
0.0
144
0.0
144
0.0
144
1.0
144
0.0
144
0.0
144
0.0
144
0.0
144
1.0
274
     2
147
0.0208333333333333
147
0.0
147
0.0
147
0.0
147
0.0
147
0.0208333333333333
147
0.0
147
0.0
147
0.0
147
0.0
147
1.0
147
0.0
147
0.0
147
0.0
147
0.0
147
1.0
  0
MATERIAL
  5
19DCD
102
{ACAD_REACTORS
330
2CF
102
}
102
{ACAD_XDICTIONARY
360
24D6A
102
}
330
2CF
100
AcDbMaterial
  1
BYLAYER
 72
     0
 73
     2
 43
0.0208333333333333
 43
0.0
 43
0.0
 43
0.0
 43
0.0
 43
0.0208333333333333
 43
0.0
 43
0.0
 43
0.0
 43
0.0
 43
1.0
 43
0.0
 43
0.0
 43
0.0
 43
0.0
 43
1.0
 77
     0
 78
     2
 47
0.0208333333333333
 47
0.0
 47
0.0
 47
0.0
 47
0.0
 47
0.0208333333333333
 47
0.0
 47
0.0
 47
0.0
 47
0.0
 47
1.0
 47
0.0
 47
0.0
 47
0.0
 47
0.0
 47
1.0
171
     0
172
     2
 49
0.0208333333333333
 49
0.0
 49
0.0
 49
0.0
 49
0.0
 49
0.0208333333333333
 49
0.0
 49
0.0
 49
0.0
 49
0.0
 49
1.0
 49
0.0
 49
0.0
 49
0.0
 49
0.0
 49
1.0
175
     0
176
     2
142
0.0208333333333333
142
0.0
142
0.0
142
0.0
142
0.0
142
0.0208333333333333
142
0.0
142
0.0
142
0.0
142
0.0
142
1.0
142
0.0
142
0.0
142
0.0
142
0.0
142
1.0
179
     0
270
     2
144
0.0208333333333333
144
0.0
144
0.0
144
0.0
144
0.0
144
0.0208333333333333
144
0.0
144
0.0
144
0.0
144
0.0
144
1.0
144
0.0
144
0.0
144
0.0
144
0.0
144
1.0
274
     2
147
0.0208333333333333
147
0.0
147
0.0
147
0.0
147
0.0
147
0.0208333333333333
147
0.0
147
0.0
147
0.0
147
0.0
147
1.0
147
0.0
147
0.0
147
0.0
147
0.0
147
1.0
  0
MATERIAL
  5
19DDD
102
{ACAD_REACTORS
330
2CF
102
}
102
{ACAD_XDICTIONARY
360
24D6C
102
}
330
2CF
100
AcDbMaterial
  1
GLOBAL
 72
     0
 73
     2
 43
0.0208333333333333
 43
0.0
 43
0.0
 43
0.0
 43
0.0
 43
0.0208333333333333
 43
0.0
 43
0.0
 43
0.0
 43
0.0
 43
1.0
 43
0.0
 43
0.0
 43
0.0
 43
0.0
 43
1.0
 77
     0
 78
     2
 47
0.0208333333333333
 47
0.0
 47
0.0
 47
0.0
 47
0.0
 47
0.0208333333333333
 47
0.0
 47
0.0
 47
0.0
 47
0.0
 47
1.0
 47
0.0
 47
0.0
 47
0.0
 47
0.0
 47
1.0
171
     0
172
     2
 49
0.0208333333333333
 49
0.0
 49
0.0
 49
0.0
 49
0.0
 49
0.0208333333333333
 49
0.0
 49
0.0
 49
0.0
 49
0.0
 49
1.0
 49
0.0
 49
0.0
 49
0.0
 49
0.0
 49
1.0
175
     0
176
     2
142
0.0208333333333333
142
0.0
142
0.0
142
0.0
142
0.0
142
0.0208333333333333
142
0.0
142
0.0
142
0.0
142
0.0
142
1.0
142
0.0
142
0.0
142
0.0
142
0.0
142
1.0
179
     0
270
     2
144
0.0208333333333333
144
0.0
144
0.0
144
0.0
144
0.0
144
0.0208333333333333
144
0.0
144
0.0
144
0.0
144
0.0
144
1.0
144
0.0
144
0.0
144
0.0
144
0.0
144
1.0
274
     2
147
0.0208333333333333
147
0.0
147
0.0
147
0.0
147
0.0
147
0.0208333333333333
147
0.0
147
0.0
147
0.0
147
0.0
147
1.0
147
0.0
147
0.0
147
0.0
147
0.0
147
1.0
  0
ACAD_PROXY_OBJECT
  5
19E19
102
{ACAD_REACTORS
330
19E18
102
}
330
19E18
100
AcDbZombieObject
 90
      499
 91
      512
 93
      610
310
40901902A4063FBFFFFFE000000000000002040AD7A3703D0AD73F4214DD185B99185C990000000000000104090141901A00000000000004100000000000000041025764000000000000300FC0
340
12
340
0
340
F
340
0
 94
        0
1001
ACAD_MLEADERVER
1070
     2
  0
MLINESTYLE
  5
1C
102
{ACAD_REACTORS
330
1B
102
}
330
1B
100
AcDbMlineStyle
  2
STANDARD
 70
     0
  3

 62
   256
 51
90.0
 52
90.0
 71
     2
 49
0.5
 62
   256
  6
BYLAYER
 49
-0.5
 62
   256
  6
BYLAYER
  0
ACAD_PROXY_OBJECT
  5
19DF7
102
{ACAD_REACTORS
330
19DF6
102
}
330
19DF6
100
AcDbZombieObject
 90
      499
 91
      511
 93
       41
310
903313A31580
  0
ACAD_PROXY_OBJECT
  5
19DF8
102
{ACAD_REACTORS
330
19DF6
102
}
330
19DF6
100
AcDbZombieObject
 90
      499
 91
      511
 93
      105
310
903313A324000000000000004000
  0
ACAD_PROXY_OBJECT
  5
19DF9
102
{ACAD_REACTORS
330
19DF6
102
}
330
19DF6
100
AcDbZombieObject
 90
      499
 91
      511
 93
      105
310
903313A344000000000000104000
  0
ACAD_PROXY_OBJECT
  5
19DFA
102
{ACAD_REACTORS
330
19DF6
102
}
330
19DF6
100
AcDbZombieObject
 90
      499
 91
      511
 93
      105
310
903313A354000000000000144000
  0
ACAD_PROXY_OBJECT
  5
19DFB
102
{ACAD_REACTORS
330
19DF6
102
}
330
19DF6
100
AcDbZombieObject
 90
      499
 91
      511
 93
      105
310
903313A384000000000000204000
  0
ACAD_PROXY_OBJECT
  5
19DFC
102
{ACAD_REACTORS
330
19DF6
102
}
330
19DF6
100
AcDbZombieObject
 90
      499
 91
      511
 93
      113
310
904313A31304000000000000244000
  0
ACAD_PROXY_OBJECT
  5
19DFD
102
{ACAD_REACTORS
330
19DF6
102
}
330
19DF6
100
AcDbZombieObject
 90
      499
 91
      511
 93
      113
310
904313A31364000000000000304000
  0
ACAD_PROXY_OBJECT
  5
19DFE
102
{ACAD_REACTORS
330
19DF6
102
}
330
19DF6
100
AcDbZombieObject
 90
      499
 91
      511
 93
      113
310
904313A32304000000000000344000
  0
ACAD_PROXY_OBJECT
  5
19DFF
102
{ACAD_REACTORS
330
19DF6
102
}
330
19DF6
100
AcDbZombieObject
 90
      499
 91
      511
 93
      113
310
904313A333040000000000003E4000
  0
ACAD_PROXY_OBJECT
  5
19E00
102
{ACAD_REACTORS
330
19DF6
102
}
330
19DF6
100
AcDbZombieObject
 90
      499
 91
      511
 93
      113
310
904313A34304000000000000444000
  0
ACAD_PROXY_OBJECT
  5
19E01
102
{ACAD_REACTORS
330
19DF6
102
}
330
19DF6
100
AcDbZombieObject
 90
      499
 91
      511
 93
      113
310
904313A35304000000000000494000
  0
ACAD_PROXY_OBJECT
  5
19E02
102
{ACAD_REACTORS
330
19DF6
102
}
330
19DF6
100
AcDbZombieObject
 90
      499
 91
      511
 93
      121
310
905313A3130304000000000000594000
  0
ACAD_PROXY_OBJECT
  5
19E03
102
{ACAD_REACTORS
330
19DF6
102
}
330
19DF6
100
AcDbZombieObject
 90
      499
 91
      511
 93
      105
310
903323A310000000000000010100
  0
ACAD_PROXY_OBJECT
  5
19E04
102
{ACAD_REACTORS
330
19DF6
102
}
330
19DF6
100
AcDbZombieObject
 90
      499
 91
      511
 93
      105
310
903343A310000000000000410100
  0
ACAD_PROXY_OBJECT
  5
19E05
102
{ACAD_REACTORS
330
19DF6
102
}
330
19DF6
100
AcDbZombieObject
 90
      499
 91
      511
 93
      105
310
903383A310000000000000810100
  0
ACAD_PROXY_OBJECT
  5
19E06
102
{ACAD_REACTORS
330
19DF6
102
}
330
19DF6
100
AcDbZombieObject
 90
      499
 91
      511
 93
      113
310
90431303A310000000000000910100
  0
ACAD_PROXY_OBJECT
  5
19E07
102
{ACAD_REACTORS
330
19DF6
102
}
330
19DF6
100
AcDbZombieObject
 90
      499
 91
      511
 93
      121
310
9053130303A310000000000001650100
  0
ACAD_PROXY_OBJECT
  5
19E08
102
{ACAD_REACTORS
330
19DF6
102
}
330
19DF6
100
AcDbZombieObject
 90
      499
 91
      511
 93
      257
310
90E312F31323822203D2031272D3022000000000000200FC000000000000284000
  0
ACAD_PROXY_OBJECT
  5
19E09
102
{ACAD_REACTORS
330
19DF6
102
}
330
19DF6
100
AcDbZombieObject
 90
      499
 91
      511
 93
      249
310
90D312F363422203D2031272D3022000000000000240FC000000000000284000
  0
ACAD_PROXY_OBJECT
  5
19E0A
102
{ACAD_REACTORS
330
19DF6
102
}
330
19DF6
100
AcDbZombieObject
 90
      499
 91
      511
 93
      249
310
90D312F333222203D2031272D3022000000000000280FC000000000000284000
  0
ACAD_PROXY_OBJECT
  5
19E0B
102
{ACAD_REACTORS
330
19DF6
102
}
330
19DF6
100
AcDbZombieObject
 90
      499
 91
      511
 93
      249
310
90D312F313622203D2031272D30220000000000002C0FC000000000000284000
  0
ACAD_PROXY_OBJECT
  5
19E0C
102
{ACAD_REACTORS
330
19DF6
102
}
330
19DF6
100
AcDbZombieObject
 90
      499
 91
      511
 93
      249
310
90D332F333222203D2031272D30220000000000002E0FC000000000000284000
  0
ACAD_PROXY_OBJECT
  5
19E0D
102
{ACAD_REACTORS
330
19DF6
102
}
330
19DF6
100
AcDbZombieObject
 90
      499
 91
      511
 93
      241
310
90C312F3822203D2031272D3022000000000000300FC000000000000284000
  0
ACAD_PROXY_OBJECT
  5
19E0E
102
{ACAD_REACTORS
330
19DF6
102
}
330
19DF6
100
AcDbZombieObject
 90
      499
 91
      511
 93
      249
310
90D332F313622203D2031272D3022000000000000320FC000000000000284000
  0
ACAD_PROXY_OBJECT
  5
19E0F
102
{ACAD_REACTORS
330
19DF6
102
}
330
19DF6
100
AcDbZombieObject
 90
      499
 91
      511
 93
      241
310
90C312F3422203D2031272D3022000000000000340FC000000000000284000
  0
ACAD_PROXY_OBJECT
  5
19E10
102
{ACAD_REACTORS
330
19DF6
102
}
330
19DF6
100
AcDbZombieObject
 90
      499
 91
      511
 93
      241
310
90C332F3822203D2031272D3022000000000000360FC000000000000284000
  0
ACAD_PROXY_OBJECT
  5
19E11
102
{ACAD_REACTORS
330
19DF6
102
}
330
19DF6
100
AcDbZombieObject
 90
      499
 91
      511
 93
      241
310
90C312F3222203D2031272D3022000000000000380FC000000000000284000
  0
ACAD_PROXY_OBJECT
  5
19E12
102
{ACAD_REACTORS
330
19DF6
102
}
330
19DF6
100
AcDbZombieObject
 90
      499
 91
      511
 93
      241
310
90C332F3422203D2031272D30220000000000003A0FC000000000000284000
  0
ACAD_PROXY_OBJECT
  5
19E13
102
{ACAD_REACTORS
330
19DF6
102
}
330
19DF6
100
AcDbZombieObject
 90
      499
 91
      511
 93
      161
310
90A3122203D2031272D30224000000000000284000
  0
ACAD_PROXY_OBJECT
  5
19E14
102
{ACAD_REACTORS
330
19DF6
102
}
330
19DF6
100
AcDbZombieObject
 90
      499
 91
      511
 93
      257
310
90E312D312F3222203D2031272D30220000000000003E0FC000000000000284000
  0
ACAD_PROXY_OBJECT
  5
19E15
102
{ACAD_REACTORS
330
19DF6
102
}
330
19DF6
100
AcDbZombieObject
 90
      499
 91
      511
 93
      225
310
90A3322203D2031272D302200000000000002100000000000000284000
  0
ACAD_PROXY_OBJECT
  5
19E16
102
{ACAD_REACTORS
330
19DF6
102
}
330
19DF6
100
AcDbZombieObject
 90
      499
 91
      511
 93
      225
310
90A3622203D2031272D302200000000000006100000000000000284000
  0
ACAD_PROXY_OBJECT
  5
19E17
102
{ACAD_REACTORS
330
19DF6
102
}
330
19DF6
100
AcDbZombieObject
 90
      499
 91
      511
 93
      249
310
90D31272D3022203D2031272D30220000000000000A100000000000000284000
  0
ACAD_PROXY_OBJECT
  5
24B62
102
{ACAD_REACTORS
330
24B61
102
}
102
{ACAD_XDICTIONARY
360
24BDB
102
}
330
24B61
100
AcDbZombieObject
 90
      499
 91
      517
 93
     2015
310
9084D657472696335304B360000000000000A2060000000000000A202209258409E5840A25840A65840B05840B40000000000001220233A65800000000000028800000000000000A2060000000000000A2040000000000001720202AC929E2E20B1AB30B9102B34B2BBA9B2B1BA34B7B729BA30B93A24B21F1296929E2E20B
310
1AB30B9102B34B2BBA9B2B1BA34B7B722B73224B21F129014129E2E20B1AB30B9102B34B2BBA9B1B0B632902E33101112B9B7111F1294E0080A0C829CA6926662C400000000000002204000000000000022020D0305A88A9F643F27E32B9969C2960E81F87FA0718D4DE3E87E32B9969C2960E85F9E5129FC49EA5FA7E
340
F
340
0
340
0
340
14
340
14
340
F
 94
        0
  0
ACAD_PROXY_OBJECT
  5
19DEB
102
{ACAD_REACTORS
330
19DE5
102
}
330
19DE5
100
AcDbZombieObject
 90
      499
 91
      510
 93
      436
310
42CC9915DA5C99599C985B595049028333333333333E3BF0000000000000FB0107901411070040501600405405064090741402480A0340
1001
ACAD
1000
AcDbSavedByObjectVersion
1070
     0
  0
ACAD_PROXY_OBJECT
  5
19DED
102
{ACAD_REACTORS
330
19DE5
102
}
330
19DE5
100
AcDbZombieObject
 90
      499
 91
      510
 93
      500
310
424CD108121A5919195B90640502408333333333333E3BF0000000000000FB01079024090700405020000000000001110200405405064090740C02480A0340
1001
ACAD
1000
AcDbSavedByObjectVersion
1070
     0
  0
ACAD_PROXY_OBJECT
  5
19DEC
102
{ACAD_REACTORS
330
19DE5
102
}
330
19DE5
100
AcDbZombieObject
 90
      499
 91
      510
 93
      436
310
42CCD915DA5C99599C985B595059028333333333333E3BF0000000000000FB0107901411070040501600405405064090741402480A0340
1001
ACAD
1000
AcDbSavedByObjectVersion
1070
     0
  0
ACAD_PROXY_OBJECT
  5
19DEA
102
{ACAD_REACTORS
330
19DE5
102
}
330
19DE5
100
AcDbZombieObject
 90
      499
 91
      510
 93
      388
310
4150985CDA58D07406404333333333333E3BF0000000000000FB0107A41107004050150841D405064090741402480A0350
1001
ACAD
1000
AcDbSavedByObjectVersion
1070
     0
  0
ACAD_PROXY_OBJECT
  5
19DF1
102
{ACAD_REACTORS
330
19DE5
102
}
330
19DE5
100
AcDbZombieObject
 90
      499
 91
      510
 93
      428
310
42109C9A59DA1D195B90C409028333333333333E3BF0000000000000FB010790141107004050150841D405064090741402480A029950
1001
ACAD
1000
AcDbSavedByObjectVersion
1070
     0
  0
ACAD_PROXY_OBJECT
  5
19DF5
102
{ACAD_REACTORS
330
19DE5
102
}
330
19DE5
100
AcDbZombieObject
 90
      499
 91
      510
 93
      452
310
42D0DBDB1BDC90DA185B99D95104090240C333333333333E3BF0000000000000FB0108901411070040501508421405064090741402480A0350
1001
ACAD
1000
AcDbSavedByObjectVersion
1070
     0
  0
ACAD_PROXY_OBJECT
  5
19DEE
102
{ACAD_REACTORS
330
19DE5
102
}
330
19DE5
100
AcDbZombieObject
 90
      499
 91
      510
 93
      500
310
4290DBDB98D95C1D1D585B10940D028333333333333E3BF0000000000000FB0107902409070040501000000000000111010841D405064090740C02480A0340
1001
ACAD
1000
AcDbSavedByObjectVersion
1070
     0
  0
ACAD_PROXY_OBJECT
  5
19DF0
102
{ACAD_REACTORS
330
19DE5
102
}
330
19DE5
100
AcDbZombieObject
 90
      499
 91
      510
 93
      412
310
40D11A5B50B409028333333333333E3BF0000000000000FB010790141107004050150841D405064090741402480A02677FFFFFD0
1001
ACAD
1000
AcDbSavedByObjectVersion
1070
     0
  0
ACAD_PROXY_OBJECT
  5
1E02A
102
{ACAD_REACTORS
330
19DE5
102
}
330
19DE5
100
AcDbZombieObject
 90
      499
 91
      510
 93
      452
310
43115919D950DBDB1BDC93D999916409028333333333333E3BF0000000000000FB010790141107004050150841D405064090741402480A0350
1001
ACAD
1000
AcDbSavedByObjectVersion
1070
     0
  0
ACAD_PROXY_OBJECT
  5
19DF4
102
{ACAD_REACTORS
330
19DE5
102
}
330
19DE5
100
AcDbZombieObject
 90
      499
 91
      510
 93
      444
310
42D19858D95C185D1D195C9B90F409028333333333333E3BF0000000000000FB010790141107004050150841D405064090741402480A0350
1001
ACAD
1000
AcDbSavedByObjectVersion
1070
     0
  0
ACAD_PROXY_OBJECT
  5
19DE6
102
{ACAD_REACTORS
330
19DE5
102
}
330
19DE5
100
AcDbZombieObject
 90
      499
 91
      510
 93
      388
310
41119B185D240901404333333333333E3BF0000000000000F9010740A41107004050150841D405064090741402480A1B50
1001
ACAD
1000
AcDbSavedByObjectVersion
1070
     0
  0
ACAD_PROXY_OBJECT
  5
19DE7
102
{ACAD_REACTORS
330
19DE5
102
}
330
19DE5
100
AcDbZombieObject
 90
      499
 91
      510
 93
      476
310
43519B185D15DA5D1A115919D95CD0140901404333333333333E3BF0000000000000F9010740901411070040501600405405064090741402480A1B50
1001
ACAD
1000
AcDbSavedByObjectVersion
1070
     0
  0
ACAD_PROXY_OBJECT
  5
19DE8
102
{ACAD_REACTORS
330
19DE5
102
}
330
19DE5
100
AcDbZombieObject
 90
      499
 91
      510
 93
      412
310
41D1DBDD5C985D5910240902404333333333333E3BF0000000000000F9010740A411070040501641D405064090741402480A1B50
1001
ACAD
1000
AcDbSavedByObjectVersion
1070
     0
  0
ACAD_PROXY_OBJECT
  5
19DE9
102
{ACAD_REACTORS
330
19DE5
102
}
330
19DE5
100
AcDbZombieObject
 90
      499
 91
      510
 93
      500
310
4411DBDD5C985D5915DA5D1A115919D95CD0340902404333333333333E3BF0000000000000F9010740901411070040501600405405064090741402480A1B50
1001
ACAD
1000
AcDbSavedByObjectVersion
1070
     0
  0
ACAD_PROXY_OBJECT
  5
24B5A
102
{ACAD_REACTORS
330
19DE5
102
}
330
19DE5
100
AcDbZombieObject
 90
      499
 91
      510
 93
      476
310
41921A5919195B90640502408333333333333E3BF0000000000000FB01079024090700405020000000000001110200405405064090740C02480A0340
1001
ACAD
1000
AcDbSavedByObjectVersion
1070
     0
  0
ACAD_PROXY_OBJECT
  5
1E028
102
{ACAD_REACTORS
330
19DE5
102
}
330
19DE5
100
AcDbZombieObject
 90
      499
 91
      510
 93
      428
310
42529A5D1D195C93D999914409028333333333333E3BF0000000000000FB010790141107004050150A41D405064090741402480A0350
1001
ACAD
1000
AcDbSavedByObjectVersion
1070
     0
  0
ACAD_PROXY_OBJECT
  5
19DF3
102
{ACAD_REACTORS
330
19DE5
102
}
330
19DE5
100
AcDbZombieObject
 90
      499
 91
      510
 93
      444
310
42D31A5B995C185D1D195C9B90E409028333333333333E3BF0000000000000FB010790141107004050750841D405064090741402483A0350
1001
ACAD
1000
AcDbSavedByObjectVersion
1070
     0
  0
ACAD_PROXY_OBJECT
  5
24BE2
102
{ACAD_REACTORS
330
19DE5
102
}
330
19DE5
100
AcDbZombieObject
 90
      499
 91
      510
 93
      484
310
42135BD9195B1A5B99D0A409038333333333333E33F0000000000000F901074090290700405010000000000201990108421405064090741402480A1B40
1001
ACAD
1000
AcDbSavedByObjectVersion
1070
     0
  0
ACAD_PROXY_OBJECT
  5
1E029
102
{ACAD_REACTORS
330
19DE5
102
}
330
19DE5
100
AcDbZombieObject
 90
      499
 91
      510
 93
      444
310
42D3DD995C9A185B99D3D999915409028333333333333E3BF0000000000000FB010790141107004050150941D405064090741402480A0350
1001
ACAD
1000
AcDbSavedByObjectVersion
1070
     0
  0
ACAD_PROXY_OBJECT
  5
19DEF
102
{ACAD_REACTORS
330
19DE5
102
}
330
19DE5
100
AcDbZombieObject
 90
      499
 91
      510
 93
      420
310
425499585B1A5CDD1A58D08409028333333333333E3BF0000000000000FB01079019070040501508421405064090741402480A1B40
1001
ACAD
1000
AcDbSavedByObjectVersion
1070
     0
  0
ACAD_PROXY_OBJECT
  5
24B5F
102
{ACAD_REACTORS
330
19DE5
102
}
330
19DE5
100
AcDbZombieObject
 90
      499
 91
      510
 93
      420
310
4194DA1859195911B40902404333333333333E3BF0000000000000F9010740A41107004050150800405405064090840C02480A0B40
1001
ACAD
1000
AcDbSavedByObjectVersion
1070
     0
  0
ACAD_PROXY_OBJECT
  5
24B5E
102
{ACAD_REACTORS
330
19DE5
102
}
330
19DE5
100
AcDbZombieObject
 90
      499
 91
      510
 93
      516
310
4454DA18591959081DDA5D1A08195919D95CD1A40902404333333333333E3BF0000000000000F901074090140907004050250800405405064090740C02480A0B40
1001
ACAD
1000
AcDbSavedByObjectVersion
1070
     0
  0
ACAD_PROXY_OBJECT
  5
24B5B
102
{ACAD_REACTORS
330
19DE5
102
}
330
19DE5
100
AcDbZombieObject
 90
      499
 91
      510
 93
      532
310
4394DA1859195CC81BD98811DC985E5174090240C333333333333E3BF0000000000000FB01079024090741D01000000000000111010841D405064090740C02480A0340
1001
ACAD
1000
AcDbSavedByObjectVersion
1070
     0
  0
ACAD_PROXY_OBJECT
  5
24B5C
102
{ACAD_REACTORS
330
19DE5
102
}
330
19DE5
100
AcDbZombieObject
 90
      499
 91
      510
 93
      476
310
41D4DAD95D18DA1E51840502408333333333333E3BF0000000000000FB01079024090741D01000000000000111010B41D405064090741802480A0340
1001
ACAD
1000
AcDbSavedByObjectVersion
1070
     0
  0
ACAD_PROXY_OBJECT
  5
19DF2
102
{ACAD_REACTORS
330
19DE5
102
}
330
19DE5
100
AcDbZombieObject
 90
      499
 91
      510
 93
      412
310
41D51A1A58DAD95B90D409028333333333333E3BF0000000000000FB010790141107004050150C41D405064090741402480A0350
1001
ACAD
1000
AcDbSavedByObjectVersion
1070
     0
  0
ACAD_PROXY_OBJECT
  5
24B59
102
{ACAD_REACTORS
330
19DE5
102
}
330
19DE5
100
AcDbZombieObject
 90
      499
 91
      510
 93
      420
310
4255DA5C99599C985B595059028333333333333E3BF0000000000000FB0107901411070040501600405405064090740C02480A0340
1001
ACAD
1000
AcDbSavedByObjectVersion
1070
     0
  0
ACAD_PROXY_OBJECT
  5
24B5D
102
{ACAD_REACTORS
330
19DE5
102
}
330
19DE5
100
AcDbZombieObject
 90
      499
 91
      510
 93
      404
310
41560B54985E51940902404000000000000E03F0000000000000FB010740501907004050150841D405064090740C02480A1B40
1001
ACAD
1000
AcDbSavedByObjectVersion
1070
     0
  0
XRECORD
  5
24D65
102
{ACAD_REACTORS
330
24D64
102
}
330
24D64
100
AcDbXrecord
340
2D0
  0
XRECORD
  5
24D66
102
{ACAD_REACTORS
330
24D64
102
}
330
24D64
100
AcDbXrecord
340
2CF
  0
DICTIONARYVAR
  5
1AC1A
102
{ACAD_REACTORS
330
37
102
}
330
37
100
DictionaryVariables
280
     0
  1
1:1
  0
DICTIONARYVAR
  5
1AC19
102
{ACAD_REACTORS
330
37
102
}
330
37
100
DictionaryVariables
280
     0
  1
Standard
  0
DICTIONARYVAR
  5
4F1
102
{ACAD_REACTORS
330
37
102
}
330
37
100
DictionaryVariables
280
     0
  1
Standard
  0
DICTIONARYVAR
  5
24BDF
102
{ACAD_REACTORS
330
37
102
}
330
37
100
DictionaryVariables
280
     0
  1
Metric50
  0
DICTIONARYVAR
  5
24BE0
102
{ACAD_REACTORS
330
37
102
}
330
37
100
DictionaryVariables
280
     0
  1
Metric50
  0
DICTIONARYVAR
  5
38
102
{ACAD_REACTORS
330
37
102
}
330
37
100
DictionaryVariables
280
     0
  1
-1
  0
DICTIONARYVAR
  5
408
102
{ACAD_REACTORS
330
37
102
}
330
37
100
DictionaryVariables
280
     0
  1
2
  0
DICTIONARYVAR
  5
1891
102
{ACAD_REACTORS
330
37
102
}
330
37
100
DictionaryVariables
280
     0
  1
1
  0
DICTIONARYVAR
  5
1AC1C
102
{ACAD_REACTORS
330
37
102
}
330
37
100
DictionaryVariables
280
     0
  1
0
  0
DICTIONARYVAR
  5
1895
102
{ACAD_REACTORS
330
37
102
}
330
37
100
DictionaryVariables
280
     0
  1
8
  0
DICTIONARYVAR
  5
1894
102
{ACAD_REACTORS
330
37
102
}
330
37
100
DictionaryVariables
280
     0
  1
1
  0
DICTIONARYVAR
  5
24C53
102
{ACAD_REACTORS
330
37
102
}
330
37
100
DictionaryVariables
280
     0
  1
0
  0
DICTIONARYVAR
  5
1892
102
{ACAD_REACTORS
330
37
102
}
330
37
100
DictionaryVariables
280
     0
  1
8
  0
DICTIONARYVAR
  5
1893
102
{ACAD_REACTORS
330
37
102
}
330
37
100
DictionaryVariables
280
     0
  1
2
  0
DICTIONARYVAR
  5
409
102
{ACAD_REACTORS
330
37
102
}
330
37
100
DictionaryVariables
280
     0
  1

  0
DICTIONARYVAR
  5
1AC1B
102
{ACAD_REACTORS
330
37
102
}
330
37
100
DictionaryVariables
280
     0
  1
127
  0
DICTIONARYVAR
  5
24BE1
102
{ACAD_REACTORS
330
37
102
}
330
37
100
DictionaryVariables
280
     0
  1
2
  0
DICTIONARY
  5
24BDD
330
24B64
100
AcDbDictionary
1001
ACAD
1000
TREAT_AS_HARD
1070
     1
  0
DICTIONARY
  5
24D68
330
19DD5
100
AcDbDictionary
  3
ACAD_XREC_ROUNDTRIP
360
24D69
1001
ACAD
1000
TREAT_AS_HARD
1070
     1
  0
DICTIONARY
  5
24D6A
330
19DCD
100
AcDbDictionary
  3
ACAD_XREC_ROUNDTRIP
360
24D6B
1001
ACAD
1000
TREAT_AS_HARD
1070
     1
  0
DICTIONARY
  5
24D6C
330
19DDD
100
AcDbDictionary
  3
ACAD_XREC_ROUNDTRIP
360
24D6D
1001
ACAD
1000
TREAT_AS_HARD
1070
     1
  0
DICTIONARY
  5
24BDB
330
24B62
100
AcDbDictionary
1001
ACAD
1000
TREAT_AS_HARD
1070
     1
  0
XRECORD
  5
24D69
102
{ACAD_REACTORS
330
24D68
102
}
330
24D68
100
AcDbXrecord
102
MATERIAL
148
0.0
149
0.0
149
0.0
 93
        0
 94
      127
282
     0
 72
     0
 77
     0
171
     0
175
     0
179
     0
273
     0
  0
XRECORD
  5
24D6B
102
{ACAD_REACTORS
330
24D6A
102
}
330
24D6A
100
AcDbXrecord
102
MATERIAL
148
0.0
149
0.0
149
0.0
 93
        0
 94
      127
282
     0
 72
     0
 77
     0
171
     0
175
     0
179
     0
273
     0
  0
XRECORD
  5
24D6D
102
{ACAD_REACTORS
330
24D6C
102
}
330
24D6C
100
AcDbXrecord
102
MATERIAL
148
0.0
149
0.0
149
0.0
 93
        0
 94
      127
282
     0
 72
     0
 77
     0
171
     0
175
     0
179
     0
273
     0
  0
ENDSEC
  0
EOF
