  0
SECTION
  2
HEADER
  9
$ACADVER
  1
AC1009
  9
$INSBASE
 10
0.0
 20
0.0
 30
0.0
  9
$EXTMIN
 10
-1831.912809160649
 20
-1064.6949535911119
 30
0.0
  9
$EXTMAX
 10
-1269.949038474284
 20
-701.82541032692063
 30
0.0
  9
$LIMMIN
 10
0.0
 20
0.0
  9
$LIMMAX
 10
420.0
 20
297.0
  9
$ORTHOMODE
 70
     0
  9
$REGENMODE
 70
     1
  9
$FILLMODE
 70
     1
  9
$QTEXTMODE
 70
     0
  9
$MIRRTEXT
 70
     0
  9
$DRAGMODE
 70
     2
  9
$LTSCALE
 40
0.5
  9
$OSMODE
 70
  2175
  9
$ATTMODE
 70
     1
  9
$TEXTSIZE
 40
4.0
  9
$TRACEWID
 40
1.0
  9
$TEXTSTYLE
  7
STANDARD
  9
$CLAYER
  8
1TEXT
  9
$CELTYPE
  6
BYLAYER
  9
$CECOLOR
 62
   256
  9
$DIMSCALE
 40
1.0
  9
$DIMASZ
 40
2.0
  9
$DIMEXO
 40
0.0
  9
$DIMDLI
 40
7.0
  9
$DIMRND
 40
0.0
  9
$DIMDLE
 40
0.0
  9
$DIMEXE
 40
1.0
  9
$DIMTP
 40
0.0
  9
$DIMTM
 40
0.0
  9
$DIMTXT
 40
3.5
  9
$DIMCEN
 40
0.0
  9
$DIMTSZ
 40
0.0
  9
$DIMTOL
 70
     0
  9
$DIMLIM
 70
     0
  9
$DIMTIH
 70
     0
  9
$DIMTOH
 70
     0
  9
$DIMSE1
 70
     0
  9
$DIMSE2
 70
     0
  9
$DIMTAD
 70
     1
  9
$DIMZIN
 70
     8
  9
$DIMBLK
  1

  9
$DIMASO
 70
     1
  9
$DIMSHO
 70
     1
  9
$DIMPOST
  1
 
  9
$DIMAPOST
  1

  9
$DIMALT
 70
     0
  9
$DIMALTD
 70
     2
  9
$DIMALTF
 40
25.399999999999999
  9
$DIMLFAC
 40
1.0
  9
$DIMTOFL
 70
     1
  9
$DIMTVP
 40
0.0
  9
$DIMTIX
 70
     0
  9
$DIMSOXD
 70
     0
  9
$DIMSAH
 70
     1
  9
$DIMBLK1
  1
OPEN30
  9
$DIMBLK2
  1
OPEN30
  9
$DIMSTYLE
  2
NEWX10
  9
$DIMCLRD
 70
   256
  9
$DIMCLRE
 70
   256
  9
$DIMCLRT
 70
   201
  9
$DIMTFAC
 40
0.7
  9
$DIMGAP
 40
0.7
  9
$LUNITS
 70
     2
  9
$LUPREC
 70
     4
  9
$SKETCHINC
 40
1.0
  9
$FILLETRAD
 40
0.0
  9
$AUNITS
 70
     0
  9
$AUPREC
 70
     2
  9
$MENU
  1
acad
  9
$ELEVATION
 40
0.0
  9
$PELEVATION
 40
0.0
  9
$THICKNESS
 40
0.0
  9
$LIMCHECK
 70
     0
  9
$BLIPMODE
 70
     0
  9
$CHAMFERA
 40
10.0
  9
$CHAMFERB
 40
10.0
  9
$SKPOLY
 70
     0
  9
$TDCREATE
 40
2453033.7326634838
  9
$TDUPDATE
 40
2454049.7607830558
  9
$TDINDWG
 40
1.6711385764
  9
$TDUSRTIMER
 40
1.6711385764
  9
$USRTIMER
 70
     1
  9
$ANGBASE
 50
0.0
  9
$ANGDIR
 70
     0
  9
$PDMODE
 70
     0
  9
$PDSIZE
 40
0.0
  9
$PLINEWID
 40
0.0
  9
$COORDS
 70
     2
  9
$SPLFRAME
 70
     0
  9
$SPLINETYPE
 70
     6
  9
$SPLINESEGS
 70
     8
  9
$ATTDIA
 70
     0
  9
$ATTREQ
 70
     1
  9
$HANDLING
 70
     1
  9
$HANDSEED
  5
18874
  9
$SURFTAB1
 70
     6
  9
$SURFTAB2
 70
     6
  9
$SURFTYPE
 70
     6
  9
$SURFU
 70
     6
  9
$SURFV
 70
     6
  9
$UCSNAME
  2

  9
$UCSORG
 10
0.0
 20
0.0
 30
0.0
  9
$UCSXDIR
 10
1.0
 20
0.0
 30
0.0
  9
$UCSYDIR
 10
0.0
 20
1.0
 30
0.0
  9
$PUCSNAME
  2

  9
$PUCSORG
 10
0.0
 20
0.0
 30
0.0
  9
$PUCSXDIR
 10
1.0
 20
0.0
 30
0.0
  9
$PUCSYDIR
 10
0.0
 20
1.0
 30
0.0
  9
$USERI1
 70
     0
  9
$USERI2
 70
     0
  9
$USERI3
 70
     0
  9
$USERI4
 70
     0
  9
$USERI5
 70
     0
  9
$USERR1
 40
0.0
  9
$USERR2
 40
0.0
  9
$USERR3
 40
0.0
  9
$USERR4
 40
0.0
  9
$USERR5
 40
0.0
  9
$WORLDVIEW
 70
     1
  9
$SHADEDGE
 70
     3
  9
$SHADEDIF
 70
    70
  9
$TILEMODE
 70
     1
  9
$MAXACTVP
 70
    48
  9
$PLIMCHECK
 70
     0
  9
$PEXTMIN
 10
1.0000000000000000E+020
 20
1.0000000000000000E+020
 30
1.0000000000000000E+020
  9
$PEXTMAX
 10
-1.0000000000000000E+020
 20
-1.0000000000000000E+020
 30
-1.0000000000000000E+020
  9
$PLIMMIN
 10
0.0
 20
0.0
  9
$PLIMMAX
 10
420.0
 20
297.0
  9
$UNITMODE
 70
     0
  9
$VISRETAIN
 70
     1
  9
$PLINEGEN
 70
     0
  9
$PSLTSCALE
 70
     1
  0
ENDSEC
  0
SECTION
  2
TABLES
  0
TABLE
  2
VPORT
 70
     4
  0
VPORT
  2
*ACTIVE
 70
     0
 10
0.0
 20
0.0
 11
1.0
 21
1.0
 12
-1550.9047642316641
 22
-883.2422833123569
 13
0.0
 23
0.0
 14
10.0
 24
10.0
 15
10.0
 25
10.0
 16
0.0
 26
0.0
 36
1.0
 17
0.0
 27
0.0
 37
0.0
 40
394.47952846278997
 41
1.508086253369272
 42
50.0
 43
0.0
 44
0.0
 50
0.0
 51
0.0
 71
     0
 72
   100
 73
     1
 74
     1
 75
     0
 76
     0
 77
     0
 78
     0
  0
ENDTAB
  0
TABLE
  2
LTYPE
 70
    14
  0
LTYPE
  2
CONTINUOUS
 70
     0
  3
Solid line
 72
    65
 73
     0
 40
0.0
  0
LTYPE
  2
XREF1|CENTER2
 70
    48
  3
Center (.5x) ___ _ ___ _ ___ _ ___ _ ___ _ ___
 72
    65
 73
     4
 40
28.574999999999999
 49
19.050000000000001
 49
-3.1749999999999989
 49
3.1749999999999989
 49
-3.1749999999999989
  0
LTYPE
  2
PHANTOM2
 70
     0
  3
Phantom (.5x) ___ _ _ ___ _ _ ___ _ _ ___ _ _
 72
    65
 73
     6
 40
31.75
 49
15.875
 49
-3.1749999999999989
 49
3.1749999999999989
 49
-3.1749999999999989
 49
3.1749999999999989
 49
-3.1749999999999989
  0
LTYPE
  2
A3WAKUDAKE|CENTER2
 70
    48
  3
Center (.5x) ___ _ ___ _ ___ _ ___ _ ___ _ ___
 72
    65
 73
     4
 40
28.574999999999999
 49
19.050000000000001
 49
-3.1749999999999989
 49
3.1749999999999989
 49
-3.1749999999999989
  0
LTYPE
  2
CENTER2
 70
     0
  3
Center (.5x) ___ _ ___ _ ___ _ ___ _ ___ _ ___
 72
    65
 73
     4
 40
28.574999999999999
 49
19.050000000000001
 49
-3.1749999999999989
 49
3.1749999999999989
 49
-3.1749999999999989
  0
ENDTAB
  0
TABLE
  2
LAYER
 70
    41
  0
LAYER
  2
0
 70
     0
 62
     7
  6
CONTINUOUS
  0
LAYER
  2
1CENTER
 70
     0
 62
     7
  6
CENTER2
  0
LAYER
  2
1TEXT
 70
     0
 62
     7
  6
CONTINUOUS
  0
LAYER
  2
1DIM
 70
     0
 62
     7
  6
CONTINUOUS
  0
LAYER
  2
1PHANTOM
 70
     0
 62
     7
  6
PHANTOM2
  0
LAYER
  2
01
 70
     0
 62
     1
  6
CONTINUOUS
  0
LAYER
  2
1HATCH
 70
     0
 62
     7
  6
CONTINUOUS
  0
LAYER
  2
XREF1|1CENTER
 70
    48
 62
     7
  6
XREF1|CENTER2
  0
LAYER
  2
A3WAKUDAKE|THICK
 70
    48
 62
     7
  6
CONTINUOUS
  0
LAYER
  2
A3WAKUDAKE|POINT
 70
    48
 62
     7
  6
CONTINUOUS
  0
LAYER
  2
A3WAKUDAKE|1CENTER
 70
    48
 62
     7
  6
A3WAKUDAKE|CENTER2
  0
LAYER
  2
A3WAKUDAKE|0-6
 70
    48
 62
     7
  6
CONTINUOUS
  0
LAYER
  2
A3WAKUDAKE|1DIM
 70
    48
 62
     7
  6
CONTINUOUS
  0
ENDTAB
  0
TABLE
  2
STYLE
 70
    20
  0
STYLE
  2
STANDARD
 70
     0
 40
0.0
 41
1.0
 50
0.0
 71
     0
 42
4.0
  3
txt.shx
  4
extfont.shx
  0
ENDTAB
  0
TABLE
  2
VIEW
 70
     0
  0
ENDTAB
  0
TABLE
  2
UCS
 70
     0
  0
ENDTAB
  0
TABLE
  2
APPID
 70
     9
  0
APPID
  2
ACAD
 70
     0
  0
APPID
  2
DRAWINGVARIABLESXDATA
 70
     0
  0
APPID
  2
CONTENTTABDATA
 70
     0
  0
APPID
  2
CONTENTCURRENTTAB
 70
     0
  0
APPID
  2
CONTENTBLOCKDESCRIPTION
 70
     0
  0
APPID
  2
CONTENTBLOCKICON
 70
     0
  0
APPID
  2
CONTENTLONGBLOCKNAME
 70
     0
  0
APPID
  2
ACAD_PSEXT
 70
     0
  0
APPID
  2
ACAD_DSTYLE_DIMTEXT_FILL
 70
     0
  0
ENDTAB
  0
TABLE
  2
DIMSTYLE
 70
     5
  0
DIMSTYLE
  2
NEWX10
 70
     0
  3
 
  4

  5

  6
OPEN30
  7
OPEN30
 40
1.0
 41
2.0
 42
0.0
 43
7.0
 44
1.0
 45
0.0
 46
0.0
 47
0.0
 48
0.0
140
3.5
141
0.0
142
0.0
143
25.399999999999999
144
1.0
145
0.0
146
0.7
147
0.7
 71
     0
 72
     0
 73
     0
 74
     0
 75
     0
 76
     0
 77
     1
 78
     8
170
     0
171
     2
172
     1
173
     1
174
     0
175
     0
176
   256
177
   256
178
   201
  0
ENDTAB
  0
ENDSEC
  0
SECTION
  2
BLOCKS
  0
BLOCK
  8
0
  2
$MODEL_SPACE
 70
     0
 10
0.0
 20
0.0
 30
0.0
  3
$MODEL_SPACE
  1

  0
ENDBLK
  5
1A
  8
0
  0
BLOCK
 67
     1
  8
0
  2
$PAPER_SPACE
 70
     0
 10
0.0
 20
0.0
 30
0.0
  3
$PAPER_SPACE
  1

  0
ENDBLK
  5
17
 67
     1
  8
0
  0
BLOCK
  8
0
  2
_OPEN30
 70
     0
 10
0.0
 20
0.0
 30
0.0
  3
_OPEN30
  1

  0
LINE
  5
44
  8
0
  6
BYBLOCK
 62
     0
 10
-1.0
 20
0.26794919
 30
0.0
 11
0.0
 21
0.0
 31
0.0
  0
LINE
  5
45
  8
0
  6
BYBLOCK
 62
     0
 10
0.0
 20
0.0
 30
0.0
 11
-1.0
 21
-0.26794919
 31
0.0
  0
LINE
  5
46
  8
0
  6
BYBLOCK
 62
     0
 10
0.0
 20
0.0
 30
0.0
 11
-1.0
 21
0.0
 31
0.0
  0
ENDBLK
  5
47
  8
0
  0
BLOCK
  8
0
  2
XREF1
 70
    36
 10
0.0
 20
0.0
 30
0.0
  3
XREF1
  1
D:\ACLT\FORMAT\KAWAJUN(9)図面用.dwg
  0
ENDBLK
  5
5D
  8
0
  0
BLOCK
  8
0
  2
A3WAKUDAKE
 70
    36
 10
0.0
 20
0.0
 30
0.0
  3
A3WAKUDAKE
  1
D:\ACLT\FORMAT\A3WAKUdake.dwg
  0
ENDBLK
  5
6DC
  8
0
  0
BLOCK
  8
0
  2
*U13
 70
     1
 10
0.0
 20
0.0
 30
0.0
  3
*U13
  1

  0
TEXT
  5
18859
  8
1DIM
 62
   201
 10
-1675.2522752547161
 20
-870.21632870410679
 30
0.0
 40
3.5
  1
320 
  0
ENDBLK
  5
1885B
  8
0
  0
BLOCK
  8
0
  2
*U14
 70
     1
 10
0.0
 20
0.0
 30
0.0
  3
*U14
  1

  0
TEXT
  5
1885D
  8
1DIM
 62
   201
 10
-1597.6689445651391
 20
-971.73565442515314
 30
0.0
 40
3.5
  1
130 
  0
ENDBLK
  5
1885F
  8
0
  0
BLOCK
  8
0
  2
*U15
 70
     1
 10
0.0
 20
0.0
 30
0.0
  3
*U15
  1

  0
TEXT
  5
18861
  8
1DIM
 62
   201
 10
-1673.7939419213831
 20
-1005.1879226150739
 30
0.0
 40
3.5
  1
88 
  0
ENDBLK
  5
18863
  8
0
  0
BLOCK
  8
0
  2
*U16
 70
     1
 10
0.0
 20
0.0
 30
0.0
  3
*U16
  1

  0
TEXT
  5
18865
  8
1DIM
 62
   201
 10
-1281.649038474284
 20
-921.52605433856775
 30
0.0
 40
3.5
  1
17 
 50
90.0
  0
ENDBLK
  5
18867
  8
0
  0
BLOCK
  8
0
  2
*U17
 70
     1
 10
0.0
 20
0.0
 30
0.0
  3
*U17
  1

  0
TEXT
  5
18869
  8
1DIM
 62
   201
 10
-1271.649038474284
 20
-933.54272051941382
 30
0.0
 40
3.5
  1
35.2 
 50
90.0
  0
ENDBLK
  5
1886B
  8
0
  0
BLOCK
  8
0
  2
*U18
 70
     1
 10
0.0
 20
0.0
 30
0.0
  3
*U18
  1

  0
TEXT
  5
1886D
  8
1DIM
 62
   201
 10
-1386.493096533309
 20
-882.12523958275756
 30
0.0
 40
3.5
  1
123 
  0
ENDBLK
  5
1886F
  8
0
  0
BLOCK
  8
0
  2
*U19
 70
     1
 10
0.0
 20
0.0
 30
0.0
  3
*U19
  1

  0
TEXT
  5
18871
  8
1DIM
 62
   201
 10
-1330.782371807617
 20
-959.57379517606182
 30
0.0
 40
3.5
  1
15 
  0
ENDBLK
  5
18873
  8
0
  0
ENDSEC
  0
SECTION
  2
ENTITIES
  0
ARC
  5
17EA7
  8
01
 10
-1350.4490370318081
 20
-911.19271782415274
 30
0.0
 40
0.5
 50
89.999994991036544
 51
179.99999499103649
  0
LINE
  5
17EA8
  8
01
 10
-1320.949040065379
 20
-945.89272064444481
 30
0.0
 11
-1320.9490369880971
 21
-910.69272040312467
 31
0.0
  0
LINE
  5
17EA9
  8
01
 10
-1320.9490369880971
 20
-910.69272040312467
 30
0.0
 11
-1350.4490369880971
 21
-910.69271782415285
 31
0.0
  0
LINE
  5
17EAA
  8
01
 10
-1350.9490370318081
 20
-911.1927177804414
 30
0.0
 11
-1350.949037206653
 21
-913.19271778044128
 31
0.0
  0
ARC
  5
17EAB
  8
01
 10
-1350.449037206653
 20
-913.19271782415285
 30
0.0
 40
0.5
 50
179.99999499103649
 51
269.99999499104962
  0
LINE
  5
17EAD
  8
01
 10
-1324.8704896249469
 20
-913.69272006029996
 30
0.0
 11
-1350.4490372503651
 21
-913.69271782415285
 31
0.0
  0
ARC
  5
17EB0
  8
01
 10
-1795.3772752547161
 20
-757.75620524422357
 30
0.0
 40
0.5
 50
180.0
 51
270.0
  0
LINE
  5
17EB1
  8
01
 10
-1795.8772752547161
 20
-728.25620524422357
 30
0.0
 11
-1795.8772752547161
 21
-757.75620524422357
 31
0.0
  0
LINE
  5
17EB2
  8
01
 10
-1795.3772752547161
 20
-758.25620524422357
 30
0.0
 11
-1546.3772752547161
 21
-758.25620524422357
 31
0.0
  0
ARC
  5
17EB3
  8
01
 10
-1546.3772752547161
 20
-757.75620524422357
 30
0.0
 40
0.5
 50
270.0
 51
0.0
  0
LINE
  5
17EB4
  8
01
 10
-1545.8772752547161
 20
-728.25620524422357
 30
0.0
 11
-1795.8772752547161
 21
-728.25620524422357
 31
0.0
  0
LINE
  5
17EB5
  8
01
 10
-1545.8772752547161
 20
-757.75620524422357
 30
0.0
 11
-1545.8772752547161
 21
-728.25620524422357
 31
0.0
  0
LINE
  5
17EE3
  8
01
 10
-1320.949040065379
 20
-945.89272064444481
 30
0.0
 11
-1343.870497314005
 21
-945.89271964251611
 31
0.0
  0
LINE
  5
17EE7
  8
01
 10
-1333.92074912007
 20
-934.84249510155155
 30
0.0
 11
-1386.1466504927321
 21
-987.06838734274766
 31
0.0
  0
LINE
  5
17EEA
  8
01
 10
-1344.9710026178079
 20
-945.89274666720189
 30
0.0
 11
-1343.870497554419
 21
-945.89274676341097
 31
0.0
  0
ARC
  5
17EEB
  8
01
 10
-1338.870496155655
 20
-929.89274720052492
 30
0.0
 40
7.0
 50
314.99999499104342
 51
134.9999949910497
  0
LINE
  5
17EEC
  8
01
 10
-1343.82024319124
 20
-924.94299929949852
 30
0.0
 11
-1396.0461445639021
 21
-977.16889154069452
 31
0.0
  0
ARC
  5
17EF3
  8
01
 10
-1350.1842020319559
 20
-941.20645832219327
 30
0.0
 40
7.0
 50
134.99999999999571
 51
314.99999999999579
  0
LINE
  5
17EFA
  8
01
 10
-1337.6990379548899
 20
-922.69271923131942
 30
0.0
 11
-1337.8704953950751
 21
-922.69271921633015
 31
0.0
  0
LINE
  5
17F09
  8
01
 10
-1338.5704953950751
 20
-922.69271915513411
 30
0.0
 11
-1337.8704953950751
 21
-922.69271921633015
 31
0.0
  0
LINE
  5
17F17
  8
01
 10
-1324.87048971237
 20
-914.69271952231031
 30
0.0
 11
-1442.8704897123689
 21
-914.69271952231054
 31
0.0
  0
LINE
  5
17F19
  8
01
 10
-1320.9490380371701
 20
-922.69271952231054
 30
0.0
 11
-1442.8704897123689
 21
-922.69271952231054
 31
0.0
  0
LINE
  5
17F1A
  8
01
 10
-1323.8704897123689
 20
-914.69272006029996
 30
0.0
 11
-1323.8704897123689
 21
-921.69271952231054
 31
0.0
  0
LINE
  5
17F1B
  8
01
 10
-1443.8704897123689
 20
-921.69271952231054
 30
0.0
 11
-1443.8704897123689
 21
-915.69271952231043
 31
0.0
  0
LINE
  5
17F1C
  8
01
 10
-1324.87048971237
 20
-914.69271952231031
 30
0.0
 11
-1323.8704897123689
 21
-915.69271952231043
 31
0.0
  0
LINE
  5
17F1D
  8
01
 10
-1323.8704897123689
 20
-921.69271952231054
 30
0.0
 11
-1324.8704897123689
 21
-922.69271952231054
 31
0.0
  0
LINE
  5
17F1E
  8
01
 10
-1443.8704897123689
 20
-921.69271952231054
 30
0.0
 11
-1442.8704897123689
 21
-922.69271952231054
 31
0.0
  0
LINE
  5
17F1F
  8
01
 10
-1443.8704897123689
 20
-915.69271952231043
 30
0.0
 11
-1442.8704897123689
 21
-914.69271952231054
 31
0.0
  0
LINE
  5
17F32
  8
01
 10
-1730.8772752547161
 20
-922.89276253468745
 30
0.0
 11
-1610.8772752547161
 21
-922.89276253468745
 31
0.0
  0
LINE
  5
17F37
  8
01
 10
-1745.877275016298
 20
-925.29656825606878
 30
0.0
 11
-1745.877275016298
 21
-936.61027626051566
 31
0.0
  0
LINE
  5
17F38
  8
01
 10
-1745.877275016298
 20
-925.29656825606878
 30
0.0
 11
-1745.877275016298
 21
-923.39276253468745
 31
0.0
  0
LINE
  5
17F39
  8
01
 10
-1745.877275016298
 20
-942.45558536777799
 30
0.0
 11
-1745.877275016298
 21
-936.61027626051566
 31
0.0
  0
LINE
  5
17F3D
  8
01
 10
-1595.877275016298
 20
-925.29656825606878
 30
0.0
 11
-1595.877275016298
 21
-942.45558536777776
 31
0.0
  0
LINE
  5
17F3E
  8
01
 10
-1595.877275016298
 20
-925.29656825606878
 30
0.0
 11
-1595.877275016298
 21
-923.39276253468745
 31
0.0
  0
LINE
  5
17F3F
  8
01
 10
-1663.8772752547161
 20
-939.25602745593085
 30
0.0
 11
-1663.8772752547161
 21
-993.66840930719968
 31
0.0
  0
LINE
  5
17F42
  8
01
 10
-1677.8772752547161
 20
-939.25602745593085
 30
0.0
 11
-1677.8772752547161
 21
-993.66840930719945
 31
0.0
  0
ARC
  5
17F44
  8
01
 10
-1596.377275016298
 20
-923.39276253468745
 30
0.0
 40
0.5
 50
0.0
 51
90.0
  0
ARC
  5
17F47
  8
01
 10
-1745.377275016298
 20
-923.39276253468745
 30
0.0
 40
0.5
 50
90.0
 51
180.0
  0
ARC
  5
17F48
  8
01
 10
-1677.3772752547161
 20
-993.66840930719945
 30
0.0
 40
0.5
 50
180.0
 51
270.0
  0
ARC
  5
17F49
  8
01
 10
-1678.3772752547161
 20
-948.7064705391341
 30
0.0
 40
0.5
 50
0.0
 51
90.0
  0
ARC
  5
17F4A
  8
01
 10
-1663.3772752547161
 20
-948.7064705391341
 30
0.0
 40
0.5
 50
90.0
 51
180.0
  0
ARC
  5
17F4B
  8
01
 10
-1664.3772752547161
 20
-993.66840930719945
 30
0.0
 40
0.5
 50
270.0
 51
0.0
  0
LINE
  5
17F4C
  8
01
 10
-1677.3772752547161
 20
-994.16840930719957
 30
0.0
 11
-1664.3772752547161
 21
-994.16840930719957
 31
0.0
  0
LINE
  5
17F4E
  8
01
 10
-1682.8772726109601
 20
-948.20647053913422
 30
0.0
 11
-1678.3772752547161
 21
-948.20647053913422
 31
0.0
  0
LINE
  5
17F4F
  8
01
 10
-1663.3772752547161
 20
-948.20647053913422
 30
0.0
 11
-1658.8772778984719
 21
-948.20647053913422
 31
0.0
  0
LINE
  5
17F50
  8
01
 10
-1745.377275016298
 20
-922.89276253468745
 30
0.0
 11
-1730.8772752547161
 21
-922.89276253468745
 31
0.0
  0
LINE
  5
17F51
  8
01
 10
-1610.8772752547161
 20
-922.89276253468745
 30
0.0
 11
-1596.377275016298
 21
-922.89276253468745
 31
0.0
  0
LINE
  5
17F5F
  8
01
 10
-1830.8772752547161
 20
-915.69272210128213
 30
0.0
 11
-1510.8772752547161
 21
-915.69272210128213
 31
0.0
  0
LINE
  5
17F60
  8
01
 10
-1829.8772752547161
 20
-914.69272210128224
 30
0.0
 11
-1511.8772752547161
 21
-914.69272210128224
 31
0.0
  0
LINE
  5
17F61
  8
01
 10
-1830.877275254717
 20
-921.69272210128224
 30
0.0
 11
-1510.8772752547161
 21
-921.69272210128224
 31
0.0
  0
LINE
  5
17F62
  8
01
 10
-1829.8772752547161
 20
-922.69272210128224
 30
0.0
 11
-1511.8772752547161
 21
-922.69272210128224
 31
0.0
  0
LINE
  5
17F63
  8
01
 10
-1829.8772752547161
 20
-914.69272210128224
 30
0.0
 11
-1830.877275254717
 21
-915.69272210128213
 31
0.0
  0
LINE
  5
17F64
  8
01
 10
-1510.8772752547161
 20
-915.69272210128213
 30
0.0
 11
-1511.8772752547161
 21
-914.69272210128224
 31
0.0
  0
LINE
  5
17F65
  8
01
 10
-1830.877275254717
 20
-921.69272210128224
 30
0.0
 11
-1830.8772752547161
 21
-915.69272210128213
 31
0.0
  0
LINE
  5
17F66
  8
01
 10
-1829.8772752547161
 20
-922.69272210128224
 30
0.0
 11
-1830.877275254717
 21
-921.69272210128224
 31
0.0
  0
LINE
  5
17F67
  8
01
 10
-1510.8772752547161
 20
-921.69272210128224
 30
0.0
 11
-1510.8772752547161
 21
-915.69272210128213
 31
0.0
  0
LINE
  5
17F68
  8
01
 10
-1510.8772752547161
 20
-921.69272210128224
 30
0.0
 11
-1511.8772752547161
 21
-922.69272210128224
 31
0.0
  0
ARC
  5
17F69
  8
01
 10
-1546.3772752547161
 20
-911.19272040312455
 30
0.0
 40
0.5
 50
0.0
 51
90.0
  0
LINE
  5
17F6A
  8
01
 10
-1795.3772752547161
 20
-910.69272040312467
 30
0.0
 11
-1546.3772752547161
 21
-910.69272040312467
 31
0.0
  0
ARC
  5
17F6B
  8
01
 10
-1795.3772752547161
 20
-911.19272040312455
 30
0.0
 40
0.5
 50
90.0
 51
180.0
  0
LINE
  5
17F6C
  8
01
 10
-1546.3772752547161
 20
-913.69272040312467
 30
0.0
 11
-1546.177275266637
 21
-913.69272040312467
 31
0.0
  0
LINE
  5
17F6D
  8
01
 10
-1795.3772752547161
 20
-913.69272040312467
 30
0.0
 11
-1546.3772752547161
 21
-913.69272040312467
 31
0.0
  0
LINE
  5
17F6E
  8
01
 10
-1795.3772752547161
 20
-913.69272040312467
 30
0.0
 11
-1795.5772752427949
 21
-913.69272040312467
 31
0.0
  0
LINE
  5
17F6F
  8
01
 10
-1795.8772752547161
 20
-914.68137590687274
 30
0.0
 11
-1795.8772752547161
 21
-913.39272039120374
 31
0.0
  0
LINE
  5
17F70
  8
01
 10
-1795.8772752547161
 20
-914.69272210128224
 30
0.0
 11
-1795.8772752547161
 21
-914.68137590687286
 31
0.0
  0
LINE
  5
17F71
  8
01
 10
-1545.8772752547161
 20
-914.68137590687274
 30
0.0
 11
-1545.8772752547161
 21
-914.69272210128224
 31
0.0
  0
LINE
  5
17F72
  8
01
 10
-1545.8772752547161
 20
-914.68137590687274
 30
0.0
 11
-1545.8772752547161
 21
-913.39272039120374
 31
0.0
  0
LINE
  5
17F73
  8
01
 10
-1545.8772752547161
 20
-913.39272039120374
 30
0.0
 11
-1545.8772752547161
 21
-911.19272040312455
 31
0.0
  0
ARC
  5
17F74
  8
01
 10
-1546.177275266637
 20
-913.39272039120374
 30
0.0
 40
0.3000000119209289
 50
270.0
 51
0.0
  0
LINE
  5
17F75
  8
01
 10
-1795.8772752547161
 20
-913.39272039120374
 30
0.0
 11
-1795.8772752547161
 21
-911.19272040312455
 31
0.0
  0
ARC
  5
17F76
  8
01
 10
-1795.5772752427949
 20
-913.39272039120374
 30
0.0
 40
0.3000000119209289
 50
180.0
 51
270.0
  0
CIRCLE
  5
17F77
  8
01
 10
-1396.146150438962
 20
-987.1683914694388
 30
0.0
 40
10.0
  0
LINE
  5
17F80
  8
01
 10
-1663.8772752547161
 20
-992.16839404841085
 30
0.0
 11
-1528.877275254717
 21
-992.16839404841357
 31
0.0
  0
LINE
  5
17F82
  8
01
 10
-1663.8772752547161
 20
-982.16839404841039
 30
0.0
 11
-1528.877275254717
 21
-982.16839404840812
 31
0.0
  0
LINE
  5
17F9A
  8
01
 10
-1677.8772752547161
 20
-982.16839404841039
 30
0.0
 11
-1812.8772752547161
 21
-982.16839404840937
 31
0.0
  0
LINE
  5
17F9B
  8
01
 10
-1677.8772752547161
 20
-992.16839404841016
 30
0.0
 11
-1812.8772752547161
 21
-992.16839404841608
 31
0.0
  0
LINE
  5
17FA5
  8
01
 10
-1594.8772778984719
 20
-936.70644787666356
 30
0.0
 11
-1594.8772778984719
 21
-936.20644787666345
 31
0.0
  0
LINE
  5
17FC0
  8
01
 10
-1594.8772778984719
 20
-936.55019414534388
 30
0.0
 11
-1594.8772778984719
 21
-936.70644787666356
 31
0.0
  0
LINE
  5
17FDA
  8
01
 10
-1594.8772778984719
 20
-936.55019414534388
 30
0.0
 11
-1594.8772778984719
 21
-936.05019414534399
 31
0.0
  0
LINE
  5
17FE3
  8
01
 10
-1528.8772778984719
 20
-934.05644787666347
 30
0.0
 11
-1595.877275016298
 21
-934.05644787666347
 31
0.0
  0
LINE
  5
17FE5
  8
01
 10
-1528.8772778984719
 20
-956.16773181808674
 30
0.0
 11
-1528.8772778984719
 21
-934.05644787666347
 31
0.0
  0
LINE
  5
17FEA
  8
01
 10
-1594.8772778984719
 20
-942.45558536777799
 30
0.0
 11
-1594.8772778984719
 21
-934.05644787666347
 31
0.0
  0
ARC
  5
17FEE
  8
01
 10
-1319.532904766487
 20
-1434.1043320055101
 30
0.0
 40
501.0
 50
93.842608314877452
 51
99.679206060826345
  0
ARC
  5
17FEF
  8
01
 10
-1319.532904766487
 20
-1434.1043320055101
 30
0.0
 40
500.0
 50
93.973873932415415
 51
99.679206060826345
  0
LINE
  5
17FF0
  8
01
 10
-1435.9913113977859
 20
-959.16773181808628
 30
0.0
 11
-1436.737882129851
 21
-958.50242576669075
 31
0.0
  0
ARC
  5
17FF1
  8
01
 10
-1394.1833503997691
 20
-996.42487056511766
 30
0.0
 40
56.0
 50
99.679206060826345
 51
135.223304165017
  0
ARC
  5
17FF3
  8
01
 10
-1394.1833503997691
 20
-996.42487056511766
 30
0.0
 40
57.0
 50
99.679206060826345
 51
135.27722962398241
  0
ARC
  5
17FF5
  8
01
 10
-1394.1812904268179
 20
-996.42680374791837
 30
0.0
 40
57.002823988304499
 50
135.27730600557749
 51
138.29411787571999
  0
ARC
  5
17FF6
  8
01
 10
-1394.1813254804979
 20
-996.42677264685108
 30
0.0
 40
56.002777126525622
 50
135.22338195686501
 51
138.29411646719441
  0
LINE
  5
17FF9
  8
01
 10
-1531.8772778984719
 20
-959.16773181808685
 30
0.0
 11
-1655.8772778984719
 21
-959.16773181808685
 31
0.0
  0
LINE
  5
17FFC
  8
01
 10
-1812.8772726109601
 20
-934.05644787666347
 30
0.0
 11
-1745.877275016298
 21
-934.05644787666347
 31
0.0
  0
LINE
  5
17FFD
  8
01
 10
-1812.8772726109601
 20
-956.16773181808674
 30
0.0
 11
-1812.8772726109601
 21
-934.05644787666347
 31
0.0
  0
ARC
  5
17FFF
  8
01
 10
-1809.8772726109601
 20
-956.16773181808674
 30
0.0
 40
3.0
 50
180.0
 51
270.0
  0
LINE
  5
18000
  8
01
 10
-1746.8772726109601
 20
-942.45558536777799
 30
0.0
 11
-1746.8772726109601
 21
-934.05644787666347
 31
0.0
  0
LINE
  5
18001
  8
01
 10
-1809.8772726109601
 20
-959.16773181808685
 30
0.0
 11
-1685.8772726109601
 21
-959.16773181808685
 31
0.0
  0
ARC
  5
18002
  8
01
 10
-1685.8772726109601
 20
-956.16773181808674
 30
0.0
 40
3.0
 50
270.0
 51
0.0
  0
LINE
  5
18003
  8
01
 10
-1746.8772726109601
 20
-942.45558536777799
 30
0.0
 11
-1682.8772726109601
 21
-942.45558536777776
 31
0.0
  0
LINE
  5
1802B
  8
01
 10
-1825.8772752547161
 20
-851.25620524422345
 30
0.0
 11
-1515.8772752547161
 21
-851.25620524422345
 31
0.0
  0
LINE
  5
1802C
  8
01
 10
-1825.8772752547161
 20
-850.2562052879349
 30
0.0
 11
-1515.8772752547161
 21
-850.2562052879349
 31
0.0
  0
ARC
  5
1802D
  8
01
 10
-1825.8772752547161
 20
-846.25620524422345
 30
0.0
 40
5.0
 50
180.0
 51
270.0
  0
ARC
  5
1802E
  8
01
 10
-1825.8772752547161
 20
-846.2562052879349
 30
0.0
 40
4.0
 50
180.0
 51
270.0
  0
LINE
  5
1802F
  8
01
 10
-1830.8772752547161
 20
-736.25620524422357
 30
0.0
 11
-1830.8772752547161
 21
-846.25620524422345
 31
0.0
  0
LINE
  5
18030
  8
01
 10
-1829.8772752547161
 20
-736.25620528793502
 30
0.0
 11
-1829.8772752547161
 21
-846.2562052879349
 31
0.0
  0
ARC
  5
18031
  8
01
 10
-1825.8772752547161
 20
-736.25620524422357
 30
0.0
 40
5.0
 50
90.0
 51
180.0
  0
ARC
  5
18032
  8
01
 10
-1825.8772752547161
 20
-736.25620528793502
 30
0.0
 40
4.0
 50
90.0
 51
180.0
  0
LINE
  5
18033
  8
01
 10
-1515.8772752547161
 20
-731.25620524422368
 30
0.0
 11
-1545.8772752547161
 21
-731.25620524422368
 31
0.0
  0
LINE
  5
18034
  8
01
 10
-1795.8772752547161
 20
-731.25620524422368
 30
0.0
 11
-1825.8772752547161
 21
-731.25620524422368
 31
0.0
  0
LINE
  5
18035
  8
01
 10
-1515.8772752547161
 20
-732.25620528793502
 30
0.0
 11
-1545.8772752547161
 21
-732.25620528793513
 31
0.0
  0
LINE
  5
18036
  8
01
 10
-1795.8772752547161
 20
-732.25620528793513
 30
0.0
 11
-1825.8772752547161
 21
-732.25620528793502
 31
0.0
  0
ARC
  5
18037
  8
01
 10
-1515.8772752547161
 20
-736.25620524422357
 30
0.0
 40
5.0
 50
0.0
 51
90.0
  0
ARC
  5
18038
  8
01
 10
-1515.8772752547161
 20
-736.25620528793502
 30
0.0
 40
4.0
 50
0.0
 51
90.0
  0
LINE
  5
18039
  8
01
 10
-1510.8772752547161
 20
-846.25620524422345
 30
0.0
 11
-1510.8772752547161
 21
-736.25620524422357
 31
0.0
  0
LINE
  5
1803A
  8
01
 10
-1511.8772752547161
 20
-846.2562052879349
 30
0.0
 11
-1511.8772752547161
 21
-736.25620528793502
 31
0.0
  0
ARC
  5
1803B
  8
01
 10
-1515.8772752547161
 20
-846.25620524422345
 30
0.0
 40
5.0
 50
270.0
 51
0.0
  0
ARC
  5
1803C
  8
01
 10
-1515.8772752547161
 20
-846.2562052879349
 30
0.0
 40
4.0
 50
270.0
 51
0.0
  0
LINE
  5
18046
  8
01
 10
-1525.877275254717
 20
-996.66839404841062
 30
0.0
 11
-1525.877275254717
 21
-977.66839404841062
 31
0.0
  0
ARC
  5
18047
  8
01
 10
-1526.377275254717
 20
-977.66839404841062
 30
0.0
 40
0.5
 50
0.0
 51
90.0
  0
ARC
  5
18048
  8
01
 10
-1526.377275254717
 20
-996.66839404841062
 30
0.0
 40
0.5
 50
270.0
 51
0.0
  0
ARC
  5
1804A
  8
01
 10
-1528.377275254717
 20
-996.66839404841062
 30
0.0
 40
0.5
 50
180.0
 51
270.0
  0
ARC
  5
1804C
  8
01
 10
-1528.377275254717
 20
-977.66839404841051
 30
0.0
 40
0.5
 50
90.0
 51
180.0
  0
LINE
  5
1804F
  8
01
 10
-1526.377275254717
 20
-977.16839404841062
 30
0.0
 11
-1528.377275254717
 21
-977.16839404841062
 31
0.0
  0
LINE
  5
18050
  8
01
 10
-1526.377275254717
 20
-997.16839404841073
 30
0.0
 11
-1528.377275254717
 21
-997.16839404841073
 31
0.0
  0
LINE
  5
18059
  8
01
 10
-1815.8772752547161
 20
-996.66839404841062
 30
0.0
 11
-1815.8772752547161
 21
-977.66839404841062
 31
0.0
  0
ARC
  5
1805A
  8
01
 10
-1815.3772752547161
 20
-977.66839404841062
 30
0.0
 40
0.5
 50
90.0
 51
180.0
  0
ARC
  5
1805B
  8
01
 10
-1815.3772752547161
 20
-996.66839404841062
 30
0.0
 40
0.5
 50
180.0
 51
270.0
  0
ARC
  5
1805C
  8
01
 10
-1813.3772752547161
 20
-996.66839404841062
 30
0.0
 40
0.5
 50
270.0
 51
0.0
  0
ARC
  5
1805D
  8
01
 10
-1813.3772752547161
 20
-977.66839404841051
 30
0.0
 40
0.5
 50
0.0
 51
90.0
  0
LINE
  5
1805E
  8
01
 10
-1815.3772752547161
 20
-977.16839404841062
 30
0.0
 11
-1813.3772752547161
 21
-977.16839404841062
 31
0.0
  0
LINE
  5
1805F
  8
01
 10
-1815.3772752547161
 20
-997.16839404841073
 30
0.0
 11
-1813.3772752547161
 21
-997.16839404841073
 31
0.0
  0
LINE
  5
18096
  8
01
 10
-1342.4490380371701
 20
-914.69271952231054
 30
0.0
 11
-1342.4490380371701
 21
-913.69271852353518
 31
0.0
  0
LINE
  5
18097
  8
01
 10
-1326.4490380371701
 20
-914.69271952231054
 30
0.0
 11
-1326.4490380371701
 21
-913.69271992229926
 31
0.0
  0
LINE
  5
180AE
  8
1CENTER
 10
-1712.6272752547161
 20
-927.6927223941484
 30
0.0
 11
-1717.1272752547161
 21
-927.6927223941484
 31
0.0
  0
LINE
  5
180AF
  8
1CENTER
 10
-1714.8772752547161
 20
-925.44272210128224
 30
0.0
 11
-1714.8772752547161
 21
-929.94272210128213
 31
0.0
  0
LINE
  5
180B0
  8
1CENTER
 10
-1629.1272752547161
 20
-927.6927223941484
 30
0.0
 11
-1624.6272752547161
 21
-927.6927223941484
 31
0.0
  0
LINE
  5
180B1
  8
1CENTER
 10
-1626.8772752547161
 20
-925.44272210128224
 30
0.0
 11
-1626.8772752547161
 21
-929.94272210128213
 31
0.0
  0
ARC
  5
1814B
  8
01
 10
-1531.8772778984719
 20
-956.16773181808674
 30
0.0
 40
2.9999999999999991
 50
270.0
 51
0.0
  0
ARC
  5
1814C
  8
01
 10
-1655.8772778984719
 20
-956.16773181808674
 30
0.0
 40
2.9999999999999991
 50
180.0
 51
270.0
  0
LINE
  5
1814E
  8
01
 10
-1594.8772778984719
 20
-942.45558536777799
 30
0.0
 11
-1658.8772778984719
 21
-942.45558536777776
 31
0.0
  0
LINE
  5
1814F
  8
01
 10
-1443.8704897123689
 20
-915.69271952231043
 30
0.0
 11
-1323.8704897123689
 21
-915.69271952231043
 31
0.0
  0
LINE
  5
18150
  8
01
 10
-1323.8704897123689
 20
-921.69271952231054
 30
0.0
 11
-1443.8704897123689
 21
-921.69271952231054
 31
0.0
  0
CIRCLE
  5
18152
  8
1PHANTOM
 10
-1396.146150438962
 20
-1000.668391469439
 30
0.0
 40
18.5
  0
CIRCLE
  5
18153
  8
1PHANTOM
 10
-1396.146150438962
 20
-1000.668391469439
 30
0.0
 40
57.5
  0
LINE
  5
18154
  8
1PHANTOM
 10
-1535.319553085506
 20
-949.69495359111215
 30
0.0
 11
-1535.3195530855071
 21
-1064.6949535911119
 31
0.0
  0
LINE
  5
18155
  8
1PHANTOM
 10
-1649.319553085506
 20
-949.69495359111215
 30
0.0
 11
-1649.319553085506
 21
-1064.6949535911119
 31
0.0
  0
LINE
  5
18156
  8
1PHANTOM
 10
-1535.319553085506
 20
-949.69495359111215
 30
0.0
 11
-1649.319553085506
 21
-949.69495359111215
 31
0.0
  0
LINE
  5
18157
  8
1PHANTOM
 10
-1535.3195530855071
 20
-1064.6949535911119
 30
0.0
 11
-1649.319553085506
 21
-1064.6949535911119
 31
0.0
  0
LINE
  5
1815B
  8
1PHANTOM
 10
-1691.068988870574
 20
-949.69495359111215
 30
0.0
 11
-1691.068988870574
 21
-1064.6949535911119
 31
0.0
  0
LINE
  5
1815C
  8
1PHANTOM
 10
-1805.068988870574
 20
-949.69495359111215
 30
0.0
 11
-1805.0689888705731
 21
-1064.6949535911119
 31
0.0
  0
LINE
  5
1815D
  8
1PHANTOM
 10
-1691.068988870574
 20
-949.69495359111215
 30
0.0
 11
-1805.068988870574
 21
-949.69495359111215
 31
0.0
  0
LINE
  5
1815E
  8
1PHANTOM
 10
-1691.068988870574
 20
-1064.6949535911119
 30
0.0
 11
-1805.0689888705731
 21
-1064.6949535911119
 31
0.0
  0
ARC
  5
18161
  8
01
 10
-1324.8704897123689
 20
-914.69272006029996
 30
0.0
 40
1.0
 50
359.99999999999881
 51
89.999994991044346
  0
LINE
  5
18411
  8
1PHANTOM
 10
-1711.3772752547161
 20
-738.2562133880059
 30
0.0
 11
-1711.3772752547161
 21
-737.2562133880059
 31
0.0
  0
LINE
  5
18412
  8
1PHANTOM
 10
-1711.3772752547161
 20
-737.2562133880059
 30
0.0
 11
-1718.3772752547161
 21
-737.2562133880059
 31
0.0
  0
LINE
  5
18413
  8
1PHANTOM
 10
-1718.3772752547161
 20
-738.25619710044145
 30
0.0
 11
-1718.3772752547161
 21
-737.2562133880059
 31
0.0
  0
LINE
  5
18414
  8
1PHANTOM
 10
-1623.3772752547161
 20
-738.2562133880059
 30
0.0
 11
-1623.3772752547161
 21
-737.2562133880059
 31
0.0
  0
LINE
  5
18415
  8
1PHANTOM
 10
-1623.3772752547161
 20
-737.2562133880059
 30
0.0
 11
-1630.3772752547161
 21
-737.2562133880059
 31
0.0
  0
LINE
  5
18416
  8
1PHANTOM
 10
-1630.3772752547161
 20
-738.25619710044145
 30
0.0
 11
-1630.3772752547161
 21
-737.2562133880059
 31
0.0
  0
LINE
  5
18417
  8
1PHANTOM
 10
-1330.9490466180659
 20
-931.19272160734351
 30
0.0
 11
-1329.9490466180659
 21
-931.19272160734351
 31
0.0
  0
LINE
  5
18418
  8
1PHANTOM
 10
-1329.9490466180659
 20
-931.19272160734351
 30
0.0
 11
-1329.9490466180659
 21
-924.19272160734363
 31
0.0
  0
LINE
  5
18419
  8
1PHANTOM
 10
-1330.949030330502
 20
-924.19272160734363
 30
0.0
 11
-1329.9490466180659
 21
-924.19272160734363
 31
0.0
  0
LINE
  5
18444
  8
01
 10
-1311.949038474284
 20
-874.59272161560671
 30
0.0
 11
-1311.949038474284
 21
-954.59272161560625
 31
0.0
  0
LINE
  5
18445
  8
01
 10
-1302.949038474284
 20
-874.59272161560671
 30
0.0
 11
-1302.949038474284
 21
-954.59272161560625
 31
0.0
  0
LINE
  5
18446
  8
01
 10
-1320.949038474284
 20
-874.59272161560671
 30
0.0
 11
-1320.949038474284
 21
-954.59272161560625
 31
0.0
  0
LINE
  5
184C4
  8
1CENTER
 10
-1335.949038474284
 20
-940.85445201122218
 30
0.0
 11
-1335.949038474284
 21
-951.00547291183693
 31
0.0
  0
LINE
  5
185A4
  8
01
 10
-1531.8772778984719
 20
-958.50242576669075
 30
0.0
 11
-1655.8772778984719
 21
-958.50242576669075
 31
0.0
  0
ARC
  5
185A5
  8
01
 10
-1531.8772778984719
 20
-955.50242576669086
 30
0.0
 40
2.9999999999999991
 50
270.0
 51
0.0
  0
ARC
  5
185A6
  8
01
 10
-1655.8772778984719
 20
-955.50242576669086
 30
0.0
 40
2.9999999999999991
 50
180.0
 51
270.0
  0
ARC
  5
185A7
  8
01
 10
-1809.8772726109601
 20
-955.50242576669086
 30
0.0
 40
3.0
 50
180.0
 51
270.0
  0
LINE
  5
185A8
  8
01
 10
-1809.8772726109601
 20
-958.50242576669075
 30
0.0
 11
-1685.8772726109601
 21
-958.50242576669075
 31
0.0
  0
ARC
  5
185A9
  8
01
 10
-1685.8772726109601
 20
-955.50242576669086
 30
0.0
 40
3.0
 50
270.0
 51
0.0
  0
LINE
  5
185AA
  8
01
 10
-1682.8772726109601
 20
-956.16773181808674
 30
0.0
 11
-1682.8772726109601
 21
-942.45558536777776
 31
0.0
  0
LINE
  5
185AB
  8
01
 10
-1658.8772778984719
 20
-956.16773181808674
 30
0.0
 11
-1658.8772778984719
 21
-942.45558536777776
 31
0.0
  0
LINE
  5
185AC
  8
01
 10
-1812.8772752547161
 20
-977.66839404841051
 30
0.0
 11
-1812.8772752547161
 21
-996.66839404841062
 31
0.0
  0
LINE
  5
185AD
  8
01
 10
-1528.877275254717
 20
-977.66839404841051
 30
0.0
 11
-1528.877275254717
 21
-996.66839404841062
 31
0.0
  0
TEXT
  5
185AF
  8
1TEXT
 10
-1396.784783659469
 20
-774.57276716480146
 30
0.0
 40
8.0
  1
SC27MXC
  0
LINE
  5
185B0
  8
1DIM
 10
-1396.7847836594699
 20
-786.57276716480158
 30
0.0
 11
-1326.784783659469
 21
-786.57276716480158
 31
0.0
  0
TEXT
  5
185B1
  8
1TEXT
 10
-1390.0324027070881
 20
-785.0727671648018
 30
0.0
 40
4.0
  1
表面処理：
 72
     1
 11
-1379.38478365947
 21
-785.0727671648018
 31
0.0
  0
LINE
  5
185B2
  8
1DIM
 10
-1396.7847836594699
 20
-779.57276716480146
 30
0.0
 11
-1326.784783659469
 21
-779.57276716480146
 31
0.0
  0
TEXT
  5
185B3
  8
1TEXT
 10
-1351.1847836594691
 20
-785.07276716480158
 30
0.0
 40
4.0
  1
コード
 72
     1
 11
-1344.38478365947
 21
-785.07276716480158
 31
0.0
  0
LINE
  5
185B7
  8
1DIM
 10
-1396.7847836594699
 20
-793.57276716480158
 30
0.0
 11
-1326.784783659469
 21
-793.57276716480158
 31
0.0
  0
TEXT
  5
185BB
  8
1TEXT
 10
-1388.7181169928019
 20
-792.28712414845131
 30
0.0
 40
4.0
  1
クローム
 72
     1
 11
-1379.3847836594689
 21
-792.28712414845131
 31
0.0
  0
LINE
  5
185BC
  8
1DIM
 10
-1396.7847836594699
 20
-779.57276716480146
 30
0.0
 11
-1396.7847836594699
 21
-793.57276716480158
 31
0.0
  0
LINE
  5
185BD
  8
1DIM
 10
-1361.7847836594699
 20
-779.57276716480146
 30
0.0
 11
-1361.7847836594699
 21
-793.57276716480169
 31
0.0
  0
LINE
  5
185BE
  8
1DIM
 10
-1326.784783659469
 20
-779.57276716480146
 30
0.0
 11
-1326.784783659469
 21
-793.57276716480169
 31
0.0
  0
TEXT
  5
185C1
  8
1TEXT
 10
-1357.7181169928019
 20
-792.28712414845086
 30
0.0
 40
4.0
  1
SC27MXC
 72
     1
 11
-1344.3847836594689
 21
-792.28712414845086
 31
0.0
  0
TEXT
  5
186E0
  8
1DIM
 10
-1586.065147536676
 20
-1015.521234292903
 30
0.0
 40
3.5
  1
材質：真鍮
  0
TEXT
  5
186E1
  8
1DIM
 10
-1586.065147536676
 20
-1021.354567626237
 30
0.0
 40
3.5
  1
仕上げ：クローム
  0
TEXT
  5
186E4
  8
1DIM
 10
-1484.1558070430151
 20
-928.43357414490436
 30
0.0
 40
3.5
  1
材質：ステンレス
1001
ACAD
1000
ACAD_MTEXT_DEFINED_HEIGHT_BEGIN
1070
    46
1040
0.0
1000
ACAD_MTEXT_DEFINED_HEIGHT_END
  0
TEXT
  5
186E5
  8
1DIM
 10
-1484.622473709682
 20
-934.26690747823761
 30
0.0
 40
3.5
  1
仕上げ：鏡面研磨
1001
ACAD
1000
ACAD_MTEXT_DEFINED_HEIGHT_BEGIN
1070
    46
1040
0.0
1000
ACAD_MTEXT_DEFINED_HEIGHT_END
  0
TEXT
  5
186E8
  8
1DIM
 10
-1398.8710363169121
 20
-892.54649132875659
 30
0.0
 40
3.5
  1
材質：亜鉛ダイキャスト
  0
TEXT
  5
186E9
  8
1DIM
 10
-1386.7377029835779
 20
-898.37982466208985
 30
0.0
 40
3.5
  1
仕上げ：クローム
  0
TEXT
  5
186EC
  8
1DIM
 10
-1440.3228359577549
 20
-900.16227380332577
 30
0.0
 40
3.5
  1
材質：ガラス
1001
ACAD
1000
ACAD_MTEXT_DEFINED_HEIGHT_BEGIN
1070
    46
1040
0.0
1000
ACAD_MTEXT_DEFINED_HEIGHT_END
  0
LINE
  5
186EF
  8
1DIM
 10
-1320.949038474284
 20
-954.59272161560625
 30
0.0
 11
-1320.949038474284
 21
-961.27379517606187
 31
0.0
  0
LINE
  5
186F0
  8
1DIM
 10
-1335.949038474284
 20
-951.00547291183693
 30
0.0
 11
-1335.949038474284
 21
-961.27379517606187
 31
0.0
  0
LINE
  5
186F1
  8
1DIM
 10
-1322.949038474284
 20
-960.27379517606175
 30
0.0
 11
-1333.949038474284
 21
-960.27379517606175
 31
0.0
  0
LINE
  5
186F5
  8
1DIM
 10
-1320.9490366875821
 20
-910.69272040312467
 30
0.0
 11
-1320.9490366875821
 21
-881.8252395827576
 31
0.0
  0
LINE
  5
186F6
  8
1DIM
 10
-1443.8704897123689
 20
-915.69271952231043
 30
0.0
 11
-1443.8704897123689
 21
-881.8252395827576
 31
0.0
  0
LINE
  5
186F7
  8
1DIM
 10
-1322.9490366875821
 20
-882.8252395827576
 30
0.0
 11
-1441.8704897123689
 21
-882.8252395827576
 31
0.0
  0
TEXT
  5
186FB
  8
1HATCH
 10
-1317.2939372318931
 20
-854.30087880894246
 30
0.0
 40
3.5
  1
PB
  0
TEXT
  5
18700
  8
1DIM
 10
-1311.1265927373549
 20
-860.30222482606655
 30
0.0
 40
3.5
  1
合板9mm以上
  0
LINE
  5
18701
  8
1DIM
 10
-1320.9490369880971
 20
-910.69272040312467
 30
0.0
 11
-1269.949038474284
 21
-910.69272040312467
 31
0.0
  0
LINE
  5
18702
  8
1DIM
 10
-1321.1490375273549
 20
-945.89272063570263
 30
0.0
 11
-1269.949038474284
 21
-945.89272063570274
 31
0.0
  0
LINE
  5
18703
  8
1DIM
 10
-1270.949038474284
 20
-912.69272040312467
 30
0.0
 11
-1270.949038474284
 21
-943.89272063570274
 31
0.0
  0
LINE
  5
18707
  8
1DIM
 10
-1320.9490366875821
 20
-910.69272040312467
 30
0.0
 11
-1279.949038474284
 21
-910.69272040312467
 31
0.0
  0
LINE
  5
18708
  8
1DIM
 10
-1295.988123883152
 20
-927.69272160734351
 30
0.0
 11
-1279.949038474284
 21
-927.69272160734374
 31
0.0
  0
LINE
  5
18709
  8
1DIM
 10
-1280.949038474284
 20
-912.69272040312467
 30
0.0
 11
-1280.949038474284
 21
-925.69272160734351
 31
0.0
  0
LINE
  5
1870D
  8
1DIM
 10
-1626.8772752547161
 20
-929.94272210128213
 30
0.0
 11
-1626.8772752547161
 21
-1006.887922615074
 31
0.0
  0
LINE
  5
1870E
  8
1DIM
 10
-1714.8772752547161
 20
-929.94272210128213
 30
0.0
 11
-1714.8772752547161
 21
-1006.887922615074
 31
0.0
  0
LINE
  5
1870F
  8
1DIM
 10
-1628.8772752547161
 20
-1005.887922615074
 30
0.0
 11
-1712.8772752547161
 21
-1005.887922615074
 31
0.0
  0
LINE
  5
18713
  8
1DIM
 10
-1658.8772778984719
 20
-956.16773181808674
 30
0.0
 11
-1658.8772778984719
 21
-973.43565442515319
 31
0.0
  0
LINE
  5
18714
  8
1DIM
 10
-1528.8772778984719
 20
-956.16773181808674
 30
0.0
 11
-1528.8772778984719
 21
-973.43565442515319
 31
0.0
  0
LINE
  5
18715
  8
1DIM
 10
-1656.8772778984719
 20
-972.43565442515319
 30
0.0
 11
-1530.8772778984719
 21
-972.43565442515319
 31
0.0
  0
LINE
  5
18719
  8
1DIM
 10
-1830.8772752547161
 20
-846.25620524422345
 30
0.0
 11
-1830.8772752547161
 21
-871.91632870410695
 31
0.0
  0
LINE
  5
1871A
  8
1DIM
 10
-1510.8772752547161
 20
-846.25620524422345
 30
0.0
 11
-1510.8772752547161
 21
-871.91632870410695
 31
0.0
  0
LINE
  5
1871B
  8
1DIM
 10
-1828.8772752547161
 20
-870.91632870410695
 30
0.0
 11
-1512.8772752547161
 21
-870.91632870410695
 31
0.0
  0
LINE
  5
1871F
  8
0
 10
-1714.8772287188181
 20
-703.25620524438602
 30
0.0
 11
-1716.3772287188181
 21
-708.5562017542477
 31
0.0
  0
LINE
  5
18720
  8
0
 10
-1716.3772287188181
 20
-708.5562017542477
 30
0.0
 11
-1716.3772287188181
 21
-738.25620175413951
 31
0.0
  0
LINE
  5
18721
  8
0
 10
-1714.8772287188181
 20
-703.25620524438602
 30
0.0
 11
-1713.3772287188181
 21
-708.55620873463135
 31
0.0
  0
LINE
  5
18722
  8
0
 10
-1718.3772752547161
 20
-738.25619710044145
 30
0.0
 11
-1711.3772752547161
 21
-738.2562133880059
 31
0.0
  0
LINE
  5
18723
  8
0
 10
-1713.3772287188181
 20
-708.55620873463135
 30
0.0
 11
-1713.3772287188181
 21
-738.25620873452431
 31
0.0
  0
LINE
  5
18724
  8
0
 10
-1718.3772752547161
 20
-738.25619710044145
 30
0.0
 11
-1718.3772752547161
 21
-739.35620059063683
 31
0.0
  0
ARC
  5
18725
  8
0
 10
-1716.8772752547161
 20
-739.35620059063683
 30
0.0
 40
1.5
 50
180.0
 51
269.99986668446189
  0
LINE
  5
18726
  8
0
 10
-1711.3772752547161
 20
-738.2562133880059
 30
0.0
 11
-1711.3772752547161
 21
-739.35620989781648
 31
0.0
  0
LINE
  5
18727
  8
0
 10
-1716.8772787449079
 20
-740.85620059063274
 30
0.0
 11
-1712.8772787449079
 21
-740.85620989781239
 31
0.0
  0
ARC
  5
18728
  8
0
 10
-1712.8772752547161
 20
-739.35620989781648
 30
0.0
 40
1.5
 50
269.99986668446189
 51
0.0
  0
LINE
  5
18729
  8
1CENTER
 10
-1714.8772752547161
 20
-701.82541032692063
 30
0.0
 11
-1714.8772752547161
 21
-741.92648165353239
 31
0.0
  0
LINE
  5
1872A
  8
0
 10
-1715.9715990687109
 20
-705.35620269806384
 30
0.0
 11
-1714.0092639798361
 21
-704.55620726401276
 31
0.0
  0
LINE
  5
1872B
  8
0
 10
-1714.0092639798361
 20
-704.55620726401276
 30
0.0
 11
-1714.5975405548779
 21
-704.24443740776076
 31
0.0
  0
LINE
  5
1872C
  8
0
 10
-1716.8772287188181
 20
-727.75620059085384
 30
0.0
 11
-1712.8772287188181
 21
-726.95620989803547
 31
0.0
  0
LINE
  5
1872D
  8
0
 10
-1716.8772287188181
 20
-716.55620059084936
 30
0.0
 11
-1712.8772287188181
 21
-715.75620989802678
 31
0.0
  0
LINE
  5
1872E
  8
0
 10
-1716.8772287188181
 20
-713.35620059084943
 30
0.0
 11
-1712.8772287188181
 21
-712.55620989802685
 31
0.0
  0
LINE
  5
1872F
  8
0
 10
-1712.8772287188181
 20
-712.55620989802685
 30
0.0
 11
-1713.3772287188181
 21
-712.45620873462963
 31
0.0
  0
LINE
  5
18730
  8
0
 10
-1716.3772287188181
 20
-711.85620175424651
 30
0.0
 11
-1716.8772287188181
 21
-711.7562005908494
 31
0.0
  0
LINE
  5
18731
  8
0
 10
-1712.8772287188181
 20
-715.75620989802678
 30
0.0
 11
-1713.3772287188181
 21
-715.65620873462956
 31
0.0
  0
LINE
  5
18732
  8
0
 10
-1712.8772287188181
 20
-714.15620989802665
 30
0.0
 11
-1713.3772287188181
 21
-714.05620873462965
 31
0.0
  0
LINE
  5
18733
  8
0
 10
-1716.3772287188181
 20
-713.45620175424654
 30
0.0
 11
-1716.8772287188181
 21
-713.35620059084943
 31
0.0
  0
LINE
  5
18734
  8
0
 10
-1716.3772287188181
 20
-715.05620175424644
 30
0.0
 11
-1716.8772287188181
 21
-714.95620059084933
 31
0.0
  0
LINE
  5
18735
  8
0
 10
-1716.8772287188181
 20
-714.95620059084933
 30
0.0
 11
-1712.8772287188181
 21
-714.15620989802665
 31
0.0
  0
LINE
  5
18736
  8
0
 10
-1713.5564498754291
 20
-706.15620831761851
 30
0.0
 11
-1714.108199339232
 21
-705.97344417499039
 31
0.0
  0
LINE
  5
18737
  8
0
 10
-1712.8772287188181
 20
-709.35620989802669
 30
0.0
 11
-1713.3772287188181
 21
-709.25620873462969
 31
0.0
  0
LINE
  5
18738
  8
0
 10
-1712.8772287188181
 20
-710.95620989802683
 30
0.0
 11
-1713.3772287188181
 21
-710.85620873462983
 31
0.0
  0
LINE
  5
18739
  8
0
 10
-1713.103635771022
 20
-707.75620937122414
 30
0.0
 11
-1713.6402295062931
 21
-707.62693867359417
 31
0.0
  0
LINE
  5
1873A
  8
0
 10
-1715.956314121609
 20
-707.06897115680965
 30
0.0
 11
-1716.4244125767591
 21
-706.95620164445961
 31
0.0
  0
LINE
  5
1873B
  8
0
 10
-1716.3772287188181
 20
-710.25620175424649
 30
0.0
 11
-1716.8772287188181
 21
-710.15620059084927
 31
0.0
  0
LINE
  5
1873C
  8
0
 10
-1716.3772287188181
 20
-708.65620175424647
 30
0.0
 11
-1716.8772287188181
 21
-708.55620059084936
 31
0.0
  0
LINE
  5
1873D
  8
0
 10
-1715.51442722808
 20
-705.50763849450425
 30
0.0
 11
-1715.9715990687109
 21
-705.35620269806384
 31
0.0
  0
LINE
  5
1873E
  8
0
 10
-1716.4244125767591
 20
-706.95620164445961
 30
0.0
 11
-1713.5564498754291
 21
-706.15620831761851
 31
0.0
  0
LINE
  5
1873F
  8
0
 10
-1716.8772287188181
 20
-710.15620059084927
 30
0.0
 11
-1712.8772287188181
 21
-709.35620989802669
 31
0.0
  0
LINE
  5
18740
  8
0
 10
-1716.8772287188181
 20
-708.55620059084936
 30
0.0
 11
-1713.103635771022
 21
-707.75620937122414
 31
0.0
  0
LINE
  5
18741
  8
0
 10
-1716.8772287188181
 20
-711.7562005908494
 30
0.0
 11
-1712.8772287188181
 21
-710.95620989802683
 31
0.0
  0
LINE
  5
18742
  8
0
 10
-1716.8772287188181
 20
-724.55620059085379
 30
0.0
 11
-1712.8772287188181
 21
-723.75620989803554
 31
0.0
  0
LINE
  5
18743
  8
0
 10
-1712.8772287188181
 20
-723.75620989803554
 30
0.0
 11
-1713.3772287188181
 21
-723.65620873463774
 31
0.0
  0
LINE
  5
18744
  8
0
 10
-1716.3772287188181
 20
-723.05620175424713
 30
0.0
 11
-1716.8772287188181
 21
-722.95620059084945
 31
0.0
  0
LINE
  5
18745
  8
0
 10
-1712.8772287188181
 20
-725.35620989803556
 30
0.0
 11
-1713.3772287188181
 21
-725.25620873463799
 31
0.0
  0
LINE
  5
18746
  8
0
 10
-1712.8772287188181
 20
-726.95620989803547
 30
0.0
 11
-1713.3772287188181
 21
-726.8562087346379
 31
0.0
  0
LINE
  5
18747
  8
0
 10
-1716.3772287188181
 20
-724.65620175425136
 30
0.0
 11
-1716.8772287188181
 21
-724.55620059085379
 31
0.0
  0
LINE
  5
18748
  8
0
 10
-1716.3772287188181
 20
-726.25620175425149
 30
0.0
 11
-1716.8772287188181
 21
-726.15620059085393
 31
0.0
  0
LINE
  5
18749
  8
0
 10
-1716.8772287188181
 20
-726.15620059085393
 30
0.0
 11
-1712.8772287188181
 21
-725.35620989803556
 31
0.0
  0
LINE
  5
1874A
  8
0
 10
-1712.8772287188181
 20
-718.95620989803115
 30
0.0
 11
-1713.3772287188181
 21
-718.85620873463336
 31
0.0
  0
LINE
  5
1874B
  8
0
 10
-1712.8772287188181
 20
-717.35620989802669
 30
0.0
 11
-1713.3772287188181
 21
-717.25620873462969
 31
0.0
  0
LINE
  5
1874C
  8
0
 10
-1712.8772287188181
 20
-722.15620989803119
 30
0.0
 11
-1713.3772287188181
 21
-722.05620873463351
 31
0.0
  0
LINE
  5
1874D
  8
0
 10
-1712.8772287188181
 20
-720.55620989803128
 30
0.0
 11
-1713.3772287188181
 21
-720.45620873463361
 31
0.0
  0
LINE
  5
1874E
  8
0
 10
-1716.3772287188181
 20
-716.65620175424658
 30
0.0
 11
-1716.8772287188181
 21
-716.55620059084936
 31
0.0
  0
LINE
  5
1874F
  8
0
 10
-1716.3772287188181
 20
-718.25620175424717
 30
0.0
 11
-1716.8772287188181
 21
-718.15620059084927
 31
0.0
  0
LINE
  5
18750
  8
0
 10
-1716.3772287188181
 20
-721.45620175424722
 30
0.0
 11
-1716.8772287188181
 21
-721.35620059084954
 31
0.0
  0
LINE
  5
18751
  8
0
 10
-1716.3772287188181
 20
-719.85620175424708
 30
0.0
 11
-1716.8772287188181
 21
-719.7562005908494
 31
0.0
  0
LINE
  5
18752
  8
0
 10
-1716.8772287188181
 20
-719.7562005908494
 30
0.0
 11
-1712.8772287188181
 21
-718.95620989803115
 31
0.0
  0
LINE
  5
18753
  8
0
 10
-1716.8772287188181
 20
-718.15620059084927
 30
0.0
 11
-1712.8772287188181
 21
-717.35620989802669
 31
0.0
  0
LINE
  5
18754
  8
0
 10
-1716.8772287188181
 20
-721.35620059084954
 30
0.0
 11
-1712.8772287188181
 21
-720.55620989803128
 31
0.0
  0
LINE
  5
18755
  8
0
 10
-1716.8772287188181
 20
-722.95620059084945
 30
0.0
 11
-1712.8772287188181
 21
-722.15620989803119
 31
0.0
  0
LINE
  5
18756
  8
0
 10
-1716.3772287188181
 20
-732.65620175425556
 30
0.0
 11
-1716.8772287188181
 21
-732.55620059085788
 31
0.0
  0
LINE
  5
18757
  8
0
 10
-1716.8772287188181
 20
-732.55620059085788
 30
0.0
 11
-1712.8772287188181
 21
-731.75620989803974
 31
0.0
  0
LINE
  5
18758
  8
0
 10
-1712.8772287188181
 20
-731.75620989803974
 30
0.0
 11
-1713.3772287188181
 21
-731.65620873464195
 31
0.0
  0
LINE
  5
18759
  8
0
 10
-1716.3772287188181
 20
-731.05620175425565
 30
0.0
 11
-1716.8772287188181
 21
-730.95620059085797
 31
0.0
  0
LINE
  5
1875A
  8
0
 10
-1716.3772287188181
 20
-729.45620175425574
 30
0.0
 11
-1716.8772287188181
 21
-729.35620059085807
 31
0.0
  0
LINE
  5
1875B
  8
0
 10
-1716.8772287188181
 20
-729.35620059085807
 30
0.0
 11
-1712.8772287188181
 21
-728.55620989803992
 31
0.0
  0
LINE
  5
1875C
  8
0
 10
-1712.8772287188181
 20
-730.15620989803983
 30
0.0
 11
-1713.3772287188181
 21
-730.05620873464215
 31
0.0
  0
LINE
  5
1875D
  8
0
 10
-1712.8772287188181
 20
-728.55620989803992
 30
0.0
 11
-1713.3772287188181
 21
-728.45620873464225
 31
0.0
  0
LINE
  5
1875E
  8
0
 10
-1716.8772287188181
 20
-730.95620059085797
 30
0.0
 11
-1712.8772287188181
 21
-730.15620989803983
 31
0.0
  0
LINE
  5
1875F
  8
0
 10
-1716.3772287188181
 20
-727.8562017542514
 30
0.0
 11
-1716.8772287188181
 21
-727.75620059085384
 31
0.0
  0
LINE
  5
18760
  8
0
 10
-1716.3772287188181
 20
-734.25620175425547
 30
0.0
 11
-1716.8772287188181
 21
-734.15620059085791
 31
0.0
  0
LINE
  5
18761
  8
0
 10
-1716.8772287188181
 20
-734.15620059085791
 30
0.0
 11
-1712.8772287188181
 21
-733.35620989803965
 31
0.0
  0
LINE
  5
18762
  8
0
 10
-1712.8772287188181
 20
-733.35620989803965
 30
0.0
 11
-1713.3772287188181
 21
-733.25620873464197
 31
0.0
  0
LINE
  5
18763
  8
0
 10
-1716.3772287188181
 20
-735.85620175425549
 30
0.0
 11
-1716.8772287188181
 21
-735.75620059085782
 31
0.0
  0
LINE
  5
18764
  8
0
 10
-1716.8772287188181
 20
-735.75620059085782
 30
0.0
 11
-1712.8772287188181
 21
-734.95620989803956
 31
0.0
  0
LINE
  5
18765
  8
0
 10
-1712.8772287188181
 20
-734.95620989803956
 30
0.0
 11
-1713.3772287188181
 21
-734.85620873464188
 31
0.0
  0
LINE
  5
18766
  8
0
 10
-1716.3772287188181
 20
-737.4562017542554
 30
0.0
 11
-1716.8772287188181
 21
-737.35620059085772
 31
0.0
  0
LINE
  5
18767
  8
0
 10
-1716.8772287188181
 20
-737.35620059085772
 30
0.0
 11
-1712.8772287188181
 21
-736.55620989803947
 31
0.0
  0
LINE
  5
18768
  8
0
 10
-1712.8772287188181
 20
-736.55620989803947
 30
0.0
 11
-1713.3772287188181
 21
-736.45620873464179
 31
0.0
  0
LINE
  5
18769
  8
0
 10
-1626.8772287188181
 20
-703.25620524438602
 30
0.0
 11
-1628.3772287188181
 21
-708.5562017542477
 31
0.0
  0
LINE
  5
1876A
  8
0
 10
-1628.3772287188181
 20
-708.5562017542477
 30
0.0
 11
-1628.3772287188181
 21
-738.25620175413951
 31
0.0
  0
LINE
  5
1876B
  8
0
 10
-1626.8772287188181
 20
-703.25620524438602
 30
0.0
 11
-1625.3772287188181
 21
-708.55620873463135
 31
0.0
  0
LINE
  5
1876C
  8
0
 10
-1630.3772752547161
 20
-738.25619710044145
 30
0.0
 11
-1623.3772752547161
 21
-738.2562133880059
 31
0.0
  0
LINE
  5
1876D
  8
0
 10
-1625.3772287188181
 20
-708.55620873463135
 30
0.0
 11
-1625.3772287188181
 21
-738.25620873452431
 31
0.0
  0
LINE
  5
1876E
  8
0
 10
-1630.3772752547161
 20
-738.25619710044145
 30
0.0
 11
-1630.3772752547161
 21
-739.35620059063683
 31
0.0
  0
ARC
  5
1876F
  8
0
 10
-1628.8772752547161
 20
-739.35620059063683
 30
0.0
 40
1.5
 50
180.0
 51
269.99986668446189
  0
LINE
  5
18770
  8
0
 10
-1623.3772752547161
 20
-738.2562133880059
 30
0.0
 11
-1623.3772752547161
 21
-739.35620989781648
 31
0.0
  0
LINE
  5
18771
  8
0
 10
-1628.8772787449091
 20
-740.85620059063274
 30
0.0
 11
-1624.8772787449091
 21
-740.85620989781239
 31
0.0
  0
ARC
  5
18772
  8
0
 10
-1624.8772752547161
 20
-739.35620989781648
 30
0.0
 40
1.5
 50
269.99986668446189
 51
0.0
  0
LINE
  5
18773
  8
1CENTER
 10
-1626.8772752547161
 20
-701.82541032692063
 30
0.0
 11
-1626.8772752547161
 21
-741.92648165353239
 31
0.0
  0
LINE
  5
18774
  8
0
 10
-1627.9715990687109
 20
-705.35620269806384
 30
0.0
 11
-1626.0092639798349
 21
-704.55620726401276
 31
0.0
  0
LINE
  5
18775
  8
0
 10
-1626.0092639798349
 20
-704.55620726401276
 30
0.0
 11
-1626.5975405548779
 21
-704.24443740776076
 31
0.0
  0
LINE
  5
18776
  8
0
 10
-1628.8772287188181
 20
-727.75620059085384
 30
0.0
 11
-1624.8772287188181
 21
-726.95620989803547
 31
0.0
  0
LINE
  5
18777
  8
0
 10
-1628.8772287188181
 20
-716.55620059084936
 30
0.0
 11
-1624.8772287188181
 21
-715.75620989802678
 31
0.0
  0
LINE
  5
18778
  8
0
 10
-1628.8772287188181
 20
-713.35620059084943
 30
0.0
 11
-1624.8772287188181
 21
-712.55620989802685
 31
0.0
  0
LINE
  5
18779
  8
0
 10
-1624.8772287188181
 20
-712.55620989802685
 30
0.0
 11
-1625.3772287188181
 21
-712.45620873462963
 31
0.0
  0
LINE
  5
1877A
  8
0
 10
-1628.3772287188181
 20
-711.85620175424651
 30
0.0
 11
-1628.8772287188181
 21
-711.7562005908494
 31
0.0
  0
LINE
  5
1877B
  8
0
 10
-1624.8772287188181
 20
-715.75620989802678
 30
0.0
 11
-1625.3772287188181
 21
-715.65620873462956
 31
0.0
  0
LINE
  5
1877C
  8
0
 10
-1624.8772287188181
 20
-714.15620989802665
 30
0.0
 11
-1625.3772287188181
 21
-714.05620873462965
 31
0.0
  0
LINE
  5
1877D
  8
0
 10
-1628.3772287188181
 20
-713.45620175424654
 30
0.0
 11
-1628.8772287188181
 21
-713.35620059084943
 31
0.0
  0
LINE
  5
1877E
  8
0
 10
-1628.3772287188181
 20
-715.05620175424644
 30
0.0
 11
-1628.8772287188181
 21
-714.95620059084933
 31
0.0
  0
LINE
  5
1877F
  8
0
 10
-1628.8772287188181
 20
-714.95620059084933
 30
0.0
 11
-1624.8772287188181
 21
-714.15620989802665
 31
0.0
  0
LINE
  5
18780
  8
0
 10
-1625.5564498754291
 20
-706.15620831761851
 30
0.0
 11
-1626.108199339232
 21
-705.97344417499039
 31
0.0
  0
LINE
  5
18781
  8
0
 10
-1624.8772287188181
 20
-709.35620989802669
 30
0.0
 11
-1625.3772287188181
 21
-709.25620873462969
 31
0.0
  0
LINE
  5
18782
  8
0
 10
-1624.8772287188181
 20
-710.95620989802683
 30
0.0
 11
-1625.3772287188181
 21
-710.85620873462983
 31
0.0
  0
LINE
  5
18783
  8
0
 10
-1625.103635771022
 20
-707.75620937122414
 30
0.0
 11
-1625.6402295062931
 21
-707.62693867359417
 31
0.0
  0
LINE
  5
18784
  8
0
 10
-1627.956314121609
 20
-707.06897115680965
 30
0.0
 11
-1628.4244125767591
 21
-706.95620164445961
 31
0.0
  0
LINE
  5
18785
  8
0
 10
-1628.3772287188181
 20
-710.25620175424649
 30
0.0
 11
-1628.8772287188181
 21
-710.15620059084927
 31
0.0
  0
LINE
  5
18786
  8
0
 10
-1628.3772287188181
 20
-708.65620175424647
 30
0.0
 11
-1628.8772287188181
 21
-708.55620059084936
 31
0.0
  0
LINE
  5
18787
  8
0
 10
-1627.51442722808
 20
-705.50763849450425
 30
0.0
 11
-1627.9715990687109
 21
-705.35620269806384
 31
0.0
  0
LINE
  5
18788
  8
0
 10
-1628.4244125767591
 20
-706.95620164445961
 30
0.0
 11
-1625.5564498754291
 21
-706.15620831761851
 31
0.0
  0
LINE
  5
18789
  8
0
 10
-1628.8772287188181
 20
-710.15620059084927
 30
0.0
 11
-1624.8772287188181
 21
-709.35620989802669
 31
0.0
  0
LINE
  5
1878A
  8
0
 10
-1628.8772287188181
 20
-708.55620059084936
 30
0.0
 11
-1625.103635771022
 21
-707.75620937122414
 31
0.0
  0
LINE
  5
1878B
  8
0
 10
-1628.8772287188181
 20
-711.7562005908494
 30
0.0
 11
-1624.8772287188181
 21
-710.95620989802683
 31
0.0
  0
LINE
  5
1878C
  8
0
 10
-1628.8772287188181
 20
-724.55620059085379
 30
0.0
 11
-1624.8772287188181
 21
-723.75620989803554
 31
0.0
  0
LINE
  5
1878D
  8
0
 10
-1624.8772287188181
 20
-723.75620989803554
 30
0.0
 11
-1625.3772287188181
 21
-723.65620873463774
 31
0.0
  0
LINE
  5
1878E
  8
0
 10
-1628.3772287188181
 20
-723.05620175424713
 30
0.0
 11
-1628.8772287188181
 21
-722.95620059084945
 31
0.0
  0
LINE
  5
1878F
  8
0
 10
-1624.8772287188181
 20
-725.35620989803556
 30
0.0
 11
-1625.3772287188181
 21
-725.25620873463799
 31
0.0
  0
LINE
  5
18790
  8
0
 10
-1624.8772287188181
 20
-726.95620989803547
 30
0.0
 11
-1625.3772287188181
 21
-726.8562087346379
 31
0.0
  0
LINE
  5
18791
  8
0
 10
-1628.3772287188181
 20
-724.65620175425136
 30
0.0
 11
-1628.8772287188181
 21
-724.55620059085379
 31
0.0
  0
LINE
  5
18792
  8
0
 10
-1628.3772287188181
 20
-726.25620175425149
 30
0.0
 11
-1628.8772287188181
 21
-726.15620059085393
 31
0.0
  0
LINE
  5
18793
  8
0
 10
-1628.8772287188181
 20
-726.15620059085393
 30
0.0
 11
-1624.8772287188181
 21
-725.35620989803556
 31
0.0
  0
LINE
  5
18794
  8
0
 10
-1624.8772287188181
 20
-718.95620989803115
 30
0.0
 11
-1625.3772287188181
 21
-718.85620873463336
 31
0.0
  0
LINE
  5
18795
  8
0
 10
-1624.8772287188181
 20
-717.35620989802669
 30
0.0
 11
-1625.3772287188181
 21
-717.25620873462969
 31
0.0
  0
LINE
  5
18796
  8
0
 10
-1624.8772287188181
 20
-722.15620989803119
 30
0.0
 11
-1625.3772287188181
 21
-722.05620873463351
 31
0.0
  0
LINE
  5
18797
  8
0
 10
-1624.8772287188181
 20
-720.55620989803128
 30
0.0
 11
-1625.3772287188181
 21
-720.45620873463361
 31
0.0
  0
LINE
  5
18798
  8
0
 10
-1628.3772287188181
 20
-716.65620175424658
 30
0.0
 11
-1628.8772287188181
 21
-716.55620059084936
 31
0.0
  0
LINE
  5
18799
  8
0
 10
-1628.3772287188181
 20
-718.25620175424717
 30
0.0
 11
-1628.8772287188181
 21
-718.15620059084927
 31
0.0
  0
LINE
  5
1879A
  8
0
 10
-1628.3772287188181
 20
-721.45620175424722
 30
0.0
 11
-1628.8772287188181
 21
-721.35620059084954
 31
0.0
  0
LINE
  5
1879B
  8
0
 10
-1628.3772287188181
 20
-719.85620175424708
 30
0.0
 11
-1628.8772287188181
 21
-719.7562005908494
 31
0.0
  0
LINE
  5
1879C
  8
0
 10
-1628.8772287188181
 20
-719.7562005908494
 30
0.0
 11
-1624.8772287188181
 21
-718.95620989803115
 31
0.0
  0
LINE
  5
1879D
  8
0
 10
-1628.8772287188181
 20
-718.15620059084927
 30
0.0
 11
-1624.8772287188181
 21
-717.35620989802669
 31
0.0
  0
LINE
  5
1879E
  8
0
 10
-1628.8772287188181
 20
-721.35620059084954
 30
0.0
 11
-1624.8772287188181
 21
-720.55620989803128
 31
0.0
  0
LINE
  5
1879F
  8
0
 10
-1628.8772287188181
 20
-722.95620059084945
 30
0.0
 11
-1624.8772287188181
 21
-722.15620989803119
 31
0.0
  0
LINE
  5
187A0
  8
0
 10
-1628.3772287188181
 20
-732.65620175425556
 30
0.0
 11
-1628.8772287188181
 21
-732.55620059085788
 31
0.0
  0
LINE
  5
187A1
  8
0
 10
-1628.8772287188181
 20
-732.55620059085788
 30
0.0
 11
-1624.8772287188181
 21
-731.75620989803974
 31
0.0
  0
LINE
  5
187A2
  8
0
 10
-1624.8772287188181
 20
-731.75620989803974
 30
0.0
 11
-1625.3772287188181
 21
-731.65620873464195
 31
0.0
  0
LINE
  5
187A3
  8
0
 10
-1628.3772287188181
 20
-731.05620175425565
 30
0.0
 11
-1628.8772287188181
 21
-730.95620059085797
 31
0.0
  0
LINE
  5
187A4
  8
0
 10
-1628.3772287188181
 20
-729.45620175425574
 30
0.0
 11
-1628.8772287188181
 21
-729.35620059085807
 31
0.0
  0
LINE
  5
187A5
  8
0
 10
-1628.8772287188181
 20
-729.35620059085807
 30
0.0
 11
-1624.8772287188181
 21
-728.55620989803992
 31
0.0
  0
LINE
  5
187A6
  8
0
 10
-1624.8772287188181
 20
-730.15620989803983
 30
0.0
 11
-1625.3772287188181
 21
-730.05620873464215
 31
0.0
  0
LINE
  5
187A7
  8
0
 10
-1624.8772287188181
 20
-728.55620989803992
 30
0.0
 11
-1625.3772287188181
 21
-728.45620873464225
 31
0.0
  0
LINE
  5
187A8
  8
0
 10
-1628.8772287188181
 20
-730.95620059085797
 30
0.0
 11
-1624.8772287188181
 21
-730.15620989803983
 31
0.0
  0
LINE
  5
187A9
  8
0
 10
-1628.3772287188181
 20
-727.8562017542514
 30
0.0
 11
-1628.8772287188181
 21
-727.75620059085384
 31
0.0
  0
LINE
  5
187AA
  8
0
 10
-1628.3772287188181
 20
-734.25620175425547
 30
0.0
 11
-1628.8772287188181
 21
-734.15620059085791
 31
0.0
  0
LINE
  5
187AB
  8
0
 10
-1628.8772287188181
 20
-734.15620059085791
 30
0.0
 11
-1624.8772287188181
 21
-733.35620989803965
 31
0.0
  0
LINE
  5
187AC
  8
0
 10
-1624.8772287188181
 20
-733.35620989803965
 30
0.0
 11
-1625.3772287188181
 21
-733.25620873464197
 31
0.0
  0
LINE
  5
187AD
  8
0
 10
-1628.3772287188181
 20
-735.85620175425549
 30
0.0
 11
-1628.8772287188181
 21
-735.75620059085782
 31
0.0
  0
LINE
  5
187AE
  8
0
 10
-1628.8772287188181
 20
-735.75620059085782
 30
0.0
 11
-1624.8772287188181
 21
-734.95620989803956
 31
0.0
  0
LINE
  5
187AF
  8
0
 10
-1624.8772287188181
 20
-734.95620989803956
 30
0.0
 11
-1625.3772287188181
 21
-734.85620873464188
 31
0.0
  0
LINE
  5
187B0
  8
0
 10
-1628.3772287188181
 20
-737.4562017542554
 30
0.0
 11
-1628.8772287188181
 21
-737.35620059085772
 31
0.0
  0
LINE
  5
187B1
  8
0
 10
-1628.8772287188181
 20
-737.35620059085772
 30
0.0
 11
-1624.8772287188181
 21
-736.55620989803947
 31
0.0
  0
LINE
  5
187B2
  8
0
 10
-1624.8772287188181
 20
-736.55620989803947
 30
0.0
 11
-1625.3772287188181
 21
-736.45620873464179
 31
0.0
  0
LINE
  5
187B3
  8
0
 10
-1295.9490384744461
 20
-927.69276814324155
 30
0.0
 11
-1301.2490349843081
 21
-926.19276814324144
 31
0.0
  0
LINE
  5
187B4
  8
0
 10
-1301.2490349843081
 20
-926.19276814324144
 30
0.0
 11
-1330.9490349841999
 21
-926.19276814324155
 31
0.0
  0
LINE
  5
187B5
  8
0
 10
-1295.9490384744461
 20
-927.69276814324155
 30
0.0
 11
-1301.249041964692
 21
-929.19276814324155
 31
0.0
  0
LINE
  5
187B6
  8
0
 10
-1330.949030330502
 20
-924.19272160734363
 30
0.0
 11
-1330.9490466180659
 21
-931.19272160734351
 31
0.0
  0
LINE
  5
187B7
  8
0
 10
-1301.249041964692
 20
-929.19276814324155
 30
0.0
 11
-1330.9490419645849
 21
-929.19276814324166
 31
0.0
  0
LINE
  5
187B8
  8
0
 10
-1330.949030330502
 20
-924.19272160734363
 30
0.0
 11
-1332.0490338206971
 21
-924.19272160734351
 31
0.0
  0
ARC
  5
187B9
  8
0
 10
-1332.0490338206971
 20
-925.69272160734351
 30
0.0
 40
1.5
 50
90.0
 51
179.9998666844684
  0
LINE
  5
187BA
  8
0
 10
-1330.9490466180659
 20
-931.19272160734351
 30
0.0
 11
-1332.049043127877
 21
-931.19272160734351
 31
0.0
  0
LINE
  5
187BB
  8
0
 10
-1333.549033820693
 20
-925.692718117151
 30
0.0
 11
-1333.5490431278729
 21
-929.69271811715112
 31
0.0
  0
ARC
  5
187BC
  8
0
 10
-1332.049043127877
 20
-929.6927216073434
 30
0.0
 40
1.5
 50
179.9998666844684
 51
270.0
  0
LINE
  5
187BD
  8
1CENTER
 10
-1294.5182435569809
 20
-927.69272160734351
 30
0.0
 11
-1334.619314883593
 21
-927.69272160734351
 31
0.0
  0
LINE
  5
187BE
  8
0
 10
-1298.0490359281241
 20
-926.59839779334845
 30
0.0
 11
-1297.2490404940729
 21
-928.56073288222387
 31
0.0
  0
LINE
  5
187BF
  8
0
 10
-1297.2490404940729
 20
-928.56073288222387
 30
0.0
 11
-1296.937270637821
 21
-927.97245630718135
 31
0.0
  0
LINE
  5
187C0
  8
0
 10
-1320.4490338209141
 20
-925.69276814324132
 30
0.0
 11
-1319.6490431280961
 21
-929.69276814324144
 31
0.0
  0
LINE
  5
187C1
  8
0
 10
-1309.24903382091
 20
-925.69276814324132
 30
0.0
 11
-1308.4490431280869
 21
-929.69276814324144
 31
0.0
  0
LINE
  5
187C2
  8
0
 10
-1306.0490338209099
 20
-925.69276814324132
 30
0.0
 11
-1305.2490431280869
 21
-929.69276814324144
 31
0.0
  0
LINE
  5
187C3
  8
0
 10
-1305.2490431280869
 20
-929.69276814324144
 30
0.0
 11
-1305.14904196469
 21
-929.19276814324132
 31
0.0
  0
LINE
  5
187C4
  8
0
 10
-1304.5490349843069
 20
-926.19276814324144
 30
0.0
 11
-1304.44903382091
 21
-925.69276814324132
 31
0.0
  0
LINE
  5
187C5
  8
0
 10
-1308.4490431280869
 20
-929.69276814324144
 30
0.0
 11
-1308.3490419646901
 21
-929.19276814324132
 31
0.0
  0
LINE
  5
187C6
  8
0
 10
-1306.849043128087
 20
-929.69276814324144
 30
0.0
 11
-1306.7490419646899
 21
-929.19276814324132
 31
0.0
  0
LINE
  5
187C7
  8
0
 10
-1306.149034984307
 20
-926.19276814324144
 30
0.0
 11
-1306.0490338209099
 21
-925.69276814324132
 31
0.0
  0
LINE
  5
187C8
  8
0
 10
-1307.7490349843069
 20
-926.19276814324144
 30
0.0
 11
-1307.6490338209101
 21
-925.69276814324132
 31
0.0
  0
LINE
  5
187C9
  8
0
 10
-1307.6490338209101
 20
-925.69276814324132
 30
0.0
 11
-1306.849043128087
 21
-929.69276814324144
 31
0.0
  0
LINE
  5
187CA
  8
0
 10
-1298.849041547679
 20
-929.01354698663067
 30
0.0
 11
-1298.666277405051
 21
-928.4617975228274
 31
0.0
  0
LINE
  5
187CB
  8
0
 10
-1302.0490431280871
 20
-929.69276814324144
 30
0.0
 11
-1301.94904196469
 21
-929.19276814324132
 31
0.0
  0
LINE
  5
187CC
  8
0
 10
-1303.649043128087
 20
-929.69276814324144
 30
0.0
 11
-1303.5490419646901
 21
-929.19276814324132
 31
0.0
  0
LINE
  5
187CD
  8
0
 10
-1300.449042601284
 20
-929.46636109103736
 30
0.0
 11
-1300.3197719036541
 21
-928.92976735576644
 31
0.0
  0
LINE
  5
187CE
  8
0
 10
-1299.7618043868699
 20
-926.61368274045014
 30
0.0
 11
-1299.6490348745201
 21
-926.14558428530006
 31
0.0
  0
LINE
  5
187CF
  8
0
 10
-1302.949034984307
 20
-926.19276814324144
 30
0.0
 11
-1302.8490338209101
 21
-925.69276814324132
 31
0.0
  0
LINE
  5
187D0
  8
0
 10
-1301.3490349843071
 20
-926.19276814324144
 30
0.0
 11
-1301.24903382091
 21
-925.69276814324132
 31
0.0
  0
LINE
  5
187D1
  8
0
 10
-1298.2004717245641
 20
-927.05556963397964
 30
0.0
 11
-1298.0490359281241
 21
-926.59839779334845
 31
0.0
  0
LINE
  5
187D2
  8
0
 10
-1299.6490348745201
 20
-926.14558428530006
 30
0.0
 11
-1298.849041547679
 21
-929.01354698663067
 31
0.0
  0
LINE
  5
187D3
  8
0
 10
-1302.8490338209101
 20
-925.69276814324132
 30
0.0
 11
-1302.0490431280871
 21
-929.69276814324144
 31
0.0
  0
LINE
  5
187D4
  8
0
 10
-1301.24903382091
 20
-925.69276814324132
 30
0.0
 11
-1300.449042601284
 21
-929.46636109103736
 31
0.0
  0
LINE
  5
187D5
  8
0
 10
-1304.44903382091
 20
-925.69276814324132
 30
0.0
 11
-1303.649043128087
 21
-929.69276814324144
 31
0.0
  0
LINE
  5
187D6
  8
0
 10
-1317.2490338209141
 20
-925.69276814324132
 30
0.0
 11
-1316.449043128096
 21
-929.69276814324144
 31
0.0
  0
LINE
  5
187D7
  8
0
 10
-1316.449043128096
 20
-929.69276814324144
 30
0.0
 11
-1316.349041964698
 21
-929.19276814324132
 31
0.0
  0
LINE
  5
187D8
  8
0
 10
-1315.7490349843069
 20
-926.19276814324144
 30
0.0
 11
-1315.6490338209101
 21
-925.69276814324132
 31
0.0
  0
LINE
  5
187D9
  8
0
 10
-1318.0490431280959
 20
-929.69276814324144
 30
0.0
 11
-1317.9490419646991
 21
-929.19276814324132
 31
0.0
  0
LINE
  5
187DA
  8
0
 10
-1319.6490431280961
 20
-929.69276814324144
 30
0.0
 11
-1319.5490419646981
 21
-929.19276814324132
 31
0.0
  0
LINE
  5
187DB
  8
0
 10
-1317.3490349843121
 20
-926.19276814324144
 30
0.0
 11
-1317.2490338209141
 21
-925.69276814324132
 31
0.0
  0
LINE
  5
187DC
  8
0
 10
-1318.949034984312
 20
-926.19276814324144
 30
0.0
 11
-1318.849033820914
 21
-925.69276814324132
 31
0.0
  0
LINE
  5
187DD
  8
0
 10
-1318.849033820914
 20
-925.69276814324132
 30
0.0
 11
-1318.0490431280959
 21
-929.69276814324144
 31
0.0
  0
LINE
  5
187DE
  8
0
 10
-1311.649043128092
 20
-929.69276814324144
 30
0.0
 11
-1311.549041964694
 21
-929.19276814324132
 31
0.0
  0
LINE
  5
187DF
  8
0
 10
-1310.0490431280871
 20
-929.69276814324144
 30
0.0
 11
-1309.94904196469
 21
-929.19276814324132
 31
0.0
  0
LINE
  5
187E0
  8
0
 10
-1314.849043128092
 20
-929.69276814324144
 30
0.0
 11
-1314.749041964694
 21
-929.19276814324132
 31
0.0
  0
LINE
  5
187E1
  8
0
 10
-1313.2490431280919
 20
-929.69276814324144
 30
0.0
 11
-1313.1490419646941
 21
-929.19276814324132
 31
0.0
  0
LINE
  5
187E2
  8
0
 10
-1309.3490349843071
 20
-926.19276814324144
 30
0.0
 11
-1309.24903382091
 21
-925.69276814324132
 31
0.0
  0
LINE
  5
187E3
  8
0
 10
-1310.9490349843079
 20
-926.19276814324144
 30
0.0
 11
-1310.8490338209101
 21
-925.69276814324132
 31
0.0
  0
LINE
  5
187E4
  8
0
 10
-1314.1490349843079
 20
-926.19276814324144
 30
0.0
 11
-1314.0490338209099
 21
-925.69276814324132
 31
0.0
  0
LINE
  5
187E5
  8
0
 10
-1312.5490349843069
 20
-926.19276814324144
 30
0.0
 11
-1312.44903382091
 21
-925.69276814324132
 31
0.0
  0
LINE
  5
187E6
  8
0
 10
-1312.44903382091
 20
-925.69276814324132
 30
0.0
 11
-1311.649043128092
 21
-929.69276814324144
 31
0.0
  0
LINE
  5
187E7
  8
0
 10
-1310.8490338209101
 20
-925.69276814324132
 30
0.0
 11
-1310.0490431280871
 21
-929.69276814324144
 31
0.0
  0
LINE
  5
187E8
  8
0
 10
-1314.0490338209099
 20
-925.69276814324132
 30
0.0
 11
-1313.2490431280919
 21
-929.69276814324144
 31
0.0
  0
LINE
  5
187E9
  8
0
 10
-1315.6490338209101
 20
-925.69276814324132
 30
0.0
 11
-1314.849043128092
 21
-929.69276814324144
 31
0.0
  0
LINE
  5
187EA
  8
0
 10
-1325.3490349843159
 20
-926.19276814324144
 30
0.0
 11
-1325.2490338209191
 21
-925.69276814324132
 31
0.0
  0
LINE
  5
187EB
  8
0
 10
-1325.2490338209191
 20
-925.69276814324132
 30
0.0
 11
-1324.4490431280999
 21
-929.69276814324144
 31
0.0
  0
LINE
  5
187EC
  8
0
 10
-1324.4490431280999
 20
-929.69276814324144
 30
0.0
 11
-1324.3490419647021
 21
-929.19276814324132
 31
0.0
  0
LINE
  5
187ED
  8
0
 10
-1323.749034984316
 20
-926.19276814324144
 30
0.0
 11
-1323.6490338209189
 21
-925.69276814324132
 31
0.0
  0
LINE
  5
187EE
  8
0
 10
-1322.1490349843159
 20
-926.19276814324144
 30
0.0
 11
-1322.049033820919
 21
-925.69276814324132
 31
0.0
  0
LINE
  5
187EF
  8
0
 10
-1322.049033820919
 20
-925.69276814324132
 30
0.0
 11
-1321.2490431281001
 21
-929.69276814324144
 31
0.0
  0
LINE
  5
187F0
  8
0
 10
-1322.8490431281
 20
-929.69276814324144
 30
0.0
 11
-1322.749041964702
 21
-929.19276814324132
 31
0.0
  0
LINE
  5
187F1
  8
0
 10
-1321.2490431281001
 20
-929.69276814324144
 30
0.0
 11
-1321.149041964703
 21
-929.19276814324132
 31
0.0
  0
LINE
  5
187F2
  8
0
 10
-1323.6490338209189
 20
-925.69276814324132
 30
0.0
 11
-1322.8490431281
 21
-929.69276814324144
 31
0.0
  0
LINE
  5
187F3
  8
0
 10
-1320.5490349843119
 20
-926.19276814324144
 30
0.0
 11
-1320.4490338209141
 21
-925.69276814324132
 31
0.0
  0
LINE
  5
187F4
  8
0
 10
-1326.9490349843161
 20
-926.19276814324144
 30
0.0
 11
-1326.8490338209181
 21
-925.69276814324132
 31
0.0
  0
LINE
  5
187F5
  8
0
 10
-1326.8490338209181
 20
-925.69276814324132
 30
0.0
 11
-1326.0490431281
 21
-929.69276814324144
 31
0.0
  0
LINE
  5
187F6
  8
0
 10
-1326.0490431281
 20
-929.69276814324144
 30
0.0
 11
-1325.949041964702
 21
-929.19276814324132
 31
0.0
  0
LINE
  5
187F7
  8
0
 10
-1328.549034984316
 20
-926.19276814324144
 30
0.0
 11
-1328.449033820918
 21
-925.69276814324132
 31
0.0
  0
LINE
  5
187F8
  8
0
 10
-1328.449033820918
 20
-925.69276814324132
 30
0.0
 11
-1327.6490431280999
 21
-929.69276814324144
 31
0.0
  0
LINE
  5
187F9
  8
0
 10
-1327.6490431280999
 20
-929.69276814324144
 30
0.0
 11
-1327.5490419647019
 21
-929.19276814324132
 31
0.0
  0
LINE
  5
187FA
  8
0
 10
-1330.1490349843159
 20
-926.19276814324144
 30
0.0
 11
-1330.0490338209181
 21
-925.69276814324132
 31
0.0
  0
LINE
  5
187FB
  8
0
 10
-1330.0490338209181
 20
-925.69276814324132
 30
0.0
 11
-1329.2490431281001
 21
-929.69276814324144
 31
0.0
  0
LINE
  5
187FC
  8
0
 10
-1329.2490431281001
 20
-929.69276814324144
 30
0.0
 11
-1329.1490419647021
 21
-929.19276814324132
 31
0.0
  0
TEXT
  5
187FD
  8
1DIM
 10
-1675.2522752547161
 20
-870.21632870410679
 30
0.0
 40
3.5
  1
320 
  0
LINE
  5
187FE
  8
0
  6
BYBLOCK
 10
-1512.8772752547161
 20
-870.3804303241069
 30
0.0
 11
-1510.8772752547161
 21
-870.91632870410695
 31
0.0
  0
LINE
  5
187FF
  8
0
  6
BYBLOCK
 10
-1510.8772752547161
 20
-870.91632870410695
 30
0.0
 11
-1512.8772752547161
 21
-871.45222708410711
 31
0.0
  0
LINE
  5
18800
  8
0
  6
BYBLOCK
 10
-1510.8772752547161
 20
-870.91632870410695
 30
0.0
 11
-1512.8772752547161
 21
-870.91632870410695
 31
0.0
  0
LINE
  5
18801
  8
0
  6
BYBLOCK
 10
-1828.8772752547161
 20
-871.45222708410711
 30
0.0
 11
-1830.8772752547161
 21
-870.91632870410695
 31
0.0
  0
LINE
  5
18802
  8
0
  6
BYBLOCK
 10
-1830.8772752547161
 20
-870.91632870410695
 30
0.0
 11
-1828.8772752547161
 21
-870.3804303241069
 31
0.0
  0
LINE
  5
18803
  8
0
  6
BYBLOCK
 10
-1830.8772752547161
 20
-870.91632870410695
 30
0.0
 11
-1828.8772752547161
 21
-870.91632870410695
 31
0.0
  0
TEXT
  5
18804
  8
1DIM
 10
-1597.6689445651391
 20
-971.73565442515314
 30
0.0
 40
3.5
  1
130 
  0
LINE
  5
18805
  8
0
  6
BYBLOCK
 10
-1530.8772778984719
 20
-971.89975604515325
 30
0.0
 11
-1528.8772778984719
 21
-972.43565442515319
 31
0.0
  0
LINE
  5
18806
  8
0
  6
BYBLOCK
 10
-1528.8772778984719
 20
-972.43565442515319
 30
0.0
 11
-1530.8772778984719
 21
-972.97155280515312
 31
0.0
  0
LINE
  5
18807
  8
0
  6
BYBLOCK
 10
-1528.8772778984719
 20
-972.43565442515319
 30
0.0
 11
-1530.8772778984719
 21
-972.43565442515319
 31
0.0
  0
LINE
  5
18808
  8
0
  6
BYBLOCK
 10
-1656.8772778984719
 20
-972.97155280515312
 30
0.0
 11
-1658.8772778984719
 21
-972.43565442515319
 31
0.0
  0
LINE
  5
18809
  8
0
  6
BYBLOCK
 10
-1658.8772778984719
 20
-972.43565442515319
 30
0.0
 11
-1656.8772778984719
 21
-971.89975604515325
 31
0.0
  0
LINE
  5
1880A
  8
0
  6
BYBLOCK
 10
-1658.8772778984719
 20
-972.43565442515319
 30
0.0
 11
-1656.8772778984719
 21
-972.43565442515319
 31
0.0
  0
TEXT
  5
1880B
  8
1DIM
 10
-1673.7939419213831
 20
-1005.1879226150739
 30
0.0
 40
3.5
  1
88 
  0
LINE
  5
1880C
  8
0
  6
BYBLOCK
 10
-1712.8772752547161
 20
-1006.4238209950749
 30
0.0
 11
-1714.8772752547161
 21
-1005.887922615074
 31
0.0
  0
LINE
  5
1880D
  8
0
  6
BYBLOCK
 10
-1714.8772752547161
 20
-1005.887922615074
 30
0.0
 11
-1712.8772752547161
 21
-1005.3520242350741
 31
0.0
  0
LINE
  5
1880E
  8
0
  6
BYBLOCK
 10
-1714.8772752547161
 20
-1005.887922615074
 30
0.0
 11
-1712.8772752547161
 21
-1005.887922615074
 31
0.0
  0
LINE
  5
1880F
  8
0
  6
BYBLOCK
 10
-1628.8772752547161
 20
-1005.3520242350741
 30
0.0
 11
-1626.8772752547161
 21
-1005.887922615074
 31
0.0
  0
LINE
  5
18810
  8
0
  6
BYBLOCK
 10
-1626.8772752547161
 20
-1005.887922615074
 30
0.0
 11
-1628.8772752547161
 21
-1006.4238209950749
 31
0.0
  0
LINE
  5
18811
  8
0
  6
BYBLOCK
 10
-1626.8772752547161
 20
-1005.887922615074
 30
0.0
 11
-1628.8772752547161
 21
-1005.887922615074
 31
0.0
  0
TEXT
  5
18812
  8
1DIM
 10
-1281.649038474284
 20
-921.52605433856775
 30
0.0
 40
3.5
  1
17 
 50
90.0
  0
LINE
  5
18813
  8
0
  6
BYBLOCK
 10
-1280.413140094284
 20
-925.69272160734351
 30
0.0
 11
-1280.949038474284
 21
-927.69272160734351
 31
0.0
  0
LINE
  5
18814
  8
0
  6
BYBLOCK
 10
-1280.949038474284
 20
-927.69272160734351
 30
0.0
 11
-1281.4849368542839
 21
-925.69272160734351
 31
0.0
  0
LINE
  5
18815
  8
0
  6
BYBLOCK
 10
-1280.949038474284
 20
-927.69272160734351
 30
0.0
 11
-1280.949038474284
 21
-925.69272160734351
 31
0.0
  0
LINE
  5
18816
  8
0
  6
BYBLOCK
 10
-1281.4849368542839
 20
-912.69272040312467
 30
0.0
 11
-1280.949038474284
 21
-910.69272040312467
 31
0.0
  0
LINE
  5
18817
  8
0
  6
BYBLOCK
 10
-1280.949038474284
 20
-910.69272040312467
 30
0.0
 11
-1280.413140094284
 21
-912.69272040312467
 31
0.0
  0
LINE
  5
18818
  8
0
  6
BYBLOCK
 10
-1280.949038474284
 20
-910.69272040312467
 30
0.0
 11
-1280.949038474284
 21
-912.69272040312467
 31
0.0
  0
TEXT
  5
18819
  8
1DIM
 10
-1271.649038474284
 20
-933.54272051941382
 30
0.0
 40
3.5
  1
35.2 
 50
90.0
  0
LINE
  5
1881A
  8
0
  6
BYBLOCK
 10
-1270.413140094284
 20
-943.89272063570274
 30
0.0
 11
-1270.949038474284
 21
-945.89272063570274
 31
0.0
  0
LINE
  5
1881B
  8
0
  6
BYBLOCK
 10
-1270.949038474284
 20
-945.89272063570274
 30
0.0
 11
-1271.4849368542839
 21
-943.89272063570274
 31
0.0
  0
LINE
  5
1881C
  8
0
  6
BYBLOCK
 10
-1270.949038474284
 20
-945.89272063570274
 30
0.0
 11
-1270.949038474284
 21
-943.89272063570274
 31
0.0
  0
LINE
  5
1881D
  8
0
  6
BYBLOCK
 10
-1271.4849368542839
 20
-912.69272040312467
 30
0.0
 11
-1270.949038474284
 21
-910.69272040312467
 31
0.0
  0
LINE
  5
1881E
  8
0
  6
BYBLOCK
 10
-1270.949038474284
 20
-910.69272040312467
 30
0.0
 11
-1270.413140094284
 21
-912.69272040312467
 31
0.0
  0
LINE
  5
1881F
  8
0
  6
BYBLOCK
 10
-1270.949038474284
 20
-910.69272040312467
 30
0.0
 11
-1270.949038474284
 21
-912.69272040312467
 31
0.0
  0
LINE
  5
18820
  8
1DIM
 10
-1308.6340142984079
 20
-873.5851807860887
 30
0.0
 11
-1313.8265927373541
 21
-861.00222482606637
 31
0.0
  0
LINE
  5
18821
  8
1DIM
 10
-1313.8265927373541
 20
-861.00222482606637
 30
0.0
 11
-1281.926592737354
 21
-861.00222482606637
 31
0.0
  0
LINE
  5
18822
  8
0
  6
BYBLOCK
 10
-1308.1386384252801
 20
-873.38075520547397
 30
0.0
 11
-1307.871087638265
 21
-875.43394873021873
 31
0.0
  0
LINE
  5
18823
  8
0
  6
BYBLOCK
 10
-1307.871087638265
 20
-875.43394873021873
 30
0.0
 11
-1309.1293901715351
 21
-873.78960636670354
 31
0.0
  0
LINE
  5
18824
  8
0
  6
BYBLOCK
 10
-1307.871087638265
 20
-875.43394873021873
 30
0.0
 11
-1308.6340142984079
 21
-873.5851807860887
 31
0.0
  0
LINE
  5
18825
  8
1HATCH
 10
-1316.717638898946
 20
-873.51173465375575
 30
0.0
 11
-1319.9939372318929
 21
-855.00087880894239
 31
0.0
  0
LINE
  5
18826
  8
1HATCH
 10
-1319.9939372318929
 20
-855.00087880894239
 30
0.0
 11
-1311.4606038985601
 21
-855.00087880894239
 31
0.0
  0
LINE
  5
18827
  8
0
  6
BYBLOCK
 10
-1316.1899422635429
 20
-873.41833586002258
 30
0.0
 11
-1316.3690698522059
 21
-875.48112532593188
 31
0.0
  0
LINE
  5
18828
  8
0
  6
BYBLOCK
 10
-1316.3690698522059
 20
-875.48112532593188
 30
0.0
 11
-1317.2453355343489
 21
-873.60513344748904
 31
0.0
  0
LINE
  5
18829
  8
0
  6
BYBLOCK
 10
-1316.3690698522059
 20
-875.48112532593188
 30
0.0
 11
-1316.717638898946
 21
-873.51173465375575
 31
0.0
  0
TEXT
  5
1882A
  8
1DIM
 10
-1386.493096533309
 20
-882.12523958275756
 30
0.0
 40
3.5
  1
123 
  0
LINE
  5
1882B
  8
0
  6
BYBLOCK
 10
-1441.8704897123689
 20
-883.36113796275765
 30
0.0
 11
-1443.8704897123689
 21
-882.8252395827576
 31
0.0
  0
LINE
  5
1882C
  8
0
  6
BYBLOCK
 10
-1443.8704897123689
 20
-882.8252395827576
 30
0.0
 11
-1441.8704897123689
 21
-882.28934120275756
 31
0.0
  0
LINE
  5
1882D
  8
0
  6
BYBLOCK
 10
-1443.8704897123689
 20
-882.8252395827576
 30
0.0
 11
-1441.8704897123689
 21
-882.8252395827576
 31
0.0
  0
LINE
  5
1882E
  8
0
  6
BYBLOCK
 10
-1322.9490366875821
 20
-882.28934120275756
 30
0.0
 11
-1320.9490366875821
 21
-882.8252395827576
 31
0.0
  0
LINE
  5
1882F
  8
0
  6
BYBLOCK
 10
-1320.9490366875821
 20
-882.8252395827576
 30
0.0
 11
-1322.9490366875821
 21
-883.36113796275765
 31
0.0
  0
LINE
  5
18830
  8
0
  6
BYBLOCK
 10
-1320.9490366875821
 20
-882.8252395827576
 30
0.0
 11
-1322.9490366875821
 21
-882.8252395827576
 31
0.0
  0
TEXT
  5
18831
  8
1DIM
 10
-1330.782371807617
 20
-959.57379517606182
 30
0.0
 40
3.5
  1
15 
  0
LINE
  5
18832
  8
0
  6
BYBLOCK
 10
-1333.949038474284
 20
-960.8096935560618
 30
0.0
 11
-1335.949038474284
 21
-960.27379517606175
 31
0.0
  0
LINE
  5
18833
  8
0
  6
BYBLOCK
 10
-1335.949038474284
 20
-960.27379517606175
 30
0.0
 11
-1333.949038474284
 21
-959.73789679606193
 31
0.0
  0
LINE
  5
18834
  8
0
  6
BYBLOCK
 10
-1335.949038474284
 20
-960.27379517606175
 30
0.0
 11
-1333.949038474284
 21
-960.27379517606175
 31
0.0
  0
LINE
  5
18835
  8
0
  6
BYBLOCK
 10
-1322.949038474284
 20
-959.73789679606193
 30
0.0
 11
-1320.949038474284
 21
-960.27379517606175
 31
0.0
  0
LINE
  5
18836
  8
0
  6
BYBLOCK
 10
-1320.949038474284
 20
-960.27379517606175
 30
0.0
 11
-1322.949038474284
 21
-960.8096935560618
 31
0.0
  0
LINE
  5
18837
  8
0
  6
BYBLOCK
 10
-1320.949038474284
 20
-960.27379517606175
 30
0.0
 11
-1322.949038474284
 21
-960.27379517606175
 31
0.0
  0
LINE
  5
18838
  8
1DIM
 10
-1405.3344727866411
 20
-914.19296400811743
 30
0.0
 11
-1413.8228359577549
 21
-900.86227380332559
 31
0.0
  0
LINE
  5
18839
  8
1DIM
 10
-1413.8228359577549
 20
-900.86227380332559
 30
0.0
 11
-1449.189502624421
 21
-900.86227380332559
 31
0.0
  0
LINE
  5
1883A
  8
0
  6
BYBLOCK
 10
-1404.882435795296
 20
-913.90512788782928
 30
0.0
 11
-1404.260253751725
 21
-915.87998904202311
 31
0.0
  0
LINE
  5
1883B
  8
0
  6
BYBLOCK
 10
-1404.260253751725
 20
-915.87998904202311
 30
0.0
 11
-1405.7865097779861
 21
-914.48080012840558
 31
0.0
  0
LINE
  5
1883C
  8
0
  6
BYBLOCK
 10
-1404.260253751725
 20
-915.87998904202311
 30
0.0
 11
-1405.3344727866411
 21
-914.19296400811743
 31
0.0
  0
LINE
  5
1883D
  8
1DIM
 10
-1343.8718763355671
 20
-908.69243271212679
 30
0.0
 11
-1351.604369650245
 21
-899.07982466208966
 31
0.0
  0
LINE
  5
1883E
  8
1DIM
 10
-1351.604369650245
 20
-899.07982466208966
 30
0.0
 11
-1399.5710363169119
 21
-899.07982466208966
 31
0.0
  0
LINE
  5
1883F
  8
0
  6
BYBLOCK
 10
-1343.454310113357
 20
-908.35653760386219
 30
0.0
 11
-1342.618298714136
 21
-910.25081108307768
 31
0.0
  0
LINE
  5
18840
  8
0
  6
BYBLOCK
 10
-1342.618298714136
 20
-910.25081108307768
 30
0.0
 11
-1344.289442557777
 21
-909.02832782039138
 31
0.0
  0
LINE
  5
18841
  8
0
  6
BYBLOCK
 10
-1342.618298714136
 20
-910.25081108307768
 30
0.0
 11
-1343.8718763355671
 21
-908.69243271212679
 31
0.0
  0
LINE
  5
18842
  8
1DIM
 10
-1433.28368017867
 20
-952.95624516988585
 30
0.0
 11
-1449.255807043015
 21
-934.96690747823754
 31
0.0
  0
LINE
  5
18843
  8
1DIM
 10
-1449.255807043015
 20
-934.96690747823754
 30
0.0
 11
-1488.8224737096809
 21
-934.96690747823754
 31
0.0
  0
LINE
  5
18844
  8
0
  6
BYBLOCK
 10
-1432.8829413203921
 20
-952.60044263876409
 30
0.0
 11
-1431.9558070430151
 21
-954.45182296311634
 31
0.0
  0
LINE
  5
18845
  8
0
  6
BYBLOCK
 10
-1431.9558070430151
 20
-954.45182296311634
 30
0.0
 11
-1433.6844190369479
 21
-953.3120477010076
 31
0.0
  0
LINE
  5
18846
  8
0
  6
BYBLOCK
 10
-1431.9558070430151
 20
-954.45182296311634
 30
0.0
 11
-1433.28368017867
 21
-952.95624516988585
 31
0.0
  0
LINE
  5
18847
  8
1DIM
 10
-1605.07146581084
 20
-993.57200213966701
 30
0.0
 11
-1588.7651475366749
 21
-1022.054567626237
 31
0.0
  0
LINE
  5
18848
  8
1DIM
 10
-1588.7651475366749
 20
-1022.054567626237
 30
0.0
 11
-1553.3984808700091
 21
-1022.054567626237
 31
0.0
  0
LINE
  5
18849
  8
0
  6
BYBLOCK
 10
-1605.5365407536499
 20
-993.8382583532225
 30
0.0
 11
-1606.065147536676
 21
-991.83631880802488
 31
0.0
  0
LINE
  5
1884A
  8
0
  6
BYBLOCK
 10
-1606.065147536676
 20
-991.83631880802488
 30
0.0
 11
-1604.6063908680301
 21
-993.30574592611174
 31
0.0
  0
LINE
  5
1884B
  8
0
  6
BYBLOCK
 10
-1606.065147536676
 20
-991.83631880802488
 30
0.0
 11
-1605.07146581084
 21
-993.57200213966701
 31
0.0
  0
VIEWPORT
  5
57
 67
     1
  8
0
 10
-6.5737643511288288
 20
78.176145141407545
 30
0.0
 40
685.27982497394692
 41
454.40360154662068
 68
     1
 69
     1
1001
ACAD
1000
MVIEW
1002
{
1070
    16
1010
0.0
1020
0.0
1030
0.0
1010
0.0
1020
0.0
1030
1.0
1040
0.0
1040
454.40360154662068
1040
-6.5737643511288288
1040
78.176145141407545
1040
50.0
1040
0.0
1040
0.0
1070
     0
1070
  1000
1070
     1
1070
     1
1070
     0
1070
     0
1070
     0
1070
     0
1040
0.0
1040
0.0
1040
0.0
1040
10.0
1040
10.0
1040
10.0
1040
10.0
1070
     0
1002
{
1002
}
1002
}
  0
ENDSEC
  0
EOF
