  0
SECTION
  2
HEADER
  9
$ACADVER
  1
AC1012
  9
$DWGCODEPAGE
  3
ansi_932
  9
$INSBASE
 10
0.0
 20
0.0
 30
0.0
  9
$EXTMIN
 10
21.95703421574281
 20
-3.311288812250268
 30
-0.0000000000022832
  9
$EXTMAX
 10
350.5112274895151
 20
253.010224026195
 30
0.0000000000066642
  9
$LIMMIN
 10
0.0
 20
0.0
  9
$LIMMAX
 10
12.0
 20
9.0
  9
$ORTHOMODE
 70
     0
  9
$REGENMODE
 70
     1
  9
$FILLMODE
 70
     1
  9
$QTEXTMODE
 70
     0
  9
$MIRRTEXT
 70
     0
  9
$DRAGMODE
 70
     2
  9
$LTSCALE
 40
0.5
  9
$OSMODE
 70
 14429
  9
$ATTMODE
 70
     1
  9
$TEXTSIZE
 40
4.0
  9
$TRACEWID
 40
0.05
  9
$TEXTSTYLE
  7
STANDARD
  9
$CLAYER
  8
1TEXT
  9
$CELTYPE
  6
BYLAYER
  9
$CECOLOR
 62
   256
  9
$CELTSCALE
 40
1.0
  9
$DELOBJ
 70
     1
  9
$DISPSILH
 70
     0
  9
$DIMSCALE
 40
1.0
  9
$DIMASZ
 40
2.0
  9
$DIMEXO
 40
0.0
  9
$DIMDLI
 40
7.0
  9
$DIMRND
 40
0.0
  9
$DIMDLE
 40
0.0
  9
$DIMEXE
 40
1.0
  9
$DIMTP
 40
0.0
  9
$DIMTM
 40
0.0
  9
$DIMTXT
 40
3.5
  9
$DIMCEN
 40
0.0
  9
$DIMTSZ
 40
0.0
  9
$DIMTOL
 70
     0
  9
$DIMLIM
 70
     0
  9
$DIMTIH
 70
     0
  9
$DIMTOH
 70
     0
  9
$DIMSE1
 70
     0
  9
$DIMSE2
 70
     0
  9
$DIMTAD
 70
     1
  9
$DIMZIN
 70
     8
  9
$DIMBLK
  1

  9
$DIMASO
 70
     1
  9
$DIMSHO
 70
     1
  9
$DIMPOST
  1
 
  9
$DIMAPOST
  1

  9
$DIMALT
 70
     0
  9
$DIMALTD
 70
     2
  9
$DIMALTF
 40
25.4
  9
$DIMLFAC
 40
1.0
  9
$DIMTOFL
 70
     1
  9
$DIMTVP
 40
0.0
  9
$DIMTIX
 70
     0
  9
$DIMSOXD
 70
     0
  9
$DIMSAH
 70
     1
  9
$DIMBLK1
  1
OPEN30
  9
$DIMBLK2
  1
OPEN30
  9
$DIMSTYLE
  2
NEWX10
  9
$DIMCLRD
 70
   256
  9
$DIMCLRE
 70
   256
  9
$DIMCLRT
 70
   201
  9
$DIMTFAC
 40
0.7
  9
$DIMGAP
 40
0.7
  9
$DIMJUST
 70
     0
  9
$DIMSD1
 70
     0
  9
$DIMSD2
 70
     0
  9
$DIMTOLJ
 70
     1
  9
$DIMTZIN
 70
     8
  9
$DIMALTZ
 70
     0
  9
$DIMALTTZ
 70
     0
  9
$DIMFIT
 70
     3
  9
$DIMUPT
 70
     0
  9
$DIMUNIT
 70
     2
  9
$DIMDEC
 70
     2
  9
$DIMTDEC
 70
     4
  9
$DIMALTU
 70
     2
  9
$DIMALTTD
 70
     2
  9
$DIMTXSTY
  7
STANDARD
  9
$DIMAUNIT
 70
     0
  9
$LUNITS
 70
     2
  9
$LUPREC
 70
     4
  9
$SKETCHINC
 40
0.1
  9
$FILLETRAD
 40
0.0
  9
$AUNITS
 70
     0
  9
$AUPREC
 70
     2
  9
$MENU
  1
acad
  9
$ELEVATION
 40
0.0
  9
$PELEVATION
 40
0.0
  9
$THICKNESS
 40
0.0
  9
$LIMCHECK
 70
     0
  9
$CHAMFERA
 40
0.0
  9
$CHAMFERB
 40
0.0
  9
$CHAMFERC
 40
0.0
  9
$CHAMFERD
 40
0.0
  9
$SKPOLY
 70
     0
  9
$TDCREATE
 40
2448750.445422569
  9
$TDUPDATE
 40
2458439.453153623
  9
$TDINDWG
 40
1.1856521181
  9
$TDUSRTIMER
 40
1.1856521181
  9
$USRTIMER
 70
     1
  9
$ANGBASE
 50
0.0
  9
$ANGDIR
 70
     0
  9
$PDMODE
 70
     0
  9
$PDSIZE
 40
0.0
  9
$PLINEWID
 40
1.0
  9
$COORDS
 70
     2
  9
$SPLFRAME
 70
     0
  9
$SPLINETYPE
 70
     6
  9
$SPLINESEGS
 70
     8
  9
$ATTDIA
 70
     0
  9
$ATTREQ
 70
     1
  9
$HANDLING
 70
     1
  9
$HANDSEED
  5
9083
  9
$SURFTAB1
 70
     6
  9
$SURFTAB2
 70
     6
  9
$SURFTYPE
 70
     6
  9
$SURFU
 70
     6
  9
$SURFV
 70
     6
  9
$UCSNAME
  2

  9
$UCSORG
 10
0.0
 20
0.0
 30
0.0
  9
$UCSXDIR
 10
1.0
 20
0.0
 30
0.0
  9
$UCSYDIR
 10
0.0
 20
1.0
 30
0.0
  9
$PUCSNAME
  2

  9
$PUCSORG
 10
0.0
 20
0.0
 30
0.0
  9
$PUCSXDIR
 10
1.0
 20
0.0
 30
0.0
  9
$PUCSYDIR
 10
0.0
 20
1.0
 30
0.0
  9
$USERI1
 70
     0
  9
$USERI2
 70
     0
  9
$USERI3
 70
     0
  9
$USERI4
 70
     0
  9
$USERI5
 70
     0
  9
$USERR1
 40
0.0
  9
$USERR2
 40
0.0
  9
$USERR3
 40
0.0
  9
$USERR4
 40
0.0
  9
$USERR5
 40
0.0
  9
$WORLDVIEW
 70
     1
  9
$SHADEDGE
 70
     3
  9
$SHADEDIF
 70
    70
  9
$TILEMODE
 70
     1
  9
$MAXACTVP
 70
    16
  9
$PINSBASE
 10
0.0
 20
0.0
 30
0.0
  9
$PLIMCHECK
 70
     0
  9
$PEXTMIN
 10
1.000000000000000E+20
 20
1.000000000000000E+20
 30
1.000000000000000E+20
  9
$PEXTMAX
 10
-1.000000000000000E+20
 20
-1.000000000000000E+20
 30
-1.000000000000000E+20
  9
$PLIMMIN
 10
-220.1847950731335
 20
-136.082518103414
  9
$PLIMMAX
 10
199.761860200304
 20
160.8434767696328
  9
$UNITMODE
 70
     0
  9
$VISRETAIN
 70
     0
  9
$PLINEGEN
 70
     0
  9
$PSLTSCALE
 70
     1
  9
$TREEDEPTH
 70
  3020
  9
$PICKSTYLE
 70
     1
  9
$CMLSTYLE
  2
STANDARD
  9
$CMLJUST
 70
     0
  9
$CMLSCALE
 40
1.0
  9
$SAVEIMAGES
 70
     1
  0
ENDSEC
  0
SECTION
  2
CLASSES
  0
CLASS
  1
LWPOLYLINE
  2
AcDbPolyline
  3
ObjectDBX Classes
 90
    32768
280
     0
281
     1
  0
CLASS
  1
DICTIONARYVAR
  2
AcDbDictionaryVar
  3
ObjectDBX Classes
 90
        0
280
     0
281
     0
  0
CLASS
  1
HATCH
  2
AcDbHatch
  3
ObjectDBX Classes
 90
    32768
280
     0
281
     1
  0
CLASS
  1
IDBUFFER
  2
AcDbIdBuffer
  3
ObjectDBX Classes
 90
    32768
280
     0
281
     0
  0
CLASS
  1
ACDBDICTIONARYWDFLT
  2
AcDbDictionaryWithDefault
  3
ObjectDBX Classes
 90
    32768
280
     0
281
     0
  0
CLASS
  1
MATERIAL
  2
AcDbMaterial
  3
ObjectDBX Classes
 90
     1153
280
     0
281
     0
  0
CLASS
  1
VISUALSTYLE
  2
AcDbVisualStyle
  3
ObjectDBX Classes
 90
     4095
280
     0
281
     0
  0
CLASS
  1
TABLESTYLE
  2
AcDbTableStyle
  3
ObjectDBX Classes
 90
     4095
280
     0
281
     0
  0
CLASS
  1
SCALE
  2
AcDbScale
  3
ObjectDBX Classes
 90
     1153
280
     0
281
     0
  0
CLASS
  1
MLEADERSTYLE
  2
AcDbMLeaderStyle
  3
ACDB_MLEADERSTYLE_CLASS
 90
     4095
280
     0
281
     0
  0
CLASS
  1
CELLSTYLEMAP
  2
AcDbCellStyleMap
  3
ObjectDBX Classes
 90
     1152
280
     0
281
     0
  0
CLASS
  1
ACDBPLACEHOLDER
  2
AcDbPlaceHolder
  3
ObjectDBX Classes
 90
        0
280
     0
281
     0
  0
CLASS
  1
LAYOUT
  2
AcDbLayout
  3
ObjectDBX Classes
 90
        0
280
     0
281
     0
  0
CLASS
  1
DIMASSOC
  2
AcDbDimAssoc
  3
"AcDbDimAssoc|Product Desc:     AcDim ARX App For Dimension|Company:          Autodesk, Inc.|WEB Address:      www.autodesk.com"
 90
        0
280
     0
281
     0
  0
CLASS
  1
SORTENTSTABLE
  2
AcDbSortentsTable
  3
ObjectDBX Classes
 90
    32768
280
     0
281
     0
  0
CLASS
  1
ACAD_EVALUATION_GRAPH
  2
AcDbEvalGraph
  3
ObjectDBX Classes
 90
     1153
280
     0
281
     0
  0
CLASS
  1
ACAECUSTOBJ
  2
AcAeEditorObj
  3
AcAeEditorObj
 90
   -31744
280
     1
281
     0
  0
CLASS
  1
ACDB_DYNAMICBLOCKPURGEPREVENTER_VERSION
  2
AcDbDynamicBlockPurgePreventer
  3
ObjectDBX Classes
 90
     1153
280
     0
281
     0
  0
CLASS
  1
AEC_REFEDIT_STATUS_TRACKER
  2
AecDbRefEditStatusTracker
  3
AecArchBase60|Product Desc: Autodesk Architectural Desktop 2007 |Company: Autodesk,Inc. |WEB Address: www.autodesk.com
 90
      129
280
     1
281
     0
  0
CLASS
  1
NPOCOLLECTION
  2
AcDbImpNonPersistentObjectsCollection
  3
ObjectDBX Classes
 90
     1153
280
     1
281
     0
  0
CLASS
  1
EXACTERMXREFMAP
  2
ExAcTermXrefMap
  3
EXAC_SERVICE
 90
     1025
280
     1
281
     0
  0
CLASS
  1
EXACXREFPANELOBJECT
  2
ExAcXREFPanelObject
  3
EXAC_ESW
 90
     1025
280
     1
281
     0
  0
CLASS
  1
SUN
  2
AcDbSun
  3
SCENEOE
 90
     1153
280
     0
281
     0
  0
CLASS
  1
XRECORD
  2
AcDbXrecord
  3
ObjectDBX Classes
 90
    32768
280
     0
281
     0
  0
ENDSEC
  0
SECTION
  2
TABLES
  0
TABLE
  2
VPORT
  5
8
330
0
100
AcDbSymbolTable
 70
     1
  0
VPORT
  5
BE1
330
8
100
AcDbSymbolTableRecord
100
AcDbViewportTableRecord
  2
*ACTIVE
 70
     0
 10
0.0
 20
0.0
 11
1.0
 21
1.0
 12
186.2341308526289
 22
124.8494676069724
 13
0.0
 23
0.0
 14
1.0
 24
1.0
 15
0.0
 25
0.0
 16
0.0
 26
0.0
 36
1.0
 17
0.0
 27
0.0
 37
0.0
 40
275.2083611528571
 41
2.143386897404203
 42
50.0
 43
0.0
 44
0.0
 50
0.0
 51
0.0
 71
    16
 72
  1000
 73
     1
 74
     1
 75
     0
 76
     0
 77
     0
 78
     0
1001
ACAD_NAV_VCDISPLAY
1070
     3
  0
ENDTAB
  0
TABLE
  2
LTYPE
  5
5
330
0
100
AcDbSymbolTable
 70
     4
  0
LTYPE
  5
13
330
5
100
AcDbSymbolTableRecord
100
AcDbLinetypeTableRecord
  2
BYBLOCK
 70
     0
  3

 72
    65
 73
     0
 40
0.0
  0
LTYPE
  5
14
330
5
100
AcDbSymbolTableRecord
100
AcDbLinetypeTableRecord
  2
BYLAYER
 70
     0
  3

 72
    65
 73
     0
 40
0.0
  0
LTYPE
  5
15
330
5
100
AcDbSymbolTableRecord
100
AcDbLinetypeTableRecord
  2
CONTINUOUS
 70
     0
  3
Solid line
 72
    65
 73
     0
 40
0.0
  0
LTYPE
  5
752
330
5
100
AcDbSymbolTableRecord
100
AcDbLinetypeTableRecord
  2
CENTER2
 70
     0
  3
Center (.5x) ___ _ ___ _ ___ _ ___ _ ___ _ ___
 72
    65
 73
     4
 40
28.575
 49
19.05
 74
     0
 49
-3.175
 74
     0
 49
3.175
 74
     0
 49
-3.175
 74
     0
  0
LTYPE
  5
72A0
330
5
100
AcDbSymbolTableRecord
100
AcDbLinetypeTableRecord
  2
HIDDEN
 70
     0
  3
Hidden __ __ __ __ __ __ __ __ __ __ __ __ __ _
 72
    65
 73
     2
 40
9.524999999999999
 49
6.35
 74
     0
 49
-3.175
 74
     0
  0
LTYPE
  5
7B93
330
5
100
AcDbSymbolTableRecord
100
AcDbLinetypeTableRecord
  2
PHANTOM2
 70
     0
  3
Phantom (0.5x) ___ _ _ ___ _ _ ___ _ _ ___ _ _
 72
    65
 73
     6
 40
31.75
 49
15.875
 74
     0
 49
-3.175
 74
     0
 49
3.175
 74
     0
 49
-3.175
 74
     0
 49
3.175
 74
     0
 49
-3.175
 74
     0
  0
LTYPE
  5
8F8E
330
5
100
AcDbSymbolTableRecord
100
AcDbLinetypeTableRecord
  2
A3WAKUDAKE|CENTER2
 70
    48
  3
Center (.5x) ___ _ ___ _ ___ _ ___ _ ___ _ ___
 72
    65
 73
     4
 40
28.575
 49
19.05
 74
     0
 49
-3.175
 74
     0
 49
3.175
 74
     0
 49
-3.175
 74
     0
  0
ENDTAB
  0
TABLE
  2
LAYER
  5
2
102
{ACAD_XDICTIONARY
360
FE0
102
}
330
0
100
AcDbSymbolTable
 70
     8
  0
LAYER
  5
F
102
{ACAD_XDICTIONARY
360
C40
102
}
330
2
100
AcDbSymbolTableRecord
100
AcDbLayerTableRecord
  2
0
 70
     0
 62
     7
  6
CONTINUOUS
  0
LAYER
  5
753
102
{ACAD_XDICTIONARY
360
C46
102
}
330
2
100
AcDbSymbolTableRecord
100
AcDbLayerTableRecord
  2
1CENTER
 70
     0
 62
     7
  6
CENTER2
  0
LAYER
  5
BC3
102
{ACAD_XDICTIONARY
360
C4A
102
}
330
2
100
AcDbSymbolTableRecord
100
AcDbLayerTableRecord
  2
1TEXT
 70
     0
 62
     7
  6
CONTINUOUS
  0
LAYER
  5
7013
102
{ACAD_XDICTIONARY
360
7014
102
}
330
2
100
AcDbSymbolTableRecord
100
AcDbLayerTableRecord
  2
1DIM
 70
     0
 62
     7
  6
CONTINUOUS
  0
LAYER
  5
7058
102
{ACAD_XDICTIONARY
360
7059
102
}
330
2
100
AcDbSymbolTableRecord
100
AcDbLayerTableRecord
  2
1HATCH
 70
     0
 62
     7
  6
CONTINUOUS
  0
LAYER
  5
72A5
330
2
100
AcDbSymbolTableRecord
100
AcDbLayerTableRecord
  2
1HIDDEN
 70
     0
 62
     7
  6
HIDDEN
  0
LAYER
  5
771F
330
2
100
AcDbSymbolTableRecord
100
AcDbLayerTableRecord
  2
1PHANTOM
 70
     0
 62
     7
  6
PHANTOM2
  0
LAYER
  5
7B94
330
2
100
AcDbSymbolTableRecord
100
AcDbLayerTableRecord
  2
01
 70
     0
 62
     1
  6
CONTINUOUS
  0
ENDTAB
  0
TABLE
  2
STYLE
  5
3
330
0
100
AcDbSymbolTable
 70
     1
  0
STYLE
  5
10
330
3
100
AcDbSymbolTableRecord
100
AcDbTextStyleTableRecord
  2
STANDARD
 70
     0
 40
0.0
 41
1.0
 50
0.0
 71
     0
 42
4.0
  3
txt.shx
  4
extfont.shx
  0
ENDTAB
  0
TABLE
  2
VIEW
  5
6
330
0
100
AcDbSymbolTable
 70
     0
  0
ENDTAB
  0
TABLE
  2
UCS
  5
7
330
0
100
AcDbSymbolTable
 70
     5
  0
UCS
  5
6E5E
330
7
100
AcDbSymbolTableRecord
100
AcDbUCSTableRecord
  2
U
 70
     0
 10
0.0
 20
0.0
 30
0.0
 11
1.0
 21
0.0
 31
0.0
 12
0.0
 22
2.220446049250313E-16
 32
1.0
 79
     0
146
0.0
  0
UCS
  5
6E5F
330
7
100
AcDbSymbolTableRecord
100
AcDbUCSTableRecord
  2
L
 70
     0
 10
0.0
 20
0.0
 30
0.0
 11
-2.220446049250313E-16
 21
-1.0
 31
2.220446049250313E-16
 12
0.0
 22
2.220446049250313E-16
 32
1.0
 79
     0
146
0.0
  0
UCS
  5
6E60
330
7
100
AcDbSymbolTableRecord
100
AcDbUCSTableRecord
  2
R
 70
     0
 10
0.0
 20
0.0
 30
0.0
 11
3.445092848397667E-16
 21
1.0
 31
-2.220446049250313E-16
 12
0.0
 22
2.220446049250313E-16
 32
1.0
 79
     0
146
0.0
  0
UCS
  5
6E61
330
7
100
AcDbSymbolTableRecord
100
AcDbUCSTableRecord
  2
ISOME
 70
     0
 10
0.0
 20
0.0
 30
0.0
 11
0.7071450863198265
 21
-0.7070684729403536
 31
-3.830824619466267E-5
 12
0.4082704059428734
 22
0.4082704077401151
 32
0.8164744636514736
 79
     0
146
0.0
  0
UCS
  5
6E62
330
7
100
AcDbSymbolTableRecord
100
AcDbUCSTableRecord
  2
PERSPECTIVE
 70
     0
 10
0.0
 20
0.0
 30
0.0
 11
0.8191477691768964
 21
-0.5735823260466403
 31
-0.0004974931557765462
 12
0.1584844715982971
 22
0.225502028986108
 32
0.961265575782966
 79
     0
146
0.0
  0
ENDTAB
  0
TABLE
  2
APPID
  5
9
330
0
100
AcDbSymbolTable
 70
    18
  0
APPID
  5
11
330
9
100
AcDbSymbolTableRecord
100
AcDbRegAppTableRecord
  2
ACAD
 70
     0
  0
APPID
  5
31C
330
9
100
AcDbSymbolTableRecord
100
AcDbRegAppTableRecord
  2
CONTENTTABDATA
 70
     0
  0
APPID
  5
31D
330
9
100
AcDbSymbolTableRecord
100
AcDbRegAppTableRecord
  2
CONTENTCURRENTTAB
 70
     0
  0
APPID
  5
33E
330
9
100
AcDbSymbolTableRecord
100
AcDbRegAppTableRecord
  2
CONTENTBLOCKDESCRIPTION
 70
     0
  0
APPID
  5
34A
330
9
100
AcDbSymbolTableRecord
100
AcDbRegAppTableRecord
  2
CONTENTBLOCKICON
 70
     0
  0
APPID
  5
378
330
9
100
AcDbSymbolTableRecord
100
AcDbRegAppTableRecord
  2
DRAWINGVARIABLESXDATA
 70
     0
  0
APPID
  5
B2A
330
9
100
AcDbSymbolTableRecord
100
AcDbRegAppTableRecord
  2
CONTENTLONGBLOCKNAME
 70
     0
  0
APPID
  5
C36
330
9
100
AcDbSymbolTableRecord
100
AcDbRegAppTableRecord
  2
ACAD_MLEADERVER
 70
     0
  0
APPID
  5
FDF
330
9
100
AcDbSymbolTableRecord
100
AcDbRegAppTableRecord
  2
ACAD_PSEXT
 70
     0
  0
APPID
  5
1300
330
9
100
AcDbSymbolTableRecord
100
AcDbRegAppTableRecord
  2
ACADANNOTATIVE
 70
     0
  0
APPID
  5
14D5
330
9
100
AcDbSymbolTableRecord
100
AcDbRegAppTableRecord
  2
ACDBBLOCKREPETAG
 70
     0
  0
APPID
  5
14D6
330
9
100
AcDbSymbolTableRecord
100
AcDbRegAppTableRecord
  2
ACDBDYNAMICBLOCKGUID
 70
     0
  0
APPID
  5
1A0E
330
9
100
AcDbSymbolTableRecord
100
AcDbRegAppTableRecord
  2
ACAUTHENVIRON
 70
     0
  0
APPID
  5
1A12
330
9
100
AcDbSymbolTableRecord
100
AcDbRegAppTableRecord
  2
ACDBDYNAMICBLOCKTRUENAME
 70
     0
  0
APPID
  5
1DAA
330
9
100
AcDbSymbolTableRecord
100
AcDbRegAppTableRecord
  2
ACAD_EXEMPT_FROM_CAD_STAND
 70
     0
  0
APPID
  5
255E
330
9
100
AcDbSymbolTableRecord
100
AcDbRegAppTableRecord
  2
ACADANNOAV
 70
     0
  0
APPID
  5
835B
330
9
100
AcDbSymbolTableRecord
100
AcDbRegAppTableRecord
  2
ACAD_DSTYLE_DIMRADIAL_EXTE
 70
     0
  0
APPID
  5
897F
330
9
100
AcDbSymbolTableRecord
100
AcDbRegAppTableRecord
  2
ACAD_NAV_VCDISPLAY
 70
     0
  0
ENDTAB
  0
TABLE
  2
DIMSTYLE
  5
A
330
0
100
AcDbSymbolTable
 70
     1
  0
DIMSTYLE
105
342
330
A
100
AcDbSymbolTableRecord
100
AcDbDimStyleTableRecord
  2
NEWX10
 70
     0
  3
 
  4

  5

  6
OPEN30
  7
OPEN30
 40
1.0
 41
2.0
 42
0.0
 43
7.0
 44
1.0
 45
0.0
 46
0.0
 47
0.0
 48
0.0
140
3.5
141
0.0
142
0.0
143
25.4
144
1.0
145
0.0
146
0.7
147
0.7
 71
     0
 72
     0
 73
     0
 74
     0
 75
     0
 76
     0
 77
     1
 78
     8
170
     0
171
     2
172
     1
173
     1
174
     0
175
     0
176
   256
177
   256
178
   201
179
     1
270
     2
271
     2
272
     4
273
     2
274
     2
340
10
275
     0
280
     0
281
     0
282
     0
283
     1
284
     8
285
     0
286
     0
287
     3
288
     0
  0
ENDTAB
  0
TABLE
  2
BLOCK_RECORD
  5
1
330
0
100
AcDbSymbolTable
 70
     3
  0
BLOCK_RECORD
  5
19
102
{ACAD_XDICTIONARY
360
11D9
102
}
330
1
100
AcDbSymbolTableRecord
100
AcDbBlockTableRecord
  2
*MODEL_SPACE
  0
BLOCK_RECORD
  5
16
102
{ACAD_XDICTIONARY
360
2400
102
}
330
1
100
AcDbSymbolTableRecord
100
AcDbBlockTableRecord
  2
*PAPER_SPACE
  0
BLOCK_RECORD
  5
38F
330
1
100
AcDbSymbolTableRecord
100
AcDbBlockTableRecord
  2
_OPEN30
  0
BLOCK_RECORD
  5
8645
330
1
100
AcDbSymbolTableRecord
100
AcDbBlockTableRecord
  2
A3WAKUDAKE
  0
BLOCK_RECORD
  5
8D53
330
1
100
AcDbSymbolTableRecord
100
AcDbBlockTableRecord
  2
XREF1
  0
ENDTAB
  0
ENDSEC
  0
SECTION
  2
BLOCKS
  0
BLOCK
  5
1A
330
19
100
AcDbEntity
  8
0
100
AcDbBlockBegin
  2
*MODEL_SPACE
 70
     0
 10
0.0
 20
0.0
 30
0.0
  3
*MODEL_SPACE
  1

  0
ENDBLK
  5
1B
330
19
100
AcDbEntity
  8
0
100
AcDbBlockEnd
  0
BLOCK
  5
17
330
16
100
AcDbEntity
 67
     1
  8
0
100
AcDbBlockBegin
  2
*PAPER_SPACE
 70
     0
 10
0.0
 20
0.0
 30
0.0
  3
*PAPER_SPACE
  1

  0
ENDBLK
  5
18
330
16
100
AcDbEntity
 67
     1
  8
0
100
AcDbBlockEnd
  0
BLOCK
  5
390
330
38F
100
AcDbEntity
  8
0
100
AcDbBlockBegin
  2
_OPEN30
 70
     0
 10
0.0
 20
0.0
 30
0.0
  3
_OPEN30
  1

  0
LINE
  5
391
330
38F
100
AcDbEntity
  8
0
  6
BYBLOCK
 62
     0
100
AcDbLine
 10
-1.0
 20
0.26794919
 30
0.0
 11
0.0
 21
0.0
 31
0.0
  0
LINE
  5
392
330
38F
100
AcDbEntity
  8
0
  6
BYBLOCK
 62
     0
100
AcDbLine
 10
0.0
 20
0.0
 30
0.0
 11
-1.0
 21
-0.26794919
 31
0.0
  0
LINE
  5
393
330
38F
100
AcDbEntity
  8
0
  6
BYBLOCK
 62
     0
100
AcDbLine
 10
0.0
 20
0.0
 30
0.0
 11
-1.0
 21
0.0
 31
0.0
  0
ENDBLK
  5
394
330
38F
100
AcDbEntity
  8
0
100
AcDbBlockEnd
  0
BLOCK
  5
8646
330
8645
100
AcDbEntity
  8
0
100
AcDbBlockBegin
  2
A3WAKUDAKE
 70
   100
 10
0.0
 20
0.0
 30
0.0
  3
A3WAKUDAKE
  1
D:\ACLT\FORMAT\A3WAKUdake.dwg
  0
ENDBLK
  5
8647
330
8645
100
AcDbEntity
  8
0
100
AcDbBlockEnd
  0
BLOCK
  5
8D54
330
8D53
100
AcDbEntity
  8
0
100
AcDbBlockBegin
  2
XREF1
 70
   100
 10
0.0
 20
0.0
 30
0.0
  3
XREF1
  1
D:\ACLT\FORMAT\KAWAJUN(9)図面用.dwg
  0
ENDBLK
  5
8D55
330
8D53
100
AcDbEntity
  8
0
100
AcDbBlockEnd
  0
ENDSEC
  0
SECTION
  2
ENTITIES
  0
LINE
  5
7340
330
19
100
AcDbEntity
  8
01
100
AcDbLine
 10
22.99231039615302
 20
55.25250665457651
 30
0.0
 11
161.9923103961528
 21
55.25250665457651
 31
0.0
  0
LINE
  5
7341
330
19
100
AcDbEntity
  8
01
100
AcDbLine
 10
40.99231039615279
 20
72.68491912809117
 30
0.0000000000000271
 11
146.9923103961529
 21
72.68491912809117
 31
0.0000000000000271
  0
LINE
  5
7342
330
19
100
AcDbEntity
  8
01
100
AcDbLine
 10
40.99231039615279
 20
100.1640063865803
 30
0.0000000000000271
 11
118.9923103961534
 21
100.1640063865803
 31
0.0000000000000271
  0
LINE
  5
7343
330
19
100
AcDbEntity
  8
01
100
AcDbLine
 10
22.99231039615279
 20
117.5964188600948
 30
0.0
 11
67.09231039615304
 21
117.5964188600948
 31
0.0
  0
ARC
  5
7344
330
19
100
AcDbEntity
  8
01
100
AcDbCircle
 10
67.09231039615304
 20
117.2964188600948
 30
0.0
 40
0.3
100
AcDbArc
 50
0.0
 51
90.0
  0
LINE
  5
7345
330
19
100
AcDbEntity
  8
01
100
AcDbLine
 10
117.892310396153
 20
117.5964188600947
 30
0.0
 11
118.9923103961529
 21
117.5964188600948
 31
0.0
  0
ARC
  5
7346
330
19
100
AcDbEntity
  8
01
100
AcDbCircle
 10
117.892310396153
 20
117.2964188600947
 30
0.0
 40
0.3
100
AcDbArc
 50
90.0
 51
180.0
  0
ARC
  5
7347
330
19
100
AcDbEntity
  8
01
100
AcDbCircle
 10
22.99231039615279
 20
116.5964188600948
 30
0.0
 40
1.0
100
AcDbArc
 50
90.0
 51
180.0
  0
LINE
  5
7348
330
19
100
AcDbEntity
  8
01
100
AcDbLine
 10
21.99231039615302
 20
59.48947511389463
 30
0.0
 11
21.99231039615279
 21
116.5964188600948
 31
0.0
  0
LINE
  5
7349
330
19
100
AcDbEntity
  8
01
100
AcDbLine
 10
119.9923103961532
 20
101.5376438435923
 30
0.0
 11
119.9923103961531
 21
116.5964188600948
 31
0.0
  0
ARC
  5
734A
330
19
100
AcDbEntity
  8
01
100
AcDbCircle
 10
118.9923103961529
 20
116.5964188600948
 30
0.0
 40
1.0
100
AcDbArc
 50
0.0
 51
90.0
  0
ARC
  5
734B
330
19
100
AcDbEntity
  8
01
100
AcDbCircle
 10
118.9923103961534
 20
101.1640063865803
 30
0.0000000000000271
 40
1.0
100
AcDbArc
 50
270.0
 51
0.0
  0
LINE
  5
734C
330
19
100
AcDbEntity
  8
01
100
AcDbLine
 10
34.99231039615279
 20
76.95428214092408
 30
0.0
 11
34.99231039615267
 21
101.6103615639855
 31
0.0
  0
LINE
  5
734D
330
19
100
AcDbEntity
  8
01
100
AcDbLine
 10
162.9923103961529
 20
59.48947511389656
 30
0.0
 11
162.9923103961528
 21
81.32673327338921
 31
0.0
  0
ARC
  5
734E
330
19
100
AcDbEntity
  8
01
100
AcDbCircle
 10
161.9923103961528
 20
81.32673327338921
 30
-0.0000000000022832
 40
1.0
100
AcDbArc
 50
0.0
 51
90.0
  0
LINE
  5
734F
330
19
100
AcDbEntity
  8
01
100
AcDbLine
 10
152.9923103961529
 20
76.95428214092408
 30
0.0
 11
152.9923103961528
 21
81.32673327338921
 31
0.0
  0
LINE
  5
7350
330
19
100
AcDbEntity
  8
1CENTER
100
AcDbLine
 10
92.4923103961529
 20
124.0090227966851
 30
0.0
 11
92.4923103961529
 21
41.56279516217944
 31
0.0
  0
LINE
  5
7351
330
19
100
AcDbEntity
  8
01
100
AcDbLine
 10
117.4923103961532
 20
117.3606976210656
 30
0.0
 11
117.4923103961531
 21
108.3865830123437
 31
0.0
  0
LINE
  5
7352
330
19
100
AcDbEntity
  8
01
100
AcDbLine
 10
117.592310396153
 20
117.2964188600947
 30
0.0
 11
117.5923103961532
 21
108.3865830123437
 31
0.0
  0
LINE
  5
7353
330
19
100
AcDbEntity
  8
01
100
AcDbLine
 10
67.49231039615302
 20
117.3606976210654
 30
0.0
 11
67.49231039615302
 21
108.3865830123437
 31
0.0
  0
LINE
  5
7354
330
19
100
AcDbEntity
  8
01
100
AcDbLine
 10
67.392310396153
 20
117.2964188600948
 30
0.0
 11
67.392310396153
 21
108.3865830123437
 31
0.0
  0
LINE
  5
7355
330
19
100
AcDbEntity
  8
01
100
AcDbLine
 10
153.9923103961528
 20
82.32673327338921
 30
0.0000000000000271
 11
161.9923103961528
 21
82.32673327338921
 31
0.0000000000000302
  0
ARC
  5
7356
330
19
100
AcDbEntity
  8
01
100
AcDbCircle
 10
153.9923103961528
 20
81.32673327338921
 30
0.0
 40
1.0
100
AcDbArc
 50
90.0
 51
180.0
  0
ELLIPSE
  5
7357
330
19
100
AcDbEntity
  8
01
100
AcDbEllipse
 10
40.99231039615279
 20
76.95428214092408
 30
0.0000000000000271
 11
-6.0
 21
0.0
 31
0.0
210
0.0
220
0.0
230
-1.0
 40
0.7115605021388186
 41
4.71238898038469
 42
6.283185307179586
  0
ELLIPSE
  5
7358
330
19
100
AcDbEntity
  8
01
100
AcDbEllipse
 10
146.9923103961529
 20
76.95428214092408
 30
0.0
 11
6.0
 21
0.0
 31
0.0
210
0.0
220
0.0
230
1.0
 40
0.7115605021388186
 41
4.71238898038469
 42
6.283185307179586
  0
ELLIPSE
  5
7359
330
19
100
AcDbEntity
  8
01
100
AcDbEllipse
 10
22.99231039615302
 20
60.96901681491403
 30
0.0000000000000271
 11
0.0
 21
-5.716510160337521
 31
0.0
210
0.0
220
0.0
230
-1.0
 40
0.1811028322127703
 41
6.283185307179586
 42
8.11578102177396
  0
ELLIPSE
  5
735A
330
19
100
AcDbEntity
  8
01
100
AcDbEllipse
 10
161.9923103961528
 20
60.96901681491403
 30
0.0000000000000271
 11
0.0
 21
-5.716510160337521
 31
0.0
210
0.0
220
0.0
230
1.0
 40
0.1811028322127703
 41
6.283185307179586
 42
8.11578102177396
  0
ELLIPSE
  5
735B
330
19
100
AcDbEntity
  8
01
100
AcDbEllipse
 10
40.99231039615279
 20
95.89464337374739
 30
0.0000000000000271
 11
-6.0
 21
0.0
 31
0.0
210
0.0
220
0.0
230
1.0
 40
0.7115605021388186
 41
4.71238898038469
 42
6.283185307179586
  0
LINE
  5
735C
330
19
100
AcDbEntity
  8
01
100
AcDbLine
 10
40.99231039615279
 20
105.8797245768184
 30
0.0
 11
119.9923103961531
 21
105.8797245768184
 31
0.0
  0
ELLIPSE
  5
735D
330
19
100
AcDbEntity
  8
01
100
AcDbEllipse
 10
40.99231039615279
 20
101.6103615639855
 30
0.0
 11
-6.0
 21
0.0
 31
0.0
210
0.0
220
0.0
230
1.0
 40
0.7115605021388186
 41
4.71238898038469
 42
6.283185307179586
  0
LINE
  5
735E
330
19
100
AcDbEntity
  8
01
100
AcDbLine
 10
163.0191754381073
 20
60.24180428907408
 30
0.0
 11
21.96544535419855
 21
60.24180428907408
 31
0.0
  0
LINE
  5
735F
330
19
100
AcDbEntity
  8
1HIDDEN
100
AcDbLine
 10
40.99231039615279
 20
66.96920093785303
 30
0.0000000000000271
 11
146.9923103961529
 21
66.96920093785303
 31
0.0000000000000271
  0
ELLIPSE
  5
7360
330
19
100
AcDbEntity
  8
1HIDDEN
100
AcDbEllipse
 10
40.99231039615279
 20
71.23856395068594
 30
0.0000000000000271
 11
-6.0
 21
0.0
 31
0.0
210
0.0
220
0.0
230
-1.0
 40
0.7115605021388186
 41
4.71238898038469
 42
6.283185307179586
  0
ELLIPSE
  5
7361
330
19
100
AcDbEntity
  8
1HIDDEN
100
AcDbEllipse
 10
146.9923103961529
 20
71.23856395068594
 30
0.0
 11
6.0
 21
0.0
 31
0.0
210
0.0
220
0.0
230
1.0
 40
0.7115605021388186
 41
4.71238898038469
 42
6.283185307179586
  0
LINE
  5
7362
330
19
100
AcDbEntity
  8
1HIDDEN
100
AcDbLine
 10
152.9923103961529
 20
71.23856395068594
 30
0.0
 11
152.9923103961529
 21
76.95428214092408
 31
0.0
  0
LINE
  5
7363
330
19
100
AcDbEntity
  8
1HIDDEN
100
AcDbLine
 10
34.99231039615279
 20
71.23856395068594
 30
0.0000000000000271
 11
34.99231039615279
 21
76.95428214092408
 31
0.0
  0
LINE
  5
7364
330
19
100
AcDbEntity
  8
01
100
AcDbLine
 10
117.492310396153
 20
77.22528775358546
 30
0.0
 11
67.4923103961529
 21
77.2252877535854
 31
0.0
  0
LINE
  5
7365
330
19
100
AcDbEntity
  8
01
100
AcDbLine
 10
117.1923103961533
 20
117.6606976210656
 30
0.0
 11
67.79231039615297
 21
117.6606976210654
 31
0.0
  0
ARC
  5
7366
330
19
100
AcDbEntity
  8
01
100
AcDbCircle
 10
117.1923103961533
 20
117.3606976210656
 30
0.0
 40
0.3
100
AcDbArc
 50
0.0
 51
90.0
  0
ARC
  5
7367
330
19
100
AcDbEntity
  8
01
100
AcDbCircle
 10
67.79231039615297
 20
117.3606976210654
 30
0.0
 40
0.3
100
AcDbArc
 50
90.0
 51
180.0
  0
CIRCLE
  5
7368
330
19
100
AcDbEntity
  8
01
100
AcDbCircle
 10
111.4923103961529
 20
91.22528775358546
 30
0.0
 40
4.25
  0
CIRCLE
  5
7369
330
19
100
AcDbEntity
  8
01
100
AcDbCircle
 10
111.4923103961529
 20
91.22528775358518
 30
0.0
 40
2.25
  0
CIRCLE
  5
736A
330
19
100
AcDbEntity
  8
01
100
AcDbCircle
 10
73.4923103961529
 20
91.22528775358546
 30
0.0
 40
4.25
  0
CIRCLE
  5
736B
330
19
100
AcDbEntity
  8
01
100
AcDbCircle
 10
73.49231039615267
 20
91.22528775358518
 30
0.0
 40
2.25
  0
LINE
  5
736C
330
19
100
AcDbEntity
  8
1HIDDEN
100
AcDbLine
 10
152.9728853110486
 20
76.61101508315085
 30
0.0
 11
162.9923103961529
 21
76.61101508315085
 31
0.0
  0
LINE
  5
736D
330
19
100
AcDbEntity
  8
1CENTER
100
AcDbLine
 10
68.99231039615256
 20
91.2252877535854
 30
0.0
 11
77.99231039615256
 21
91.2252877535854
 31
0.0
  0
LINE
  5
736E
330
19
100
AcDbEntity
  8
1CENTER
100
AcDbLine
 10
73.49231039615256
 20
86.7252877535854
 30
0.0
 11
73.49231039615256
 21
96.3368647618546
 31
0.0
  0
LINE
  5
736F
330
19
100
AcDbEntity
  8
1CENTER
100
AcDbLine
 10
106.9923103961526
 20
91.2252877535854
 30
0.0
 11
115.9923103961526
 21
91.2252877535854
 31
0.0
  0
LINE
  5
7370
330
19
100
AcDbEntity
  8
1CENTER
100
AcDbLine
 10
111.4923103961526
 20
86.7252877535854
 30
0.0
 11
111.4923103961526
 21
95.7252877535854
 31
0.0
  0
LINE
  5
7387
330
19
100
AcDbEntity
  8
01
100
AcDbLine
 10
119.9923103961534
 20
101.1640063865803
 30
0.0000000000000271
 11
119.9923103961532
 21
101.5376438435923
 31
0.0
  0
LINE
  5
7389
330
19
100
AcDbEntity
  8
01
100
AcDbLine
 10
282.8995360258197
 20
100.5174002327327
 30
0.0000000000000271
 11
279.0428103677007
 21
105.1136668914471
 31
0.0000000000000271
  0
LINE
  5
738A
330
19
100
AcDbEntity
  8
1CENTER
100
AcDbLine
 10
299.6414932820513
 20
118.4817922596194
 30
0.0000000000000271
 11
223.2325865124012
 21
54.36710677054657
 31
0.0000000000000271
  0
LINE
  5
738B
330
19
100
AcDbEntity
  8
01
100
AcDbLine
 10
291.8058005125961
 20
117.12849450408
 30
0.0000000000000156
 11
225.9259784043638
 21
61.84876007103765
 31
0.0000000000000271
  0
ARC
  5
7390
330
19
100
AcDbEntity
  8
01
100
AcDbCircle
 10
279.8088548108194
 20
105.7564545011333
 30
0.0000000000000271
 40
0.9999999999999999
100
AcDbArc
 50
130.0000000000038
 51
220.0000000000003
  0
ARC
  5
7391
330
19
100
AcDbEntity
  8
1HIDDEN
100
AcDbCircle
 10
239.2084993255139
 20
71.68871118774666
 30
0.0000000000000271
 40
0.9999999999999999
100
AcDbArc
 50
40.00000000000015
 51
130.0000000000038
  0
ARC
  5
7395
330
19
100
AcDbEntity
  8
01
100
AcDbCircle
 10
254.5558916304176
 20
76.7342586743307
 30
0.0000000000000271
 40
1.0
100
AcDbArc
 50
310.0000000000036
 51
40.00000000000015
  0
ARC
  5
7396
330
19
100
AcDbEntity
  8
01
100
AcDbCircle
 10
283.6655804689386
 20
101.1601878424193
 30
0.0000000000000271
 40
0.9999999999999999
100
AcDbArc
 50
220.0000000000003
 51
310.0000000000036
  0
ARC
  5
7397
330
19
100
AcDbEntity
  8
01
100
AcDbCircle
 10
291.5042842896461
 20
111.6538631952796
 30
0.0000000000000271
 40
6.249999999999999
100
AcDbArc
 50
11.92751306414781
 51
68.07248693585274
  0
ARC
  5
7398
330
19
100
AcDbEntity
  8
01
100
AcDbCircle
 10
295.6625261707151
 20
112.5322278453661
 30
0.0000000000000271
 40
2.0
100
AcDbArc
 50
310.0000000000036
 51
11.92751306414781
  0
ARC
  5
7399
330
19
100
AcDbEntity
  8
01
100
AcDbCircle
 10
293.0913757319692
 20
115.596405617842
 30
0.0000000000000271
 40
2.0
100
AcDbArc
 50
68.07248693585495
 51
130.0000000000038
  0
ARC
  5
739A
330
19
100
AcDbEntity
  8
01
100
AcDbCircle
 10
231.3697955048065
 20
61.19503583488631
 30
0.0000000000000271
 40
6.249999999999999
100
AcDbArc
 50
191.9275130641478
 51
248.072486935855
  0
ARC
  5
739B
330
19
100
AcDbEntity
  8
01
100
AcDbCircle
 10
229.7827040624834
 20
57.25249341232376
 30
0.0000000000000271
 40
2.0
100
AcDbArc
 50
248.072486935855
 51
310.0000000000036
  0
ARC
  5
739C
330
19
100
AcDbEntity
  8
01
100
AcDbCircle
 10
227.211553623737
 20
60.3166711847997
 30
0.0000000000000271
 40
2.0
100
AcDbArc
 50
130.0000000000038
 51
191.9275130641478
  0
LINE
  5
739D
330
19
100
AcDbEntity
  8
1HIDDEN
100
AcDbLine
 10
243.831269426752
 20
67.73523213871931
 30
0.0000000000000271
 11
239.9745437686329
 21
72.33149879743331
 31
0.0000000000000271
  0
ARC
  5
739E
330
19
100
AcDbEntity
  8
1HIDDEN
100
AcDbCircle
 10
243.065224983633
 20
67.09244452903278
 30
0.0000000000000271
 40
0.9999999999999999
100
AcDbArc
 50
310.0000000000036
 51
40.00000000000015
  0
LINE
  5
739F
330
19
100
AcDbEntity
  8
01
100
AcDbLine
 10
306.9242239777169
 20
77.22527451133152
 30
0.0
 11
306.9242239777169
 21
107.2252745113315
 31
0.0
  0
ARC
  5
73AB
330
19
100
AcDbEntity
  8
01
100
AcDbCircle
 10
291.5808887339605
 20
111.718141956249
 30
0.0000000000000417
 40
6.25
100
AcDbArc
 50
40.00000000000129
 51
68.07248693585946
  0
ARC
  5
73AC
330
19
100
AcDbEntity
  8
01
100
AcDbCircle
 10
293.1679801762831
 20
115.6606843788116
 30
0.0000000000000417
 40
2.0
100
AcDbArc
 50
68.07248693585495
 51
129.9999999999873
  0
LINE
  5
73AD
330
19
100
AcDbEntity
  8
01
100
AcDbLine
 10
302.6104373533523
 20
108.2969116822719
 30
0.0000000000000418
 11
296.3483022072857
 21
115.7598337399053
 31
0.0000000000000416
  0
ARC
  5
73AF
330
19
100
AcDbEntity
  8
01
100
AcDbCircle
 10
304.9085706827087
 20
110.2252745113316
 30
0.0000000000066642
 40
3.0
100
AcDbArc
 50
220.0000000000013
 51
270.0
  0
LINE
  5
73B0
330
19
100
AcDbEntity
  8
01
100
AcDbLine
 10
304.624487192753
 20
77.58248690164493
 30
0.0000000000000002
 11
284.9978080774333
 21
100.9726522480192
 31
0.0000000000000141
  0
ARC
  5
73B6
330
19
100
AcDbEntity
  8
01
100
AcDbCircle
 10
305.390531635872
 20
78.22527451133152
 30
-0.000000000000166
 40
1.0
100
AcDbArc
 50
220.0000000000013
 51
270.0
  0
LINE
  5
73B7
330
19
100
AcDbEntity
  8
01
100
AcDbLine
 10
306.9242239777169
 20
77.22527451133152
 30
0.0
 11
305.390531635872
 21
77.22527451133152
 31
0.0
  0
LINE
  5
73B8
330
19
100
AcDbEntity
  8
01
100
AcDbLine
 10
306.9242239777169
 20
107.2252745113315
 30
0.0
 11
304.9085706827087
 21
107.2252745113316
 31
0.0000000000000102
  0
LINE
  5
73BA
330
19
100
AcDbEntity
  8
1CENTER
100
AcDbLine
 10
290.7709181123192
 20
91.22527451133152
 30
0.0
 11
333.7060126098684
 21
91.22527451133152
 31
0.0
  0
LINE
  5
73C1
330
19
100
AcDbEntity
  8
01
100
AcDbLine
 10
251.4652104154175
 20
81.97331294273124
 30
0.0000000000000271
 11
255.3219360735366
 21
77.37704628401713
 31
0.0000000000000271
  0
ARC
  5
73C2
330
19
100
AcDbEntity
  8
01
100
AcDbCircle
 10
250.6991659722985
 20
81.3305253330447
 30
0.0000000000000271
 40
1.0
100
AcDbArc
 50
40.00000000000015
 51
130.0000000000038
  0
LINE
  5
73C3
330
19
100
AcDbEntity
  8
1HIDDEN
100
AcDbLine
 10
239.9745437686331
 20
72.33149879743328
 30
0.0000000000000271
 11
243.8312694267521
 21
67.73523213871933
 31
0.0000000000000271
  0
LINE
  5
73C8
330
19
100
AcDbEntity
  8
01
100
AcDbLine
 10
69.49231039615313
 20
107.1010077929707
 30
0.0
 11
115.4923103961531
 21
107.1010077929707
 31
0.0
  0
LINE
  5
73C9
330
19
100
AcDbEntity
  8
01
100
AcDbLine
 10
69.49231039615302
 20
107.0367290320022
 30
0.0
 11
115.4923103961531
 21
107.0367290320022
 31
0.0
  0
LINE
  5
73CA
330
19
100
AcDbEntity
  8
01
100
AcDbLine
 10
67.392310396153
 20
114.2192499265616
 30
0.0
 11
67.49231039615302
 21
114.2192499265617
 31
0.0
  0
LINE
  5
73CB
330
19
100
AcDbEntity
  8
01
100
AcDbLine
 10
117.4923103961531
 20
114.2192499265616
 30
0.0
 11
117.5923103961532
 21
114.2192499265616
 31
0.0
  0
LINE
  5
73CC
330
19
100
AcDbEntity
  8
01
100
AcDbLine
 10
67.49231039615302
 20
100.1640063865803
 30
0.0
 11
67.49231039615302
 21
77.2252877535854
 31
0.0
  0
LINE
  5
73CD
330
19
100
AcDbEntity
  8
01
100
AcDbLine
 10
117.492310396153
 20
100.16400638658
 30
0.0
 11
117.4923103961528
 21
77.22528775358512
 31
0.0
  0
ELLIPSE
  5
73CE
330
19
100
AcDbEntity
  8
01
100
AcDbEllipse
 10
115.4923103961531
 20
108.3865830123437
 30
0.0
 11
2.0
 21
0.0
 31
0.0
210
0.0
220
0.0
230
1.0
 40
0.6427876096865361
 41
4.71238898038469
 42
6.283185307179586
  0
ELLIPSE
  5
73CF
330
19
100
AcDbEntity
  8
01
100
AcDbEllipse
 10
69.49231039615302
 20
108.3865830123437
 30
0.0
 11
-2.0
 21
0.0
 31
0.0
210
0.0
220
0.0
230
1.0
 40
0.6427876096865361
 41
0.0
 42
1.570796326794897
  0
ELLIPSE
  5
73D0
330
19
100
AcDbEntity
  8
01
100
AcDbEllipse
 10
69.49231039615302
 20
108.3865830123437
 30
0.0
 11
-2.100000000000023
 21
0.0
 31
0.0
210
0.0
220
0.0
230
1.0
 40
0.6427876096864453
 41
0.0
 42
1.570796326794897
  0
ELLIPSE
  5
73D1
330
19
100
AcDbEntity
  8
01
100
AcDbEllipse
 10
115.4923103961531
 20
108.3865830123437
 30
0.0
 11
2.100000000000023
 21
0.0
 31
0.0
210
0.0
220
0.0
230
1.0
 40
0.6427876096864453
 41
4.71238898038469
 42
6.283185307179586
  0
LINE
  5
73D2
330
19
100
AcDbEntity
  8
01
100
AcDbLine
 10
296.9481013900881
 20
111.0001389591282
 30
0.0000000000000271
 11
231.0682792818566
 21
55.72040452608582
 31
0.0000000000000271
  0
CIRCLE
  5
8063
330
19
100
AcDbEntity
  8
1PHANTOM
100
AcDbCircle
 10
239.2084993255139
 20
54.18871118774666
 30
0.0000000000000271
 40
18.5
  0
LINE
  5
8064
330
19
100
AcDbEntity
  8
1PHANTOM
100
AcDbLine
 10
35.4923103961529
 20
111.6887111877467
 30
0.0
 11
35.4923103961529
 21
-3.311288812250268
 31
0.0
  0
LINE
  5
8065
330
19
100
AcDbEntity
  8
1PHANTOM
100
AcDbLine
 10
149.4923103961523
 20
111.6887111877467
 30
0.0
 11
149.4923103961523
 21
-3.311288812250268
 31
0.0
  0
CIRCLE
  5
8066
330
19
100
AcDbEntity
  8
1PHANTOM
100
AcDbCircle
 10
239.2084993255139
 20
54.18871118774666
 30
0.0000000000000271
 40
57.5
  0
LINE
  5
8067
330
19
100
AcDbEntity
  8
1PHANTOM
100
AcDbLine
 10
149.4923103961523
 20
111.6887111877467
 30
0.0
 11
35.4923103961529
 21
111.6887111877467
 31
0.0
  0
LINE
  5
8068
330
19
100
AcDbEntity
  8
1PHANTOM
100
AcDbLine
 10
35.4923103961529
 20
-3.311288812250268
 30
0.0
 11
149.4923103961523
 21
-3.311288812250268
 31
0.0
  0
LINE
  5
822B
330
19
100
AcDbEntity
  8
01
100
AcDbLine
 10
67.49231039615331
 20
226.6845839460794
 30
0.0
 11
117.4923103961533
 21
226.6845839460794
 31
0.0
  0
LINE
  5
82D0
330
19
100
AcDbEntity
  8
01
100
AcDbLine
 10
67.49231039615329
 20
226.6845839460794
 30
0.0
 11
67.49231039615331
 21
201.1479560545417
 31
0.0
  0
LINE
  5
82D1
330
19
100
AcDbEntity
  8
01
100
AcDbLine
 10
117.4923103961533
 20
226.6845839460794
 30
0.0
 11
117.4923103961533
 21
201.1479560545417
 31
0.0
  0
LINE
  5
82D2
330
19
100
AcDbEntity
  8
01
100
AcDbLine
 10
69.49231039615331
 20
199.738516784145
 30
0.0
 11
115.4923103961533
 21
199.7385167841449
 31
0.0
  0
ELLIPSE
  5
82D8
330
19
100
AcDbEntity
  8
01
100
AcDbEllipse
 10
115.4923103961533
 20
201.1479560545417
 30
0.0000000000000001
 11
2.0
 21
-1.224646799147353E-16
 31
0.0
210
0.0
220
0.0
230
1.0
 40
0.7047196351983871
 41
4.71238898038469
 42
6.283185307179586
  0
ELLIPSE
  5
82DB
330
19
100
AcDbEntity
  8
01
100
AcDbEllipse
 10
69.49231039615331
 20
201.1479560545417
 30
0.0000000000000001
 11
-2.0
 21
1.224646799147353E-16
 31
0.0
210
0.0
220
0.0
230
1.0
 40
0.7047196351983871
 41
6.283185307179586
 42
7.853981633974483
  0
LINE
  5
82DE
330
19
100
AcDbEntity
  8
01
100
AcDbLine
 10
22.99231039615312
 20
144.9719135920996
 30
0.0
 11
161.9923103961531
 21
144.9719135920996
 31
0.0
  0
LINE
  5
82DF
330
19
100
AcDbEntity
  8
01
100
AcDbLine
 10
21.99231039615312
 20
145.7379580352186
 30
0.0
 11
21.99231039615312
 21
216.6568416959586
 31
0.0
  0
LINE
  5
82E0
330
19
100
AcDbEntity
  8
01
100
AcDbLine
 10
162.9923103961531
 20
145.7379580352186
 30
0.0
 11
162.9923103961531
 21
174.5502071556612
 31
0.0
  0
LINE
  5
82E1
330
19
100
AcDbEntity
  8
01
100
AcDbLine
 10
152.9923103961531
 20
163.6883827860228
 30
0.0
 11
152.9923103961531
 21
174.5502071556612
 31
0.0
  0
LINE
  5
82E2
330
19
100
AcDbEntity
  8
01
100
AcDbLine
 10
34.992310396153
 20
163.6883827860228
 30
0.0
 11
34.992310396153
 21
163.8255849519956
 31
0.0
  0
LINE
  5
82E3
330
19
100
AcDbEntity
  8
01
100
AcDbLine
 10
22.99231039615312
 20
217.4228861390776
 30
0.0
 11
67.09231039615337
 21
217.4228861390776
 31
0.0
  0
LINE
  5
82E4
330
19
100
AcDbEntity
  8
01
100
AcDbLine
 10
40.992310396153
 20
198.5692147791819
 30
0.0
 11
118.9923103961535
 21
198.5692147791819
 31
0.0
  0
LINE
  5
82E5
330
19
100
AcDbEntity
  8
01
100
AcDbLine
 10
34.992310396153
 20
163.8255849519956
 30
0.0
 11
34.99498419994482
 21
163.8255849519956
 31
0.0
  0
LINE
  5
82E6
330
19
100
AcDbEntity
  8
01
100
AcDbLine
 10
119.9923103961535
 20
216.6568416959586
 30
0.0
 11
119.9923103961535
 21
199.3352592223009
 31
0.0
  0
LINE
  5
82E7
330
19
100
AcDbEntity
  8
01
100
AcDbLine
 10
153.9923103961531
 20
175.3162515987801
 30
0.0
 11
161.9923103961531
 21
175.3162515987801
 31
0.0
  0
LINE
  5
82E8
330
19
100
AcDbEntity
  8
01
100
AcDbLine
 10
146.9923103961531
 20
159.0921161273089
 30
0.0
 11
40.992310396153
 21
159.0921161273089
 31
0.0
  0
LINE
  5
82E9
330
19
100
AcDbEntity
  8
01
100
AcDbLine
 10
22.99231039615312
 20
212.3723021247774
 30
0.0
 11
67.39231039615338
 21
212.3723021247774
 31
0.0
  0
LINE
  5
82EB
330
19
100
AcDbEntity
  8
01
100
AcDbLine
 10
117.5923103961533
 20
212.3723021247774
 30
0.0
 11
118.9923103961535
 21
212.3723021247774
 31
0.0
  0
LINE
  5
82EC
330
19
100
AcDbEntity
  8
01
100
AcDbLine
 10
117.8923103961533
 20
217.4228861390776
 30
0.0
 11
118.9923103961535
 21
217.4228861390776
 31
0.0
  0
LINE
  5
82ED
330
19
100
AcDbEntity
  8
01
100
AcDbLine
 10
67.79231039615333
 20
212.4489065690905
 30
0.0
 11
117.1923103961533
 21
212.4489065690904
 31
0.0
  0
ELLIPSE
  5
8317
330
19
100
AcDbEntity
  8
01
100
AcDbEllipse
 10
146.9923103961531
 20
163.6883827860228
 30
0.000000000000024
 11
6.0
 21
-3.673940397442059E-16
 31
0.0
210
0.0
220
0.0
230
1.0
 40
0.7660444431189765
 41
4.71238898038469
 42
6.283185307179586
  0
ELLIPSE
  5
8319
330
19
100
AcDbEntity
  8
01
100
AcDbEllipse
 10
146.9923103961531
 20
168.830683663515
 30
0.0
 11
6.0
 21
-3.673940397442059E-16
 31
0.0
210
0.0
220
0.0
230
1.0
 40
0.8341831185865752
 41
4.71238898038469
 42
6.283185307179586
  0
LINE
  5
831A
330
19
100
AcDbEntity
  8
01
100
AcDbLine
 10
152.9896365923613
 20
163.8255849519956
 30
0.0
 11
152.9923103961531
 21
163.8255849519956
 31
0.0
  0
ELLIPSE
  5
831B
330
19
100
AcDbEntity
  8
01
100
AcDbEllipse
 10
40.992310396153
 20
168.830683663515
 30
0.0
 11
-6.0
 21
3.673940397442059E-16
 31
0.0
210
0.0
220
0.0
230
1.0
 40
0.8341831185865752
 41
0.0
 42
1.570796326794897
  0
ELLIPSE
  5
831C
330
19
100
AcDbEntity
  8
01
100
AcDbEllipse
 10
40.992310396153
 20
163.6883827860228
 30
0.000000000000024
 11
-6.0
 21
3.673940397442059E-16
 31
0.0
210
0.0
220
0.0
230
1.0
 40
0.7660444431189765
 41
6.253330087619012
 42
7.853981633974483
  0
LINE
  5
831D
330
19
100
AcDbEntity
  8
01
100
AcDbLine
 10
40.992310396153
 20
163.8255849519956
 30
0.0
 11
146.9923103961531
 21
163.8255849519956
 31
0.0
  0
LINE
  5
831E
330
19
100
AcDbEntity
  8
01
100
AcDbLine
 10
34.992310396153
 20
163.8255849519956
 30
0.0
 11
34.992310396153
 21
193.564116067663
 31
0.0
  0
ELLIPSE
  5
8323
330
19
100
AcDbEntity
  8
01
100
AcDbEllipse
 10
40.992310396153
 20
193.564116067663
 30
0.0
 11
-6.0
 21
3.673940397442059E-16
 31
0.0
210
0.0
220
0.0
230
1.0
 40
0.8341831185864995
 41
4.71238898038469
 42
6.283185307179586
  0
ELLIPSE
  5
8335
330
19
100
AcDbEntity
  8
01
100
AcDbEllipse
 10
153.9923103961531
 20
174.5502071556612
 30
0.0
 11
-1.0
 21
6.123233995736766E-17
 31
0.0
210
0.0
220
0.0
230
1.0
 40
0.7660444431190001
 41
4.71238898038469
 42
6.283185307179586
  0
ELLIPSE
  5
8336
330
19
100
AcDbEntity
  8
01
100
AcDbEllipse
 10
161.9923103961531
 20
174.5502071556612
 30
0.0
 11
1.0
 21
-6.123233995736766E-17
 31
0.0
210
0.0
220
0.0
230
1.0
 40
0.7660444431190001
 41
0.0
 42
1.570796326794897
  0
ELLIPSE
  5
8337
330
19
100
AcDbEntity
  8
01
100
AcDbEllipse
 10
153.9923103961531
 20
169.8167383309745
 30
0.0
 11
-1.0
 21
6.123233995736766E-17
 31
0.0
210
0.0
220
0.0
230
1.0
 40
0.7660444431189148
 41
4.71238898038469
 42
6.283185307179586
  0
ELLIPSE
  5
8338
330
19
100
AcDbEntity
  8
01
100
AcDbEllipse
 10
161.9923103961531
 20
169.8167383309745
 30
0.0
 11
1.0
 21
-6.123233995736766E-17
 31
0.0
210
0.0
220
0.0
230
1.0
 40
0.7660444431189148
 41
6.283185307179586
 42
7.853981633974483
  0
LINE
  5
8339
330
19
100
AcDbEntity
  8
01
100
AcDbLine
 10
153.9923103961531
 20
170.5827827740935
 30
0.0
 11
161.9923103961531
 21
170.5827827740935
 31
0.0
  0
ELLIPSE
  5
833D
330
19
100
AcDbEntity
  8
01
100
AcDbEllipse
 10
161.9923103961531
 20
145.7379580352186
 30
0.0
 11
1.0
 21
-6.123233995736766E-17
 31
0.0
210
0.0
220
0.0
230
1.0
 40
0.7660444431190001
 41
4.71238898038469
 42
6.283185307179586
  0
ELLIPSE
  5
833E
330
19
100
AcDbEntity
  8
01
100
AcDbEllipse
 10
22.99231039615312
 20
145.7379580352186
 30
0.0
 11
-1.0
 21
6.123233995736766E-17
 31
0.0
210
0.0
220
0.0
230
1.0
 40
0.7660444431190001
 41
0.0
 42
1.570796326794897
  0
ELLIPSE
  5
8343
330
19
100
AcDbEntity
  8
01
100
AcDbEllipse
 10
22.99231039615312
 20
216.6568416959586
 30
0.0
 11
-1.0
 21
6.123233995736766E-17
 31
0.0
210
0.0
220
0.0
230
1.0
 40
0.7660444431189717
 41
4.71238898038469
 42
6.283185307179586
  0
ELLIPSE
  5
8344
330
19
100
AcDbEntity
  8
01
100
AcDbEllipse
 10
22.99231039615312
 20
211.6071547537412
 30
0.0
 11
-1.0
 21
6.123233995736766E-17
 31
0.0
210
0.0
220
0.0
230
1.0
 40
0.765147371036278
 41
4.71238898038469
 42
6.283185307179586
  0
ELLIPSE
  5
8347
330
19
100
AcDbEntity
  8
01
100
AcDbEllipse
 10
118.9923103961535
 20
216.6568416959586
 30
0.0
 11
1.0
 21
-6.123233995736766E-17
 31
0.0
210
0.0
220
0.0
230
1.0
 40
0.7660444431189717
 41
6.283185307179586
 42
7.853981633974483
  0
ELLIPSE
  5
8348
330
19
100
AcDbEntity
  8
01
100
AcDbEllipse
 10
118.9923103961535
 20
211.6071547537412
 30
0.0
 11
1.0
 21
-6.123233995736766E-17
 31
0.0
210
0.0
220
0.0
230
1.0
 40
0.765147371036278
 41
6.283185307179586
 42
7.853981633974483
  0
ELLIPSE
  5
834C
330
19
100
AcDbEntity
  8
01
100
AcDbEllipse
 10
118.9923103961535
 20
199.3352592223009
 30
0.0000000000000271
 11
1.0
 21
-6.123233995736766E-17
 31
0.0
210
0.0
220
0.0
230
1.0
 40
0.7660444431189717
 41
4.71238898038469
 42
6.283185307179586
  0
ELLIPSE
  5
8353
330
19
100
AcDbEntity
  8
01
100
AcDbEllipse
 10
69.49231039615331
 20
201.1479560545417
 30
0.0
 11
2.099999999999937
 21
-3.723049457963515E-14
 31
0.0
210
0.0
220
0.0
230
1.0
 40
0.766044443119157
 41
3.141592653589793
 42
4.71238898038469
  0
ELLIPSE
  5
8356
330
19
100
AcDbEntity
  8
01
100
AcDbEllipse
 10
115.4923103961533
 20
201.1479560545417
 30
0.0
 11
2.100000000000051
 21
-1.285879139104752E-16
 31
0.0
210
0.0
220
0.0
230
1.0
 40
0.7660444431191155
 41
4.71238898038469
 42
6.283185307179586
  0
LINE
  5
8358
330
19
100
AcDbEntity
  8
01
100
AcDbLine
 10
117.5923103961534
 20
201.1479560545417
 30
0.0
 11
117.5923103961533
 21
217.1228861390776
 31
0.0
  0
LINE
  5
8359
330
19
100
AcDbEntity
  8
01
100
AcDbLine
 10
115.4923103961533
 20
199.5392627239915
 30
0.0
 11
69.49231039615334
 21
199.5392627239916
 31
0.0
  0
LINE
  5
835A
330
19
100
AcDbEntity
  8
01
100
AcDbLine
 10
67.39231039615338
 20
201.1479560545417
 30
0.0
 11
67.39231039615338
 21
217.1228861390777
 31
0.0
  0
ARC
  5
835C
330
19
100
AcDbEntity
  8
01
100
AcDbCircle
 10
67.09231039615337
 20
217.1228861390777
 30
0.0
 40
0.3
100
AcDbArc
 50
0.0
 51
90.0
  0
ARC
  5
835D
330
19
100
AcDbEntity
  8
01
100
AcDbCircle
 10
117.8923103961533
 20
217.1228861390776
 30
0.0
 40
0.3
100
AcDbArc
 50
90.0
 51
180.0
  0
ARC
  5
835E
330
19
100
AcDbEntity
  8
1DIM
100
AcDbCircle
 10
67.79231039615333
 20
212.1489065690904
 30
0.0
 40
0.3
100
AcDbArc
 50
90.0
 51
180.0
  0
ARC
  5
835F
330
19
100
AcDbEntity
  8
01
100
AcDbCircle
 10
117.1923103961533
 20
212.1489065690904
 30
0.0
 40
0.3
100
AcDbArc
 50
0.0
 51
90.0
  0
LINE
  5
8361
330
19
100
AcDbEntity
  8
1CENTER
100
AcDbLine
 10
111.4923103961529
 20
253.010224026195
 30
0.0
 11
111.4923103961529
 21
220.0894749559203
 31
0.0
  0
LINE
  5
836A
330
19
100
AcDbEntity
  8
1CENTER
100
AcDbLine
 10
92.49231039615289
 20
234.9736937823723
 30
0.0
 11
92.49231039615289
 21
140.2090433134906
 31
0.0
  0
LINE
  5
8371
102
{ACAD_REACTORS
330
843A
102
}
330
19
100
AcDbEntity
  8
01
  6
BYBLOCK
100
AcDbLine
 10
302.924232121499
 20
94.7252745113314
 30
0.0
 11
301.924232121499
 21
94.7252745113314
 31
0.0
  0
LINE
  5
8372
102
{ACAD_REACTORS
330
843A
102
}
330
19
100
AcDbEntity
  8
01
  6
BYBLOCK
100
AcDbLine
 10
302.9242239777169
 20
87.72527451133152
 30
0.0
 11
301.9242158339347
 21
87.72527451133152
 31
0.0
  0
LINE
  5
8374
102
{ACAD_REACTORS
330
843A
102
}
330
19
100
AcDbEntity
  8
01
  6
BYBLOCK
100
AcDbLine
 10
302.9242239777169
 20
94.7252745113314
 30
0.0
 11
302.9242239777169
 21
87.72527451133152
 31
0.0
  0
LINE
  5
83B6
102
{ACAD_REACTORS
330
843A
102
}
330
19
100
AcDbEntity
  8
01
  6
BYBLOCK
100
AcDbLine
 10
301.9242239777169
 20
94.7252745113314
 30
0.0
 11
301.9242239777169
 21
87.72527451133152
 31
0.0
  0
LINE
  5
83F7
102
{ACAD_REACTORS
330
843A
102
}
330
19
100
AcDbEntity
  8
01
  6
BYBLOCK
100
AcDbLine
 10
329.8242265238766
 20
92.31959832532658
 30
0.0
 11
330.6242219579276
 21
90.35726323645116
 31
0.0
  0
LINE
  5
83F8
102
{ACAD_REACTORS
330
843A
102
}
330
19
100
AcDbEntity
  8
01
  6
BYBLOCK
100
AcDbLine
 10
330.6242219579276
 20
90.35726323645116
 30
0.0
 11
330.9359918141797
 21
90.94553981149357
 31
0.0
  0
LINE
  5
83F9
102
{ACAD_REACTORS
330
843A
102
}
330
19
100
AcDbEntity
  8
01
  6
BYBLOCK
100
AcDbLine
 10
307.4242286310867
 20
93.2252279754336
 30
0.0
 11
308.2242193239049
 21
89.2252279754336
 31
0.0
  0
LINE
  5
83FA
102
{ACAD_REACTORS
330
843A
102
}
330
19
100
AcDbEntity
  8
01
  6
BYBLOCK
100
AcDbLine
 10
318.6242286310911
 20
93.2252279754336
 30
0.0
 11
319.4242193239136
 21
89.2252279754336
 31
0.0
  0
LINE
  5
83FB
102
{ACAD_REACTORS
330
843A
102
}
330
19
100
AcDbEntity
  8
01
  6
BYBLOCK
100
AcDbLine
 10
321.8242286310911
 20
93.2252279754336
 30
0.0
 11
322.6242193239137
 21
89.2252279754336
 31
0.0
  0
LINE
  5
83FC
102
{ACAD_REACTORS
330
843A
102
}
330
19
100
AcDbEntity
  8
01
  6
BYBLOCK
100
AcDbLine
 10
322.6242193239137
 20
89.2252279754336
 30
0.0
 11
322.7242204873109
 21
89.7252279754336
 31
0.0
  0
LINE
  5
83FD
102
{ACAD_REACTORS
330
843A
102
}
330
19
100
AcDbEntity
  8
01
  6
BYBLOCK
100
AcDbLine
 10
323.3242274676939
 20
92.7252279754336
 30
0.0
 11
323.4242286310911
 21
93.2252279754336
 31
0.0
  0
LINE
  5
83FE
102
{ACAD_REACTORS
330
843A
102
}
330
19
100
AcDbEntity
  8
01
  6
BYBLOCK
100
AcDbLine
 10
319.4242193239136
 20
89.2252279754336
 30
0.0
 11
319.5242204873109
 21
89.7252279754336
 31
0.0
  0
LINE
  5
83FF
102
{ACAD_REACTORS
330
843A
102
}
330
19
100
AcDbEntity
  8
01
  6
BYBLOCK
100
AcDbLine
 10
321.0242193239138
 20
89.2252279754336
 30
0.0
 11
321.1242204873109
 21
89.7252279754336
 31
0.0
  0
LINE
  5
8400
102
{ACAD_REACTORS
330
843A
102
}
330
19
100
AcDbEntity
  8
01
  6
BYBLOCK
100
AcDbLine
 10
321.724227467694
 20
92.7252279754336
 30
0.0
 11
321.8242286310911
 21
93.2252279754336
 31
0.0
  0
LINE
  5
8401
102
{ACAD_REACTORS
330
843A
102
}
330
19
100
AcDbEntity
  8
01
  6
BYBLOCK
100
AcDbLine
 10
320.1242274676941
 20
92.7252279754336
 30
0.0
 11
320.2242286310912
 21
93.2252279754336
 31
0.0
  0
LINE
  5
8402
102
{ACAD_REACTORS
330
843A
102
}
330
19
100
AcDbEntity
  8
01
  6
BYBLOCK
100
AcDbLine
 10
320.2242286310912
 20
93.2252279754336
 30
0.0
 11
321.0242193239138
 21
89.2252279754336
 31
0.0
  0
LINE
  5
8403
102
{ACAD_REACTORS
330
843A
102
}
330
19
100
AcDbEntity
  8
01
  6
BYBLOCK
100
AcDbLine
 10
329.024220904322
 20
89.90444913204436
 30
0.0
 11
329.20698504695
 21
90.45619859584764
 31
0.0
  0
LINE
  5
8404
102
{ACAD_REACTORS
330
843A
102
}
330
19
100
AcDbEntity
  8
01
  6
BYBLOCK
100
AcDbLine
 10
325.8242193239137
 20
89.2252279754336
 30
0.0
 11
325.9242204873108
 21
89.7252279754336
 31
0.0
  0
LINE
  5
8405
102
{ACAD_REACTORS
330
843A
102
}
330
19
100
AcDbEntity
  8
01
  6
BYBLOCK
100
AcDbLine
 10
324.2242193239137
 20
89.2252279754336
 30
0.0
 11
324.3242204873107
 21
89.7252279754336
 31
0.0
  0
LINE
  5
8406
102
{ACAD_REACTORS
330
843A
102
}
330
19
100
AcDbEntity
  8
01
  6
BYBLOCK
100
AcDbLine
 10
327.4242198507163
 20
89.45163502763756
 30
0.0
 11
327.5534905483462
 21
89.9882287629087
 31
0.0
  0
LINE
  5
8407
102
{ACAD_REACTORS
330
843A
102
}
330
19
100
AcDbEntity
  8
01
  6
BYBLOCK
100
AcDbLine
 10
328.1114580651308
 20
92.30431337822489
 30
0.0
 11
328.2242275774809
 21
92.77241183337486
 31
0.0
  0
LINE
  5
8408
102
{ACAD_REACTORS
330
843A
102
}
330
19
100
AcDbEntity
  8
01
  6
BYBLOCK
100
AcDbLine
 10
324.924227467694
 20
92.7252279754336
 30
0.0
 11
325.0242286310911
 21
93.2252279754336
 31
0.0
  0
LINE
  5
8409
102
{ACAD_REACTORS
330
843A
102
}
330
19
100
AcDbEntity
  8
01
  6
BYBLOCK
100
AcDbLine
 10
326.5242274676939
 20
92.7252279754336
 30
0.0
 11
326.624228631091
 21
93.2252279754336
 31
0.0
  0
LINE
  5
840A
102
{ACAD_REACTORS
330
843A
102
}
330
19
100
AcDbEntity
  8
01
  6
BYBLOCK
100
AcDbLine
 10
329.6727907274362
 20
91.8624264846955
 30
0.0
 11
329.8242265238766
 21
92.31959832532658
 31
0.0
  0
LINE
  5
840B
102
{ACAD_REACTORS
330
843A
102
}
330
19
100
AcDbEntity
  8
01
  6
BYBLOCK
100
AcDbLine
 10
328.2242275774809
 20
92.77241183337486
 30
0.0
 11
329.024220904322
 21
89.90444913204436
 31
0.0
  0
LINE
  5
840C
102
{ACAD_REACTORS
330
843A
102
}
330
19
100
AcDbEntity
  8
01
  6
BYBLOCK
100
AcDbLine
 10
325.0242286310911
 20
93.2252279754336
 30
0.0
 11
325.8242193239137
 21
89.2252279754336
 31
0.0
  0
LINE
  5
840D
102
{ACAD_REACTORS
330
843A
102
}
330
19
100
AcDbEntity
  8
01
  6
BYBLOCK
100
AcDbLine
 10
326.624228631091
 20
93.2252279754336
 30
0.0
 11
327.4242198507163
 21
89.45163502763756
 31
0.0
  0
LINE
  5
840E
102
{ACAD_REACTORS
330
843A
102
}
330
19
100
AcDbEntity
  8
01
  6
BYBLOCK
100
AcDbLine
 10
323.4242286310911
 20
93.2252279754336
 30
0.0
 11
324.2242193239137
 21
89.2252279754336
 31
0.0
  0
LINE
  5
840F
102
{ACAD_REACTORS
330
843A
102
}
330
19
100
AcDbEntity
  8
01
  6
BYBLOCK
100
AcDbLine
 10
310.6242286310867
 20
93.2252279754336
 30
0.0
 11
311.424219323905
 21
89.2252279754336
 31
0.0
  0
LINE
  5
8410
102
{ACAD_REACTORS
330
843A
102
}
330
19
100
AcDbEntity
  8
01
  6
BYBLOCK
100
AcDbLine
 10
311.424219323905
 20
89.2252279754336
 30
0.0
 11
311.5242204873027
 21
89.7252279754336
 31
0.0
  0
LINE
  5
8411
102
{ACAD_REACTORS
330
843A
102
}
330
19
100
AcDbEntity
  8
01
  6
BYBLOCK
100
AcDbLine
 10
312.1242274676934
 20
92.7252279754336
 30
0.0
 11
312.2242286310911
 21
93.2252279754336
 31
0.0
  0
LINE
  5
8412
102
{ACAD_REACTORS
330
843A
102
}
330
19
100
AcDbEntity
  8
01
  6
BYBLOCK
100
AcDbLine
 10
309.8242193239049
 20
89.2252279754336
 30
0.0
 11
309.9242204873025
 21
89.7252279754336
 31
0.0
  0
LINE
  5
8413
102
{ACAD_REACTORS
330
843A
102
}
330
19
100
AcDbEntity
  8
01
  6
BYBLOCK
100
AcDbLine
 10
308.2242193239049
 20
89.2252279754336
 30
0.0
 11
308.3242204873026
 21
89.7252279754336
 31
0.0
  0
LINE
  5
8414
102
{ACAD_REACTORS
330
843A
102
}
330
19
100
AcDbEntity
  8
01
  6
BYBLOCK
100
AcDbLine
 10
310.5242274676891
 20
92.7252279754336
 30
0.0
 11
310.6242286310867
 21
93.2252279754336
 31
0.0
  0
LINE
  5
8415
102
{ACAD_REACTORS
330
843A
102
}
330
19
100
AcDbEntity
  8
01
  6
BYBLOCK
100
AcDbLine
 10
308.9242274676889
 20
92.7252279754336
 30
0.0
 11
309.0242286310866
 21
93.2252279754336
 31
0.0
  0
LINE
  5
8416
102
{ACAD_REACTORS
330
843A
102
}
330
19
100
AcDbEntity
  8
01
  6
BYBLOCK
100
AcDbLine
 10
309.0242286310866
 20
93.2252279754336
 30
0.0
 11
309.8242193239049
 21
89.2252279754336
 31
0.0
  0
LINE
  5
8417
102
{ACAD_REACTORS
330
843A
102
}
330
19
100
AcDbEntity
  8
01
  6
BYBLOCK
100
AcDbLine
 10
316.2242193239094
 20
89.2252279754336
 30
0.0
 11
316.3242204873071
 21
89.7252279754336
 31
0.0
  0
LINE
  5
8418
102
{ACAD_REACTORS
330
843A
102
}
330
19
100
AcDbEntity
  8
01
  6
BYBLOCK
100
AcDbLine
 10
317.8242193239137
 20
89.2252279754336
 30
0.0
 11
317.9242204873108
 21
89.7252279754336
 31
0.0
  0
LINE
  5
8419
102
{ACAD_REACTORS
330
843A
102
}
330
19
100
AcDbEntity
  8
01
  6
BYBLOCK
100
AcDbLine
 10
313.0242193239093
 20
89.2252279754336
 30
0.0
 11
313.124220487307
 21
89.7252279754336
 31
0.0
  0
LINE
  5
841A
102
{ACAD_REACTORS
330
843A
102
}
330
19
100
AcDbEntity
  8
01
  6
BYBLOCK
100
AcDbLine
 10
314.6242193239092
 20
89.2252279754336
 30
0.0
 11
314.7242204873069
 21
89.7252279754336
 31
0.0
  0
LINE
  5
841B
102
{ACAD_REACTORS
330
843A
102
}
330
19
100
AcDbEntity
  8
01
  6
BYBLOCK
100
AcDbLine
 10
318.5242274676939
 20
92.7252279754336
 30
0.0
 11
318.6242286310911
 21
93.2252279754336
 31
0.0
  0
LINE
  5
841C
102
{ACAD_REACTORS
330
843A
102
}
330
19
100
AcDbEntity
  8
01
  6
BYBLOCK
100
AcDbLine
 10
316.9242274676934
 20
92.7252279754336
 30
0.0
 11
317.0242286310911
 21
93.2252279754336
 31
0.0
  0
LINE
  5
841D
102
{ACAD_REACTORS
330
843A
102
}
330
19
100
AcDbEntity
  8
01
  6
BYBLOCK
100
AcDbLine
 10
313.7242274676933
 20
92.7252279754336
 30
0.0
 11
313.824228631091
 21
93.2252279754336
 31
0.0
  0
LINE
  5
841E
102
{ACAD_REACTORS
330
843A
102
}
330
19
100
AcDbEntity
  8
01
  6
BYBLOCK
100
AcDbLine
 10
315.3242274676934
 20
92.7252279754336
 30
0.0
 11
315.4242286310911
 21
93.2252279754336
 31
0.0
  0
LINE
  5
841F
102
{ACAD_REACTORS
330
843A
102
}
330
19
100
AcDbEntity
  8
01
  6
BYBLOCK
100
AcDbLine
 10
315.4242286310911
 20
93.2252279754336
 30
0.0
 11
316.2242193239094
 21
89.2252279754336
 31
0.0
  0
LINE
  5
8420
102
{ACAD_REACTORS
330
843A
102
}
330
19
100
AcDbEntity
  8
01
  6
BYBLOCK
100
AcDbLine
 10
317.0242286310911
 20
93.2252279754336
 30
0.0
 11
317.8242193239137
 21
89.2252279754336
 31
0.0
  0
LINE
  5
8421
102
{ACAD_REACTORS
330
843A
102
}
330
19
100
AcDbEntity
  8
01
  6
BYBLOCK
100
AcDbLine
 10
313.824228631091
 20
93.2252279754336
 30
0.0
 11
314.6242193239092
 21
89.2252279754336
 31
0.0
  0
LINE
  5
8422
102
{ACAD_REACTORS
330
843A
102
}
330
19
100
AcDbEntity
  8
01
  6
BYBLOCK
100
AcDbLine
 10
312.2242286310911
 20
93.2252279754336
 30
0.0
 11
313.0242193239093
 21
89.2252279754336
 31
0.0
  0
LINE
  5
8423
102
{ACAD_REACTORS
330
843A
102
}
330
19
100
AcDbEntity
  8
01
  6
BYBLOCK
100
AcDbLine
 10
301.9242204874163
 20
89.7252279754336
 30
0.0
 11
301.924227467801
 21
92.72522797543337
 31
0.0
  0
LINE
  5
8425
102
{ACAD_REACTORS
330
843A
102
}
330
19
100
AcDbEntity
  8
01
  6
BYBLOCK
100
AcDbLine
 10
302.9242239777169
 20
91.72523379136362
 30
0.0
 11
303.4242193239008
 21
89.2252279754336
 31
0.0
  0
LINE
  5
8426
102
{ACAD_REACTORS
330
843A
102
}
330
19
100
AcDbEntity
  8
01
  6
BYBLOCK
100
AcDbLine
 10
303.4242193239008
 20
89.2252279754336
 30
0.0
 11
303.5242204872985
 21
89.7252279754336
 31
0.0
  0
LINE
  5
8427
102
{ACAD_REACTORS
330
843A
102
}
330
19
100
AcDbEntity
  8
01
  6
BYBLOCK
100
AcDbLine
 10
304.1242274676848
 20
92.7252279754336
 30
0.0
 11
304.2242286310824
 21
93.2252279754336
 31
0.0
  0
LINE
  5
8428
102
{ACAD_REACTORS
330
843A
102
}
330
19
100
AcDbEntity
  8
01
  6
BYBLOCK
100
AcDbLine
 10
305.7242274676847
 20
92.7252279754336
 30
0.0
 11
305.8242286310823
 21
93.2252279754336
 31
0.0
  0
LINE
  5
8429
102
{ACAD_REACTORS
330
843A
102
}
330
19
100
AcDbEntity
  8
01
  6
BYBLOCK
100
AcDbLine
 10
305.8242286310823
 20
93.2252279754336
 30
0.0
 11
306.6242193239006
 21
89.2252279754336
 31
0.0
  0
LINE
  5
842A
102
{ACAD_REACTORS
330
843A
102
}
330
19
100
AcDbEntity
  8
01
  6
BYBLOCK
100
AcDbLine
 10
305.0242193239007
 20
89.2252279754336
 30
0.0
 11
305.1242204872984
 21
89.7252279754336
 31
0.0
  0
LINE
  5
842B
102
{ACAD_REACTORS
330
843A
102
}
330
19
100
AcDbEntity
  8
01
  6
BYBLOCK
100
AcDbLine
 10
306.6242193239006
 20
89.2252279754336
 30
0.0
 11
306.7242204872983
 21
89.7252279754336
 31
0.0
  0
LINE
  5
842C
102
{ACAD_REACTORS
330
843A
102
}
330
19
100
AcDbEntity
  8
01
  6
BYBLOCK
100
AcDbLine
 10
304.2242286310824
 20
93.2252279754336
 30
0.0
 11
305.0242193239007
 21
89.2252279754336
 31
0.0
  0
LINE
  5
842D
102
{ACAD_REACTORS
330
843A
102
}
330
19
100
AcDbEntity
  8
01
  6
BYBLOCK
100
AcDbLine
 10
307.324227467689
 20
92.7252279754336
 30
0.0
 11
307.4242286310867
 21
93.2252279754336
 31
0.0
  0
LINE
  5
842E
102
{ACAD_REACTORS
330
843A
102
}
330
19
100
AcDbEntity
  8
01
  6
BYBLOCK
100
AcDbLine
 10
331.9242239775544
 20
91.2252279754336
 30
0.0
 11
326.6242274676928
 21
92.7252279754336
 31
0.0
  0
LINE
  5
842F
102
{ACAD_REACTORS
330
843A
102
}
330
19
100
AcDbEntity
  8
01
  6
BYBLOCK
100
AcDbLine
 10
326.6242274676928
 20
92.7252279754336
 30
0.0
 11
302.9242239777169
 21
92.72522797543338
 31
0.0
  0
LINE
  5
8430
102
{ACAD_REACTORS
330
843A
102
}
330
19
100
AcDbEntity
  8
01
  6
BYBLOCK
100
AcDbLine
 10
331.9242239775544
 20
91.2252279754336
 30
0.0
 11
326.6242204873092
 21
89.72522797543348
 31
0.0
  0
LINE
  5
8431
102
{ACAD_REACTORS
330
843A
102
}
330
19
100
AcDbEntity
  8
01
  6
BYBLOCK
100
AcDbLine
 10
301.924232121499
 20
94.7252745113314
 30
0.0
 11
301.924227467801
 21
92.72522797543337
 31
0.0
  0
LINE
  5
8432
102
{ACAD_REACTORS
330
843A
102
}
330
19
100
AcDbEntity
  8
01
  6
BYBLOCK
100
AcDbLine
 10
326.6242204873092
 20
89.72522797543348
 30
0.0
 11
302.9242239777169
 21
89.7252279754336
 31
0.0
  0
LINE
  5
8433
102
{ACAD_REACTORS
330
843A
102
}
330
19
100
AcDbEntity
  8
01
  6
BYBLOCK
100
AcDbLine
 10
301.924232121499
 20
94.7252745113314
 30
0.0
 11
300.8242286313037
 21
94.72527451133152
 31
0.0
  0
LINE
  5
8434
102
{ACAD_REACTORS
330
843A
102
}
330
19
100
AcDbEntity
  8
01
  6
BYBLOCK
100
AcDbLine
 10
301.9242204874163
 20
89.7252279754336
 30
0.0
 11
301.9242158339347
 21
87.72527451133152
 31
0.0
  0
ARC
  5
8435
102
{ACAD_REACTORS
330
843A
102
}
330
19
100
AcDbEntity
  8
01
  6
BYBLOCK
100
AcDbCircle
 10
300.8242286313037
 20
93.22527451133152
 30
0.0
 40
1.5
100
AcDbArc
 50
90.0
 51
179.9998666844709
  0
LINE
  5
8436
102
{ACAD_REACTORS
330
843A
102
}
330
19
100
AcDbEntity
  8
01
  6
BYBLOCK
100
AcDbLine
 10
301.9242158339347
 20
87.72527451133152
 30
0.0
 11
300.8242193241241
 21
87.72527451133152
 31
0.0
  0
LINE
  5
8437
102
{ACAD_REACTORS
330
843A
102
}
330
19
100
AcDbEntity
  8
01
  6
BYBLOCK
100
AcDbLine
 10
299.3242286313077
 20
93.22527800152392
 30
0.0
 11
299.3242193241282
 21
89.22527800152392
 31
0.0
  0
ARC
  5
8438
102
{ACAD_REACTORS
330
843A
102
}
330
19
100
AcDbEntity
  8
01
  6
BYBLOCK
100
AcDbCircle
 10
300.8242193241241
 20
89.22527451133152
 30
0.0
 40
1.5
100
AcDbArc
 50
179.9998666844709
 51
270.0
  0
LINE
  5
843F
330
19
100
AcDbEntity
  8
01
100
AcDbLine
 10
315.9237604701038
 20
42.13560289672625
 30
0.0
 11
315.9237604701038
 21
141.5742288557402
 31
0.0
  0
LINE
  5
8440
330
19
100
AcDbEntity
  8
01
100
AcDbLine
 10
324.9237604701034
 20
42.13560289672625
 30
0.0
 11
324.9237604701038
 21
141.5742288557402
 31
0.0
  0
LINE
  5
8441
330
19
100
AcDbEntity
  8
01
100
AcDbLine
 10
306.9242239777169
 20
107.2252745113315
 30
0.0
 11
306.9242239777169
 21
140.8456683659977
 31
0.0
  0
LINE
  5
8442
330
19
100
AcDbEntity
  8
01
100
AcDbLine
 10
306.9242239777169
 20
77.22527451133152
 30
0.0
 11
306.9242239777169
 21
42.13560289672625
 31
0.0
  0
LINE
  5
8501
330
19
100
AcDbEntity
  8
01
  6
BYBLOCK
100
AcDbLine
 10
111.4923569320508
 20
251.684583945917
 30
0.0
 11
109.9923569320508
 21
246.3845874360554
 31
0.0
  0
LINE
  5
8502
330
19
100
AcDbEntity
  8
01
  6
BYBLOCK
100
AcDbLine
 10
109.9923569320508
 20
246.3845874360554
 30
0.0
 11
109.992356932051
 21
226.6845839460795
 31
0.0
  0
LINE
  5
8503
330
19
100
AcDbEntity
  8
01
  6
BYBLOCK
100
AcDbLine
 10
111.4923569320508
 20
251.684583945917
 30
0.0
 11
112.9923569320509
 21
246.3845804556717
 31
0.0
  0
LINE
  5
8505
330
19
100
AcDbEntity
  8
01
  6
BYBLOCK
100
AcDbLine
 10
112.9923569320509
 20
246.3845804556717
 30
0.0
 11
112.9923569320508
 21
226.6845839460794
 31
0.0
  0
LINE
  5
850C
330
19
100
AcDbEntity
  8
01
  6
BYBLOCK
100
AcDbLine
 10
110.3979865821578
 20
249.5845864922392
 30
0.0
 11
112.3603216710333
 21
250.3845819262901
 31
0.0
  0
LINE
  5
850D
330
19
100
AcDbEntity
  8
01
  6
BYBLOCK
100
AcDbLine
 10
112.3603216710333
 20
250.3845819262901
 30
0.0
 11
111.7720450959908
 21
250.6963517825423
 31
0.0
  0
LINE
  5
850E
330
19
100
AcDbEntity
  8
01
  6
BYBLOCK
100
AcDbLine
 10
109.4923569320508
 20
227.1845885994492
 30
0.0
 11
113.4923569320508
 21
227.9845792922675
 31
0.0
  0
LINE
  5
850F
330
19
100
AcDbEntity
  8
01
  6
BYBLOCK
100
AcDbLine
 10
109.4923569320508
 20
238.3845885994536
 30
0.0
 11
113.4923569320508
 21
239.1845792922762
 31
0.0
  0
LINE
  5
8510
330
19
100
AcDbEntity
  8
01
  6
BYBLOCK
100
AcDbLine
 10
109.4923569320508
 20
241.5845885994536
 30
0.0
 11
113.4923569320508
 21
242.3845792922762
 31
0.0
  0
LINE
  5
8511
330
19
100
AcDbEntity
  8
01
  6
BYBLOCK
100
AcDbLine
 10
113.4923569320508
 20
242.3845792922762
 30
0.0
 11
112.9923569320508
 21
242.4845804556734
 31
0.0
  0
LINE
  5
8512
330
19
100
AcDbEntity
  8
01
  6
BYBLOCK
100
AcDbLine
 10
109.9923569320508
 20
243.0845874360564
 30
0.0
 11
109.4923569320508
 21
243.1845885994537
 31
0.0
  0
LINE
  5
8513
330
19
100
AcDbEntity
  8
01
  6
BYBLOCK
100
AcDbLine
 10
113.4923569320508
 20
239.1845792922762
 30
0.0
 11
112.9923569320508
 21
239.2845804556734
 31
0.0
  0
LINE
  5
8514
330
19
100
AcDbEntity
  8
01
  6
BYBLOCK
100
AcDbLine
 10
113.4923569320508
 20
240.7845792922763
 30
0.0
 11
112.9923569320508
 21
240.8845804556734
 31
0.0
  0
LINE
  5
8515
330
19
100
AcDbEntity
  8
01
  6
BYBLOCK
100
AcDbLine
 10
109.9923569320508
 20
241.4845874360565
 30
0.0
 11
109.4923569320508
 21
241.5845885994536
 31
0.0
  0
LINE
  5
8516
330
19
100
AcDbEntity
  8
01
  6
BYBLOCK
100
AcDbLine
 10
109.9923569320508
 20
239.8845874360566
 30
0.0
 11
109.4923569320508
 21
239.9845885994537
 31
0.0
  0
LINE
  5
8517
330
19
100
AcDbEntity
  8
01
  6
BYBLOCK
100
AcDbLine
 10
109.4923569320508
 20
239.9845885994537
 30
0.0
 11
113.4923569320508
 21
240.7845792922763
 31
0.0
  0
LINE
  5
8518
330
19
100
AcDbEntity
  8
01
  6
BYBLOCK
100
AcDbLine
 10
112.8131357754401
 20
248.7845808726845
 30
0.0
 11
112.2613863116368
 21
248.9673450153125
 31
0.0
  0
LINE
  5
8519
330
19
100
AcDbEntity
  8
01
  6
BYBLOCK
100
AcDbLine
 10
113.4923569320508
 20
245.5845792922762
 30
0.0
 11
112.9923569320508
 21
245.6845804556733
 31
0.0
  0
LINE
  5
851A
330
19
100
AcDbEntity
  8
01
  6
BYBLOCK
100
AcDbLine
 10
113.4923569320508
 20
243.9845792922762
 30
0.0
 11
112.9923569320508
 21
244.0845804556732
 31
0.0
  0
LINE
  5
851B
330
19
100
AcDbEntity
  8
01
  6
BYBLOCK
100
AcDbLine
 10
113.2659498798469
 20
247.1845798190789
 30
0.0
 11
112.7293561445757
 21
247.3138505167087
 31
0.0
  0
LINE
  5
851C
330
19
100
AcDbEntity
  8
01
  6
BYBLOCK
100
AcDbLine
 10
110.4132715292595
 20
247.8718180334934
 30
0.0
 11
109.9451730741096
 21
247.9845875458434
 31
0.0
  0
LINE
  5
851D
330
19
100
AcDbEntity
  8
01
  6
BYBLOCK
100
AcDbLine
 10
109.9923569320508
 20
244.6845874360566
 30
0.0
 11
109.4923569320508
 21
244.7845885994536
 31
0.0
  0
LINE
  5
851E
330
19
100
AcDbEntity
  8
01
  6
BYBLOCK
100
AcDbLine
 10
109.9923569320508
 20
246.2845874360564
 30
0.0
 11
109.4923569320508
 21
246.3845885994535
 31
0.0
  0
LINE
  5
851F
330
19
100
AcDbEntity
  8
01
  6
BYBLOCK
100
AcDbLine
 10
110.8551584227889
 20
249.4331506957988
 30
0.0
 11
110.3979865821578
 21
249.5845864922392
 31
0.0
  0
LINE
  5
8520
330
19
100
AcDbEntity
  8
01
  6
BYBLOCK
100
AcDbLine
 10
109.9451730741096
 20
247.9845875458434
 30
0.0
 11
112.8131357754401
 21
248.7845808726845
 31
0.0
  0
LINE
  5
8521
330
19
100
AcDbEntity
  8
01
  6
BYBLOCK
100
AcDbLine
 10
109.4923569320508
 20
244.7845885994536
 30
0.0
 11
113.4923569320508
 21
245.5845792922762
 31
0.0
  0
LINE
  5
8522
330
19
100
AcDbEntity
  8
01
  6
BYBLOCK
100
AcDbLine
 10
109.4923569320508
 20
246.3845885994535
 30
0.0
 11
113.2659498798469
 21
247.1845798190789
 31
0.0
  0
LINE
  5
8523
330
19
100
AcDbEntity
  8
01
  6
BYBLOCK
100
AcDbLine
 10
109.4923569320508
 20
243.1845885994537
 30
0.0
 11
113.4923569320508
 21
243.9845792922762
 31
0.0
  0
LINE
  5
8524
330
19
100
AcDbEntity
  8
01
  6
BYBLOCK
100
AcDbLine
 10
109.4923569320508
 20
230.3845885994493
 30
0.0
 11
113.4923569320508
 21
231.1845792922675
 31
0.0
  0
LINE
  5
8525
330
19
100
AcDbEntity
  8
01
  6
BYBLOCK
100
AcDbLine
 10
113.4923569320508
 20
231.1845792922675
 30
0.0
 11
112.9923569320508
 21
231.2845804556652
 31
0.0
  0
LINE
  5
8526
330
19
100
AcDbEntity
  8
01
  6
BYBLOCK
100
AcDbLine
 10
109.9923569320508
 20
231.8845874360559
 30
0.0
 11
109.4923569320508
 21
231.9845885994536
 31
0.0
  0
LINE
  5
8527
330
19
100
AcDbEntity
  8
01
  6
BYBLOCK
100
AcDbLine
 10
113.4923569320508
 20
229.5845792922674
 30
0.0
 11
112.9923569320508
 21
229.6845804556651
 31
0.0
  0
LINE
  5
8528
330
19
100
AcDbEntity
  8
01
  6
BYBLOCK
100
AcDbLine
 10
113.4923569320508
 20
227.9845792922675
 30
0.0
 11
112.9923569320508
 21
228.0845804556652
 31
0.0
  0
LINE
  5
8529
330
19
100
AcDbEntity
  8
01
  6
BYBLOCK
100
AcDbLine
 10
109.9923569320508
 20
230.2845874360516
 30
0.0
 11
109.4923569320508
 21
230.3845885994493
 31
0.0
  0
LINE
  5
852A
330
19
100
AcDbEntity
  8
01
  6
BYBLOCK
100
AcDbLine
 10
109.9923569320508
 20
228.6845874360515
 30
0.0
 11
109.4923569320508
 21
228.7845885994491
 31
0.0
  0
LINE
  5
852B
330
19
100
AcDbEntity
  8
01
  6
BYBLOCK
100
AcDbLine
 10
109.4923569320508
 20
228.7845885994491
 30
0.0
 11
113.4923569320508
 21
229.5845792922674
 31
0.0
  0
LINE
  5
852C
330
19
100
AcDbEntity
  8
01
  6
BYBLOCK
100
AcDbLine
 10
113.4923569320508
 20
235.9845792922719
 30
0.0
 11
112.9923569320508
 21
236.0845804556696
 31
0.0
  0
LINE
  5
852D
330
19
100
AcDbEntity
  8
01
  6
BYBLOCK
100
AcDbLine
 10
113.4923569320508
 20
237.5845792922763
 30
0.0
 11
112.9923569320508
 21
237.6845804556734
 31
0.0
  0
LINE
  5
852E
330
19
100
AcDbEntity
  8
01
  6
BYBLOCK
100
AcDbLine
 10
113.4923569320508
 20
232.7845792922719
 30
0.0
 11
112.9923569320508
 21
232.8845804556695
 31
0.0
  0
LINE
  5
852F
330
19
100
AcDbEntity
  8
01
  6
BYBLOCK
100
AcDbLine
 10
113.4923569320508
 20
234.3845792922718
 30
0.0
 11
112.9923569320508
 21
234.4845804556695
 31
0.0
  0
LINE
  5
8530
330
19
100
AcDbEntity
  8
01
  6
BYBLOCK
100
AcDbLine
 10
109.9923569320508
 20
238.2845874360565
 30
0.0
 11
109.4923569320508
 21
238.3845885994536
 31
0.0
  0
LINE
  5
8531
330
19
100
AcDbEntity
  8
01
  6
BYBLOCK
100
AcDbLine
 10
109.9923569320508
 20
236.6845874360559
 30
0.0
 11
109.4923569320508
 21
236.7845885994537
 31
0.0
  0
LINE
  5
8532
330
19
100
AcDbEntity
  8
01
  6
BYBLOCK
100
AcDbLine
 10
109.9923569320508
 20
233.4845874360558
 30
0.0
 11
109.4923569320508
 21
233.5845885994535
 31
0.0
  0
LINE
  5
8533
330
19
100
AcDbEntity
  8
01
  6
BYBLOCK
100
AcDbLine
 10
109.9923569320508
 20
235.084587436056
 30
0.0
 11
109.4923569320508
 21
235.1845885994537
 31
0.0
  0
LINE
  5
8534
330
19
100
AcDbEntity
  8
01
  6
BYBLOCK
100
AcDbLine
 10
109.4923569320508
 20
235.1845885994537
 30
0.0
 11
113.4923569320508
 21
235.9845792922719
 31
0.0
  0
LINE
  5
8535
330
19
100
AcDbEntity
  8
01
  6
BYBLOCK
100
AcDbLine
 10
109.4923569320508
 20
236.7845885994537
 30
0.0
 11
113.4923569320508
 21
237.5845792922763
 31
0.0
  0
LINE
  5
8536
330
19
100
AcDbEntity
  8
01
  6
BYBLOCK
100
AcDbLine
 10
109.4923569320508
 20
233.5845885994535
 30
0.0
 11
113.4923569320508
 21
234.3845792922718
 31
0.0
  0
LINE
  5
8537
330
19
100
AcDbEntity
  8
01
  6
BYBLOCK
100
AcDbLine
 10
109.4923569320508
 20
231.9845885994536
 30
0.0
 11
113.4923569320508
 21
232.7845792922719
 31
0.0
  0
LINE
  5
8541
330
19
100
AcDbEntity
  8
01
  6
BYBLOCK
100
AcDbLine
 10
109.9923569320508
 20
227.0845874360515
 30
0.0
 11
109.4923569320508
 21
227.1845885994492
 31
0.0
  0
LINE
  5
8545
330
19
100
AcDbEntity
  8
1CENTER
100
AcDbLine
 10
73.49231039615289
 20
253.010224026195
 30
0.0
 11
73.49231039615289
 21
220.0894749559203
 31
0.0
  0
LINE
  5
8546
330
19
100
AcDbEntity
  8
01
  6
BYBLOCK
100
AcDbLine
 10
73.49226386025495
 20
251.684583945917
 30
0.0
 11
74.99226386025495
 21
246.3845874360554
 31
0.0
  0
LINE
  5
8547
330
19
100
AcDbEntity
  8
01
  6
BYBLOCK
100
AcDbLine
 10
74.99226386025495
 20
246.3845874360554
 30
0.0
 11
74.99226386025475
 21
226.6845839460795
 31
0.0
  0
LINE
  5
8548
330
19
100
AcDbEntity
  8
01
  6
BYBLOCK
100
AcDbLine
 10
73.49226386025495
 20
251.684583945917
 30
0.0
 11
71.99226386025484
 21
246.3845804556717
 31
0.0
  0
LINE
  5
8549
330
19
100
AcDbEntity
  8
01
  6
BYBLOCK
100
AcDbLine
 10
71.99226386025484
 20
246.3845804556717
 30
0.0
 11
71.99226386025495
 21
226.6845839460794
 31
0.0
  0
LINE
  5
854A
330
19
100
AcDbEntity
  8
01
  6
BYBLOCK
100
AcDbLine
 10
74.58663421014793
 20
249.5845864922392
 30
0.0
 11
72.62429912127251
 21
250.3845819262901
 31
0.0
  0
LINE
  5
854B
330
19
100
AcDbEntity
  8
01
  6
BYBLOCK
100
AcDbLine
 10
72.62429912127251
 20
250.3845819262901
 30
0.0
 11
73.21257569631493
 21
250.6963517825423
 31
0.0
  0
LINE
  5
854C
330
19
100
AcDbEntity
  8
01
  6
BYBLOCK
100
AcDbLine
 10
75.49226386025495
 20
227.1845885994492
 30
0.0
 11
71.49226386025495
 21
227.9845792922675
 31
0.0
  0
LINE
  5
854D
330
19
100
AcDbEntity
  8
01
  6
BYBLOCK
100
AcDbLine
 10
75.49226386025495
 20
238.3845885994536
 30
0.0
 11
71.49226386025495
 21
239.1845792922762
 31
0.0
  0
LINE
  5
854E
330
19
100
AcDbEntity
  8
01
  6
BYBLOCK
100
AcDbLine
 10
75.49226386025495
 20
241.5845885994536
 30
0.0
 11
71.49226386025495
 21
242.3845792922762
 31
0.0
  0
LINE
  5
854F
330
19
100
AcDbEntity
  8
01
  6
BYBLOCK
100
AcDbLine
 10
71.49226386025495
 20
242.3845792922762
 30
0.0
 11
71.99226386025495
 21
242.4845804556734
 31
0.0
  0
LINE
  5
8550
330
19
100
AcDbEntity
  8
01
  6
BYBLOCK
100
AcDbLine
 10
74.99226386025495
 20
243.0845874360564
 30
0.0
 11
75.49226386025495
 21
243.1845885994537
 31
0.0
  0
LINE
  5
8551
330
19
100
AcDbEntity
  8
01
  6
BYBLOCK
100
AcDbLine
 10
71.49226386025495
 20
239.1845792922762
 30
0.0
 11
71.99226386025495
 21
239.2845804556734
 31
0.0
  0
LINE
  5
8552
330
19
100
AcDbEntity
  8
01
  6
BYBLOCK
100
AcDbLine
 10
71.49226386025495
 20
240.7845792922763
 30
0.0
 11
71.99226386025495
 21
240.8845804556734
 31
0.0
  0
LINE
  5
8553
330
19
100
AcDbEntity
  8
01
  6
BYBLOCK
100
AcDbLine
 10
74.99226386025495
 20
241.4845874360565
 30
0.0
 11
75.49226386025495
 21
241.5845885994536
 31
0.0
  0
LINE
  5
8554
330
19
100
AcDbEntity
  8
01
  6
BYBLOCK
100
AcDbLine
 10
74.99226386025495
 20
239.8845874360566
 30
0.0
 11
75.49226386025495
 21
239.9845885994537
 31
0.0
  0
LINE
  5
8555
330
19
100
AcDbEntity
  8
01
  6
BYBLOCK
100
AcDbLine
 10
75.49226386025495
 20
239.9845885994537
 30
0.0
 11
71.49226386025495
 21
240.7845792922763
 31
0.0
  0
LINE
  5
8556
330
19
100
AcDbEntity
  8
01
  6
BYBLOCK
100
AcDbLine
 10
72.17148501686572
 20
248.7845808726845
 30
0.0
 11
72.72323448066899
 21
248.9673450153125
 31
0.0
  0
LINE
  5
8557
330
19
100
AcDbEntity
  8
01
  6
BYBLOCK
100
AcDbLine
 10
71.49226386025495
 20
245.5845792922762
 30
0.0
 11
71.99226386025495
 21
245.6845804556733
 31
0.0
  0
LINE
  5
8558
330
19
100
AcDbEntity
  8
01
  6
BYBLOCK
100
AcDbLine
 10
71.49226386025495
 20
243.9845792922762
 30
0.0
 11
71.99226386025495
 21
244.0845804556732
 31
0.0
  0
LINE
  5
8559
330
19
100
AcDbEntity
  8
01
  6
BYBLOCK
100
AcDbLine
 10
71.71867091245892
 20
247.1845798190789
 30
0.0
 11
72.25526464773006
 21
247.3138505167087
 31
0.0
  0
LINE
  5
855A
330
19
100
AcDbEntity
  8
01
  6
BYBLOCK
100
AcDbLine
 10
74.57134926304624
 20
247.8718180334934
 30
0.0
 11
75.03944771819621
 21
247.9845875458434
 31
0.0
  0
LINE
  5
855B
330
19
100
AcDbEntity
  8
01
  6
BYBLOCK
100
AcDbLine
 10
74.99226386025495
 20
244.6845874360566
 30
0.0
 11
75.49226386025495
 21
244.7845885994536
 31
0.0
  0
LINE
  5
855C
330
19
100
AcDbEntity
  8
01
  6
BYBLOCK
100
AcDbLine
 10
74.99226386025495
 20
246.2845874360564
 30
0.0
 11
75.49226386025495
 21
246.3845885994535
 31
0.0
  0
LINE
  5
855D
330
19
100
AcDbEntity
  8
01
  6
BYBLOCK
100
AcDbLine
 10
74.12946236951686
 20
249.4331506957988
 30
0.0
 11
74.58663421014793
 21
249.5845864922392
 31
0.0
  0
LINE
  5
855E
330
19
100
AcDbEntity
  8
01
  6
BYBLOCK
100
AcDbLine
 10
75.03944771819621
 20
247.9845875458434
 30
0.0
 11
72.17148501686572
 21
248.7845808726845
 31
0.0
  0
LINE
  5
855F
330
19
100
AcDbEntity
  8
01
  6
BYBLOCK
100
AcDbLine
 10
75.49226386025495
 20
244.7845885994536
 30
0.0
 11
71.49226386025495
 21
245.5845792922762
 31
0.0
  0
LINE
  5
8560
330
19
100
AcDbEntity
  8
01
  6
BYBLOCK
100
AcDbLine
 10
75.49226386025495
 20
246.3845885994535
 30
0.0
 11
71.71867091245892
 21
247.1845798190789
 31
0.0
  0
LINE
  5
8561
330
19
100
AcDbEntity
  8
01
  6
BYBLOCK
100
AcDbLine
 10
75.49226386025495
 20
243.1845885994537
 30
0.0
 11
71.49226386025495
 21
243.9845792922762
 31
0.0
  0
LINE
  5
8562
330
19
100
AcDbEntity
  8
01
  6
BYBLOCK
100
AcDbLine
 10
75.49226386025495
 20
230.3845885994493
 30
0.0
 11
71.49226386025495
 21
231.1845792922675
 31
0.0
  0
LINE
  5
8563
330
19
100
AcDbEntity
  8
01
  6
BYBLOCK
100
AcDbLine
 10
71.49226386025495
 20
231.1845792922675
 30
0.0
 11
71.99226386025495
 21
231.2845804556652
 31
0.0
  0
LINE
  5
8564
330
19
100
AcDbEntity
  8
01
  6
BYBLOCK
100
AcDbLine
 10
74.99226386025495
 20
231.8845874360559
 30
0.0
 11
75.49226386025495
 21
231.9845885994536
 31
0.0
  0
LINE
  5
8565
330
19
100
AcDbEntity
  8
01
  6
BYBLOCK
100
AcDbLine
 10
71.49226386025495
 20
229.5845792922674
 30
0.0
 11
71.99226386025495
 21
229.6845804556651
 31
0.0
  0
LINE
  5
8566
330
19
100
AcDbEntity
  8
01
  6
BYBLOCK
100
AcDbLine
 10
71.49226386025495
 20
227.9845792922675
 30
0.0
 11
71.99226386025495
 21
228.0845804556652
 31
0.0
  0
LINE
  5
8567
330
19
100
AcDbEntity
  8
01
  6
BYBLOCK
100
AcDbLine
 10
74.99226386025495
 20
230.2845874360516
 30
0.0
 11
75.49226386025495
 21
230.3845885994493
 31
0.0
  0
LINE
  5
8568
330
19
100
AcDbEntity
  8
01
  6
BYBLOCK
100
AcDbLine
 10
74.99226386025495
 20
228.6845874360515
 30
0.0
 11
75.49226386025495
 21
228.7845885994491
 31
0.0
  0
LINE
  5
8569
330
19
100
AcDbEntity
  8
01
  6
BYBLOCK
100
AcDbLine
 10
75.49226386025495
 20
228.7845885994491
 30
0.0
 11
71.49226386025495
 21
229.5845792922674
 31
0.0
  0
LINE
  5
856A
330
19
100
AcDbEntity
  8
01
  6
BYBLOCK
100
AcDbLine
 10
71.49226386025495
 20
235.9845792922719
 30
0.0
 11
71.99226386025495
 21
236.0845804556696
 31
0.0
  0
LINE
  5
856B
330
19
100
AcDbEntity
  8
01
  6
BYBLOCK
100
AcDbLine
 10
71.49226386025495
 20
237.5845792922763
 30
0.0
 11
71.99226386025495
 21
237.6845804556734
 31
0.0
  0
LINE
  5
856C
330
19
100
AcDbEntity
  8
01
  6
BYBLOCK
100
AcDbLine
 10
71.49226386025495
 20
232.7845792922719
 30
0.0
 11
71.99226386025495
 21
232.8845804556695
 31
0.0
  0
LINE
  5
856D
330
19
100
AcDbEntity
  8
01
  6
BYBLOCK
100
AcDbLine
 10
71.49226386025495
 20
234.3845792922718
 30
0.0
 11
71.99226386025495
 21
234.4845804556695
 31
0.0
  0
LINE
  5
856E
330
19
100
AcDbEntity
  8
01
  6
BYBLOCK
100
AcDbLine
 10
74.99226386025495
 20
238.2845874360565
 30
0.0
 11
75.49226386025495
 21
238.3845885994536
 31
0.0
  0
LINE
  5
856F
330
19
100
AcDbEntity
  8
01
  6
BYBLOCK
100
AcDbLine
 10
74.99226386025495
 20
236.6845874360559
 30
0.0
 11
75.49226386025495
 21
236.7845885994537
 31
0.0
  0
LINE
  5
8570
330
19
100
AcDbEntity
  8
01
  6
BYBLOCK
100
AcDbLine
 10
74.99226386025495
 20
233.4845874360558
 30
0.0
 11
75.49226386025495
 21
233.5845885994535
 31
0.0
  0
LINE
  5
8571
330
19
100
AcDbEntity
  8
01
  6
BYBLOCK
100
AcDbLine
 10
74.99226386025495
 20
235.084587436056
 30
0.0
 11
75.49226386025495
 21
235.1845885994537
 31
0.0
  0
LINE
  5
8572
330
19
100
AcDbEntity
  8
01
  6
BYBLOCK
100
AcDbLine
 10
75.49226386025495
 20
235.1845885994537
 30
0.0
 11
71.49226386025495
 21
235.9845792922719
 31
0.0
  0
LINE
  5
8573
330
19
100
AcDbEntity
  8
01
  6
BYBLOCK
100
AcDbLine
 10
75.49226386025495
 20
236.7845885994537
 30
0.0
 11
71.49226386025495
 21
237.5845792922763
 31
0.0
  0
LINE
  5
8574
330
19
100
AcDbEntity
  8
01
  6
BYBLOCK
100
AcDbLine
 10
75.49226386025495
 20
233.5845885994535
 30
0.0
 11
71.49226386025495
 21
234.3845792922718
 31
0.0
  0
LINE
  5
8575
330
19
100
AcDbEntity
  8
01
  6
BYBLOCK
100
AcDbLine
 10
75.49226386025495
 20
231.9845885994536
 30
0.0
 11
71.49226386025495
 21
232.7845792922719
 31
0.0
  0
LINE
  5
8576
330
19
100
AcDbEntity
  8
01
  6
BYBLOCK
100
AcDbLine
 10
74.99226386025495
 20
227.0845874360515
 30
0.0
 11
75.49226386025495
 21
227.1845885994492
 31
0.0
  0
TEXT
  5
8ACD
330
19
100
AcDbEntity
  8
1TEXT
100
AcDbText
 10
219.8246087255732
 20
204.103890556992
 30
0.0
 40
4.0
  1
表面処理
 72
     1
 11
229.0912753922398
 21
204.103890556992
 31
0.0
100
AcDbText
  0
LINE
  5
8ACE
330
19
100
AcDbEntity
  8
1DIM
100
AcDbLine
 10
211.6912753922397
 20
209.603890556992
 30
0.0
 11
281.6912753922397
 21
209.603890556992
 31
0.0
  0
LINE
  5
8ACF
330
19
100
AcDbEntity
  8
1DIM
100
AcDbLine
 10
211.6912753922397
 20
195.603890556992
 30
0.0
 11
281.6912753922397
 21
195.603890556992
 31
0.0
  0
LINE
  5
8AD0
330
19
100
AcDbEntity
  8
1DIM
100
AcDbLine
 10
211.6912753922397
 20
202.603890556992
 30
0.0
 11
281.6912753922397
 21
202.603890556992
 31
0.0
  0
LINE
  5
8AD1
330
19
100
AcDbEntity
  8
1DIM
100
AcDbLine
 10
246.6912753922397
 20
209.603890556992
 30
0.0
 11
246.691275392239
 21
188.603890556992
 31
0.0
  0
TEXT
  5
8AD2
330
19
100
AcDbEntity
  8
1TEXT
100
AcDbText
 10
257.2246087255731
 20
204.103890556992
 30
0.0
 40
4.0
  1
コード
 72
     1
 11
264.0912753922398
 21
204.103890556992
 31
0.0
100
AcDbText
  0
LINE
  5
8AD3
330
19
100
AcDbEntity
  8
1DIM
100
AcDbLine
 10
211.6912753922397
 20
188.603890556992
 30
0.0
 11
211.6912753922397
 21
209.603890556992
 31
0.0
  0
LINE
  5
8AD4
330
19
100
AcDbEntity
  8
1DIM
100
AcDbLine
 10
281.6912753922394
 20
188.603890556992
 30
0.0
 11
281.6912753922397
 21
209.603890556992
 31
0.0
  0
TEXT
  5
8AD5
330
19
100
AcDbEntity
  8
1TEXT
100
AcDbText
 10
211.6912753922397
 20
214.603890556992
 30
0.0
 40
8.0
  1
SC-477-X
100
AcDbText
  0
TEXT
  5
8AD6
330
19
100
AcDbEntity
  8
1TEXT
100
AcDbText
 10
212.3512753922398
 20
197.2686018974678
 30
0.0
 40
4.0
  1
ブラストシルバー
 41
0.9
 72
     1
 11
229.0912753922398
 21
197.2686018974678
 31
0.0
100
AcDbText
  0
TEXT
  5
8AD7
330
19
100
AcDbEntity
  8
1TEXT
100
AcDbText
 10
249.3579420589067
 20
196.8895335733428
 30
0.0
 40
4.0
  1
SC-477-XS
 41
0.85
 72
     1
 11
264.09127539224
 21
196.8895335733428
 31
0.0
100
AcDbText
  0
LINE
  5
8AD8
330
19
100
AcDbEntity
  8
1DIM
100
AcDbLine
 10
211.6912753922397
 20
188.603890556992
 30
0.0
 11
281.6912753922397
 21
188.603890556992
 31
0.0
  0
TEXT
  5
8AD9
330
19
100
AcDbEntity
  8
1TEXT
100
AcDbText
 10
212.3512753922398
 20
190.2686018974678
 30
0.0
 40
4.0
  1
ブラストブラック
 41
0.9
 72
     1
 11
229.0912753922398
 21
190.2686018974678
 31
0.0
100
AcDbText
  0
TEXT
  5
8ADA
330
19
100
AcDbEntity
  8
1TEXT
100
AcDbText
 10
249.3579420589067
 20
189.8895335733428
 30
0.0
 40
4.0
  1
SC-477-XK
 41
0.85
 72
     1
 11
264.09127539224
 21
189.8895335733428
 31
0.0
100
AcDbText
  0
LINE
  5
8FEF
330
19
100
AcDbEntity
  8
1DIM
100
AcDbLine
 10
73.49231039615256
 20
86.7252877535854
 30
0.0
 11
73.49231039615256
 21
27.53278666085635
 31
0.0
  0
LINE
  5
8FF0
330
19
100
AcDbEntity
  8
1DIM
100
AcDbLine
 10
111.4923103961526
 20
86.7252877535854
 30
0.0
 11
111.4923103961526
 21
27.53278666085635
 31
0.0
  0
LINE
  5
8FF1
330
19
100
AcDbEntity
  8
1DIM
100
AcDbLine
 10
75.49231039615256
 20
28.53278666085635
 30
0.0
 11
109.4923103961526
 21
28.53278666085635
 31
0.0
  0
LINE
  5
8FF5
330
19
100
AcDbEntity
  8
1DIM
100
AcDbLine
 10
225.211553623737
 20
60.3166711847997
 30
0.0
 11
225.211553623737
 21
18.8506362869898
 31
0.0
  0
LINE
  5
8FF6
330
19
100
AcDbEntity
  8
1DIM
100
AcDbLine
 10
306.9242239777169
 20
42.13560289672625
 30
0.0
 11
306.9242239777169
 21
18.8506362869898
 31
0.0
  0
LINE
  5
8FF7
330
19
100
AcDbEntity
  8
1DIM
100
AcDbLine
 10
227.211553623737
 20
19.8506362869898
 30
0.0
 11
304.9242239777169
 21
19.8506362869898
 31
0.0
  0
LINE
  5
8FFB
330
19
100
AcDbEntity
  8
1DIM
100
AcDbLine
 10
293.1679801762831
 20
117.6606843788116
 30
0.0
 11
211.1152190687696
 21
117.6606843788116
 31
0.0
  0
LINE
  5
8FFC
330
19
100
AcDbEntity
  8
1DIM
100
AcDbLine
 10
229.7827040624834
 20
55.25249341232376
 30
0.0
 11
211.1152190687696
 21
55.25249341232376
 31
0.0
  0
LINE
  5
8FFD
330
19
100
AcDbEntity
  8
1DIM
100
AcDbLine
 10
212.1152190687696
 20
115.6606843788116
 30
0.0
 11
212.1152190687696
 21
57.25249341232376
 31
0.0
  0
LINE
  5
9001
330
19
100
AcDbEntity
  8
1DIM
100
AcDbLine
 10
306.9242239777169
 20
77.22527451133152
 30
0.0
 11
339.7368546109997
 21
77.22527451133152
 31
0.0
  0
LINE
  5
9002
330
19
100
AcDbEntity
  8
1DIM
100
AcDbLine
 10
306.9242239777169
 20
107.2252745113315
 30
0.0
 11
339.7368546109997
 21
107.2252745113315
 31
0.0
  0
LINE
  5
9003
330
19
100
AcDbEntity
  8
1DIM
100
AcDbLine
 10
338.7368546109997
 20
79.22527451133152
 30
0.0
 11
338.7368546109997
 21
105.2252745113315
 31
0.0
  0
LINE
  5
9007
330
19
100
AcDbEntity
  8
1DIM
100
AcDbLine
 10
306.9242239777169
 20
107.2252745113315
 30
0.0
 11
339.7368546109997
 21
107.2252745113315
 31
0.0
  0
LINE
  5
9008
330
19
100
AcDbEntity
  8
1DIM
100
AcDbLine
 10
293.1679801762831
 20
117.6606843788116
 30
0.0
 11
339.7368546109997
 21
117.6606843788116
 31
0.0
  0
LINE
  5
9009
330
19
100
AcDbEntity
  8
1DIM
100
AcDbLine
 10
338.7368546109997
 20
109.2252745113315
 30
0.0
 11
338.7368546109997
 21
115.6606843788116
 31
0.0
  0
LINE
  5
900A
330
19
100
AcDbEntity
  8
1DIM
100
AcDbLine
 10
338.7368546109997
 20
117.6606843788116
 30
0.0
 11
338.7368546109997
 21
134.7273510454783
 31
0.0
  0
LINE
  5
900E
330
19
100
AcDbEntity
  8
1DIM
100
AcDbLine
 10
67.4923103961529
 20
77.2252877535854
 30
0.0
 11
67.4923103961529
 21
18.8506362869898
 31
0.0
  0
LINE
  5
900F
330
19
100
AcDbEntity
  8
1DIM
100
AcDbLine
 10
117.4923103961528
 20
77.22528775358512
 30
0.0
 11
117.4923103961528
 21
18.8506362869898
 31
0.0
  0
LINE
  5
9010
330
19
100
AcDbEntity
  8
1DIM
100
AcDbLine
 10
69.4923103961529
 20
19.8506362869898
 30
0.0
 11
115.4923103961528
 21
19.8506362869898
 31
0.0
  0
TEXT
  5
9014
330
19
100
AcDbEntity
  8
1DIM
  6
CONTINUOUS
100
AcDbText
 10
321.0778941561817
 20
167.5724946447323
 30
0.0
 40
3.5
  1
合板9mm以上
100
AcDbText
  0
LINE
  5
9016
330
19
100
AcDbEntity
  8
1DIM
100
AcDbLine
 10
320.3299031485735
 20
139.4853608049814
 30
0.0
 11
318.3778941561818
 21
166.8724946447323
 31
0.0
  0
LINE
  5
9017
330
19
100
AcDbEntity
  8
1DIM
100
AcDbLine
 10
318.3778941561818
 20
166.8724946447323
 30
0.0
 11
350.5112274895151
 21
166.8724946447323
 31
0.0
  0
LINE
  5
9019
330
19
100
AcDbEntity
  8
1HATCH
100
AcDbLine
 10
311.3545781236845
 20
139.416941489039
 30
0.0
 11
306.3686451473271
 21
160.9750619708524
 31
0.0
  0
LINE
  5
901A
330
19
100
AcDbEntity
  8
1HATCH
100
AcDbLine
 10
306.3686451473271
 20
160.9750619708524
 30
0.0
 11
297.8353118139938
 21
160.9750619708524
 31
0.0
  0
TEXT
  5
901B
330
19
100
AcDbEntity
  8
1HATCH
  6
CONTINUOUS
100
AcDbText
 10
297.8353118139938
 20
161.6750619708524
 30
0.0
 40
3.5
  1
PB
100
AcDbText
  0
LINE
  5
901C
330
19
100
AcDbEntity
  8
1DIM
100
AcDbLine
 10
21.99231039615279
 20
116.5964188600948
 30
0.0
 11
21.99231039615279
 21
131.0962986897327
 31
0.0
  0
LINE
  5
901D
330
19
100
AcDbEntity
  8
1DIM
100
AcDbLine
 10
162.9923103961528
 20
81.32673327338921
 30
0.0
 11
162.9923103961528
 21
131.0962986897327
 31
0.0
  0
LINE
  5
901E
330
19
100
AcDbEntity
  8
1DIM
100
AcDbLine
 10
23.99231039615279
 20
130.0962986897327
 30
0.0
 11
160.9923103961528
 21
130.0962986897327
 31
0.0
  0
LINE
  5
9022
330
19
100
AcDbEntity
  8
1DIM
100
AcDbLine
 10
181.7084993255139
 20
54.18871118774667
 30
0.0
 11
181.7084993255139
 21
131.0962986897327
 31
0.0
1001
ACAD
1000
DSTYLE
1002
{
1070
    75
1070
     0
1070
    76
1070
     1
1070
   281
1070
     0
1070
   282
1070
     0
1002
}
  0
LINE
  5
9023
330
19
100
AcDbEntity
  8
1DIM
100
AcDbLine
 10
183.7084993255139
 20
130.0962986897327
 30
0.0
 11
304.9242239777169
 21
130.0962986897327
 31
0.0
1001
ACAD
1000
DSTYLE
1002
{
1070
    75
1070
     0
1070
    76
1070
     1
1070
   281
1070
     0
1070
   282
1070
     0
1002
}
  0
LINE
  5
9028
330
19
100
AcDbEntity
  8
1DIM
100
AcDbLine
 10
85.69060167591162
 20
151.9268005176997
 30
0.0
 11
68.62828147644173
 21
132.045220483721
 31
0.0
1001
ACAD
1000
DSTYLE
1002
{
1070
    40
1040
1.0
1002
}
  0
LINE
  5
9029
330
19
100
AcDbEntity
  8
1DIM
100
AcDbLine
 10
68.62828147644173
 20
132.045220483721
 30
0.0
 11
28.94494814310839
 21
132.045220483721
 31
0.0
1001
ACAD
1000
DSTYLE
1002
{
1070
    40
1040
1.0
1002
}
  0
TEXT
  5
902A
330
19
100
AcDbEntity
  8
1DIM
  6
CONTINUOUS
100
AcDbText
 10
42.24494814310839
 20
138.5785538170543
 30
0.0
 40
3.5
  1
材質：アルミ
100
AcDbText
  0
TEXT
  5
902B
330
19
100
AcDbEntity
  8
1DIM
  6
CONTINUOUS
100
AcDbText
 10
28.82828147644172
 20
132.7452204837209
 30
0.0
 40
3.5
  1
仕上げ：各種仕上げ
100
AcDbText
  0
LINE
  5
902D
330
19
100
AcDbEntity
  8
1DIM
100
AcDbLine
 10
111.6372813706093
 20
205.5896299368926
 30
0.0
 11
125.1242551547724
 21
190.0031504969334
 31
0.0
1001
ACAD
1000
DSTYLE
1002
{
1070
    40
1040
1.0
1002
}
  0
LINE
  5
902E
330
19
100
AcDbEntity
  8
1DIM
100
AcDbLine
 10
125.1242551547724
 20
190.0031504969334
 30
0.0
 11
164.8075884881058
 21
190.0031504969334
 31
0.0
1001
ACAD
1000
DSTYLE
1002
{
1070
    40
1040
1.0
1002
}
  0
TEXT
  5
902F
330
19
100
AcDbEntity
  8
1DIM
  6
CONTINUOUS
100
AcDbText
 10
127.5909218214391
 20
196.5364838302667
 30
0.0
 40
3.5
  1
材質：アルミ
100
AcDbText
  0
TEXT
  5
9030
330
19
100
AcDbEntity
  8
1DIM
  6
CONTINUOUS
100
AcDbText
 10
127.7075884881058
 20
190.7031504969334
 30
0.0
 40
3.5
  1
仕上げ：各種仕上げ
100
AcDbText
  0
LINE
  5
9031
330
19
100
AcDbEntity
  8
0
  6
BYBLOCK
100
AcDbLine
 10
75.49231039615256
 20
27.99688828085635
 30
0.0
 11
73.49231039615256
 21
28.53278666085635
 31
0.0
  0
LINE
  5
9032
330
19
100
AcDbEntity
  8
0
  6
BYBLOCK
100
AcDbLine
 10
73.49231039615256
 20
28.53278666085635
 30
0.0
 11
75.49231039615256
 21
29.06868504085634
 31
0.0
  0
LINE
  5
9033
330
19
100
AcDbEntity
  8
0
  6
BYBLOCK
100
AcDbLine
 10
73.49231039615256
 20
28.53278666085635
 30
0.0
 11
75.49231039615256
 21
28.53278666085635
 31
0.0
  0
LINE
  5
9034
330
19
100
AcDbEntity
  8
0
  6
BYBLOCK
100
AcDbLine
 10
109.4923103961526
 20
29.06868504085634
 30
0.0
 11
111.4923103961526
 21
28.53278666085635
 31
0.0
  0
LINE
  5
9035
330
19
100
AcDbEntity
  8
0
  6
BYBLOCK
100
AcDbLine
 10
111.4923103961526
 20
28.53278666085635
 30
0.0
 11
109.4923103961526
 21
27.99688828085635
 31
0.0
  0
LINE
  5
9036
330
19
100
AcDbEntity
  8
0
  6
BYBLOCK
100
AcDbLine
 10
111.4923103961526
 20
28.53278666085635
 30
0.0
 11
109.4923103961526
 21
28.53278666085635
 31
0.0
  0
TEXT
  5
9037
330
19
100
AcDbEntity
  8
1DIM
  6
CONTINUOUS
100
AcDbText
 10
89.57564372948589
 20
29.23278666085635
 30
0.0
 40
3.5
  1
38
100
AcDbText
  0
LINE
  5
9038
330
19
100
AcDbEntity
  8
0
  6
BYBLOCK
100
AcDbLine
 10
227.211553623737
 20
19.3147379069898
 30
0.0
 11
225.211553623737
 21
19.8506362869898
 31
0.0
  0
LINE
  5
9039
330
19
100
AcDbEntity
  8
0
  6
BYBLOCK
100
AcDbLine
 10
225.211553623737
 20
19.8506362869898
 30
0.0
 11
227.211553623737
 21
20.3865346669898
 31
0.0
  0
LINE
  5
903A
330
19
100
AcDbEntity
  8
0
  6
BYBLOCK
100
AcDbLine
 10
225.211553623737
 20
19.8506362869898
 30
0.0
 11
227.211553623737
 21
19.8506362869898
 31
0.0
  0
LINE
  5
903B
330
19
100
AcDbEntity
  8
0
  6
BYBLOCK
100
AcDbLine
 10
304.9242239777169
 20
20.3865346669898
 30
0.0
 11
306.9242239777169
 21
19.8506362869898
 31
0.0
  0
LINE
  5
903C
330
19
100
AcDbEntity
  8
0
  6
BYBLOCK
100
AcDbLine
 10
306.9242239777169
 20
19.8506362869898
 30
0.0
 11
304.9242239777169
 21
19.3147379069898
 31
0.0
  0
LINE
  5
903D
330
19
100
AcDbEntity
  8
0
  6
BYBLOCK
100
AcDbLine
 10
306.9242239777169
 20
19.8506362869898
 30
0.0
 11
304.9242239777169
 21
19.8506362869898
 31
0.0
  0
TEXT
  5
903E
330
19
100
AcDbEntity
  8
1DIM
  6
CONTINUOUS
100
AcDbText
 10
260.2345554673936
 20
20.5506362869898
 30
0.0
 40
3.5
  1
81.71
100
AcDbText
  0
LINE
  5
903F
330
19
100
AcDbEntity
  8
0
  6
BYBLOCK
100
AcDbLine
 10
211.5793206887697
 20
115.6606843788116
 30
0.0
 11
212.1152190687696
 21
117.6606843788116
 31
0.0
  0
LINE
  5
9040
330
19
100
AcDbEntity
  8
0
  6
BYBLOCK
100
AcDbLine
 10
212.1152190687696
 20
117.6606843788116
 30
0.0
 11
212.6511174487696
 21
115.6606843788116
 31
0.0
  0
LINE
  5
9041
330
19
100
AcDbEntity
  8
0
  6
BYBLOCK
100
AcDbLine
 10
212.1152190687696
 20
117.6606843788116
 30
0.0
 11
212.1152190687696
 21
115.6606843788116
 31
0.0
  0
LINE
  5
9042
330
19
100
AcDbEntity
  8
0
  6
BYBLOCK
100
AcDbLine
 10
212.6511174487696
 20
57.25249341232376
 30
0.0
 11
212.1152190687696
 21
55.25249341232376
 31
0.0
  0
LINE
  5
9043
330
19
100
AcDbEntity
  8
0
  6
BYBLOCK
100
AcDbLine
 10
212.1152190687696
 20
55.25249341232376
 30
0.0
 11
211.5793206887696
 21
57.25249341232376
 31
0.0
  0
LINE
  5
9044
330
19
100
AcDbEntity
  8
0
  6
BYBLOCK
100
AcDbLine
 10
212.1152190687696
 20
55.25249341232376
 30
0.0
 11
212.1152190687696
 21
57.25249341232376
 31
0.0
  0
TEXT
  5
9045
330
19
100
AcDbEntity
  8
1DIM
  6
CONTINUOUS
100
AcDbText
 10
211.4152190687696
 20
80.02776945112326
 30
0.0
 40
3.5
  1
62.41
 50
90.0
100
AcDbText
  0
LINE
  5
9046
330
19
100
AcDbEntity
  8
0
  6
BYBLOCK
100
AcDbLine
 10
339.2727529909997
 20
79.22527451133152
 30
0.0
 11
338.7368546109997
 21
77.22527451133152
 31
0.0
  0
LINE
  5
9047
330
19
100
AcDbEntity
  8
0
  6
BYBLOCK
100
AcDbLine
 10
338.7368546109997
 20
77.22527451133152
 30
0.0
 11
338.2009562309997
 21
79.22527451133152
 31
0.0
  0
LINE
  5
9048
330
19
100
AcDbEntity
  8
0
  6
BYBLOCK
100
AcDbLine
 10
338.7368546109997
 20
77.22527451133152
 30
0.0
 11
338.7368546109997
 21
79.22527451133152
 31
0.0
  0
LINE
  5
9049
330
19
100
AcDbEntity
  8
0
  6
BYBLOCK
100
AcDbLine
 10
338.2009562309997
 20
105.2252745113315
 30
0.0
 11
338.7368546109997
 21
107.2252745113315
 31
0.0
  0
LINE
  5
904A
330
19
100
AcDbEntity
  8
0
  6
BYBLOCK
100
AcDbLine
 10
338.7368546109997
 20
107.2252745113315
 30
0.0
 11
339.2727529909997
 21
105.2252745113315
 31
0.0
  0
LINE
  5
904B
330
19
100
AcDbEntity
  8
0
  6
BYBLOCK
100
AcDbLine
 10
338.7368546109997
 20
107.2252745113315
 30
0.0
 11
338.7368546109997
 21
105.2252745113315
 31
0.0
  0
TEXT
  5
904C
330
19
100
AcDbEntity
  8
1DIM
  6
CONTINUOUS
100
AcDbText
 10
338.0368546109997
 20
89.52735784466489
 30
0.0
 40
3.5
  1
30
 50
90.0
100
AcDbText
  0
LINE
  5
904D
330
19
100
AcDbEntity
  8
0
  6
BYBLOCK
100
AcDbLine
 10
339.2727529909997
 20
109.2252745113315
 30
0.0
 11
338.7368546109997
 21
107.2252745113315
 31
0.0
  0
LINE
  5
904E
330
19
100
AcDbEntity
  8
0
  6
BYBLOCK
100
AcDbLine
 10
338.7368546109997
 20
107.2252745113315
 30
0.0
 11
338.2009562309997
 21
109.2252745113315
 31
0.0
  0
LINE
  5
904F
330
19
100
AcDbEntity
  8
0
  6
BYBLOCK
100
AcDbLine
 10
338.7368546109997
 20
107.2252745113315
 30
0.0
 11
338.7368546109997
 21
109.2252745113315
 31
0.0
  0
LINE
  5
9050
330
19
100
AcDbEntity
  8
0
  6
BYBLOCK
100
AcDbLine
 10
338.2009562309997
 20
115.6606843788116
 30
0.0
 11
338.7368546109997
 21
117.6606843788116
 31
0.0
  0
LINE
  5
9051
330
19
100
AcDbEntity
  8
0
  6
BYBLOCK
100
AcDbLine
 10
338.7368546109997
 20
117.6606843788116
 30
0.0
 11
339.2727529909997
 21
115.6606843788116
 31
0.0
  0
LINE
  5
9052
330
19
100
AcDbEntity
  8
0
  6
BYBLOCK
100
AcDbLine
 10
338.7368546109997
 20
117.6606843788116
 30
0.0
 11
338.7368546109997
 21
115.6606843788116
 31
0.0
  0
TEXT
  5
9053
330
19
100
AcDbEntity
  8
1DIM
  6
CONTINUOUS
100
AcDbText
 10
338.0368546109997
 20
121.069017712145
 30
0.0
 40
3.5
  1
10.44
 50
90.0
100
AcDbText
  0
LINE
  5
9054
330
19
100
AcDbEntity
  8
0
  6
BYBLOCK
100
AcDbLine
 10
69.4923103961529
 20
19.31473790698981
 30
0.0
 11
67.4923103961529
 21
19.8506362869898
 31
0.0
  0
LINE
  5
9055
330
19
100
AcDbEntity
  8
0
  6
BYBLOCK
100
AcDbLine
 10
67.4923103961529
 20
19.8506362869898
 30
0.0
 11
69.4923103961529
 21
20.3865346669898
 31
0.0
  0
LINE
  5
9056
330
19
100
AcDbEntity
  8
0
  6
BYBLOCK
100
AcDbLine
 10
67.4923103961529
 20
19.8506362869898
 30
0.0
 11
69.4923103961529
 21
19.8506362869898
 31
0.0
  0
LINE
  5
9057
330
19
100
AcDbEntity
  8
0
  6
BYBLOCK
100
AcDbLine
 10
115.4923103961528
 20
20.3865346669898
 30
0.0
 11
117.4923103961528
 21
19.8506362869898
 31
0.0
  0
LINE
  5
9058
330
19
100
AcDbEntity
  8
0
  6
BYBLOCK
100
AcDbLine
 10
117.4923103961528
 20
19.8506362869898
 30
0.0
 11
115.4923103961528
 21
19.31473790698981
 31
0.0
  0
LINE
  5
9059
330
19
100
AcDbEntity
  8
0
  6
BYBLOCK
100
AcDbLine
 10
117.4923103961528
 20
19.8506362869898
 30
0.0
 11
115.4923103961528
 21
19.8506362869898
 31
0.0
  0
TEXT
  5
905A
330
19
100
AcDbEntity
  8
1DIM
  6
CONTINUOUS
100
AcDbText
 10
89.7822409517084
 20
20.5506362869898
 30
0.0
 40
3.5
  1
50
100
AcDbText
  0
LINE
  5
905B
330
19
100
AcDbEntity
  8
0
  6
BYBLOCK
100
AcDbLine
 10
320.8644454899459
 20
139.5234601352465
 30
0.0
 11
320.472091786147
 21
137.4904216100823
 31
0.0
  0
LINE
  5
905C
330
19
100
AcDbEntity
  8
0
  6
BYBLOCK
100
AcDbLine
 10
320.472091786147
 20
137.4904216100823
 30
0.0
 11
319.795360807201
 21
139.4472614747164
 31
0.0
  0
LINE
  5
905D
330
19
100
AcDbEntity
  8
0
  6
BYBLOCK
100
AcDbLine
 10
320.472091786147
 20
137.4904216100823
 30
0.0
 11
320.3299031485735
 21
139.4853608049814
 31
0.0
  0
LINE
  5
905E
330
19
100
AcDbEntity
  8
0
  6
BYBLOCK
100
AcDbLine
 10
311.8766944503535
 20
139.5376958476033
 30
0.0
 11
311.8052395291708
 21
137.4683768127696
 31
0.0
  0
LINE
  5
905F
330
19
100
AcDbEntity
  8
0
  6
BYBLOCK
100
AcDbLine
 10
311.8052395291708
 20
137.4683768127696
 30
0.0
 11
310.8324617970155
 21
139.2961871304747
 31
0.0
  0
LINE
  5
9060
330
19
100
AcDbEntity
  8
0
  6
BYBLOCK
100
AcDbLine
 10
311.8052395291708
 20
137.4683768127696
 30
0.0
 11
311.3545781236845
 21
139.416941489039
 31
0.0
  0
LINE
  5
9061
330
19
100
AcDbEntity
  8
0
  6
BYBLOCK
100
AcDbLine
 10
23.99231039615279
 20
129.5604003097328
 30
0.0
 11
21.99231039615279
 21
130.0962986897327
 31
0.0
  0
LINE
  5
9062
330
19
100
AcDbEntity
  8
0
  6
BYBLOCK
100
AcDbLine
 10
21.99231039615279
 20
130.0962986897327
 30
0.0
 11
23.99231039615279
 21
130.6321970697327
 31
0.0
  0
LINE
  5
9063
330
19
100
AcDbEntity
  8
0
  6
BYBLOCK
100
AcDbLine
 10
21.99231039615279
 20
130.0962986897327
 30
0.0
 11
23.99231039615279
 21
130.0962986897327
 31
0.0
  0
LINE
  5
9064
330
19
100
AcDbEntity
  8
0
  6
BYBLOCK
100
AcDbLine
 10
160.9923103961528
 20
130.6321970697327
 30
0.0
 11
162.9923103961528
 21
130.0962986897327
 31
0.0
  0
LINE
  5
9065
330
19
100
AcDbEntity
  8
0
  6
BYBLOCK
100
AcDbLine
 10
162.9923103961528
 20
130.0962986897327
 30
0.0
 11
160.9923103961528
 21
129.5604003097328
 31
0.0
  0
LINE
  5
9066
330
19
100
AcDbEntity
  8
0
  6
BYBLOCK
100
AcDbLine
 10
162.9923103961528
 20
130.0962986897327
 30
0.0
 11
160.9923103961528
 21
130.0962986897327
 31
0.0
  0
TEXT
  5
9067
330
19
100
AcDbEntity
  8
1DIM
  6
CONTINUOUS
100
AcDbText
 10
88.99231039615279
 20
130.7962986897327
 30
0.0
 40
3.5
  1
141
100
AcDbText
  0
LINE
  5
9068
330
19
100
AcDbEntity
  8
0
  6
BYBLOCK
100
AcDbLine
 10
183.7084993255139
 20
129.5604003097328
 30
0.0
 11
181.7084993255139
 21
130.0962986897327
 31
0.0
  0
LINE
  5
9069
330
19
100
AcDbEntity
  8
0
  6
BYBLOCK
100
AcDbLine
 10
181.7084993255139
 20
130.0962986897327
 30
0.0
 11
183.7084993255139
 21
130.6321970697327
 31
0.0
  0
LINE
  5
906A
330
19
100
AcDbEntity
  8
0
  6
BYBLOCK
100
AcDbLine
 10
181.7084993255139
 20
130.0962986897327
 30
0.0
 11
183.7084993255139
 21
130.0962986897327
 31
0.0
  0
LINE
  5
906B
330
19
100
AcDbEntity
  8
0
  6
BYBLOCK
100
AcDbLine
 10
304.9242239777169
 20
130.6321970697327
 30
0.0
 11
306.9242239777169
 21
130.0962986897327
 31
0.0
  0
LINE
  5
906C
330
19
100
AcDbEntity
  8
0
  6
BYBLOCK
100
AcDbLine
 10
306.9242239777169
 20
130.0962986897327
 30
0.0
 11
304.9242239777169
 21
129.5604003097328
 31
0.0
  0
LINE
  5
906D
330
19
100
AcDbEntity
  8
0
  6
BYBLOCK
100
AcDbLine
 10
306.9242239777169
 20
130.0962986897327
 30
0.0
 11
304.9242239777169
 21
130.0962986897327
 31
0.0
  0
TEXT
  5
906E
330
19
100
AcDbEntity
  8
1DIM
  6
CONTINUOUS
100
AcDbText
 10
232.900042207171
 20
131.7129653563994
 30
0.0
 40
3.5
  1
(125.22 )
100
AcDbText
1001
ACAD
1000
DSTYLE
1002
{
1070
    75
1070
     0
1070
    76
1070
     1
1070
   281
1070
     0
1070
   282
1070
     0
1002
}
  0
LINE
  5
906F
330
19
100
AcDbEntity
  8
0
  6
BYBLOCK
100
AcDbLine
 10
85.28392927093105
 20
152.2758057163915
 30
0.0
 11
86.99310682135305
 21
153.4445226088938
 31
0.0
  0
LINE
  5
9070
330
19
100
AcDbEntity
  8
0
  6
BYBLOCK
100
AcDbLine
 10
86.99310682135305
 20
153.4445226088938
 30
0.0
 11
86.09727408089219
 21
151.5777953190078
 31
0.0
  0
LINE
  5
9071
330
19
100
AcDbEntity
  8
0
  6
BYBLOCK
100
AcDbLine
 10
86.99310682135305
 20
153.4445226088938
 30
0.0
 11
85.69060167591162
 21
151.9268005176997
 31
0.0
  0
LINE
  5
9072
330
19
100
AcDbEntity
  8
0
  6
BYBLOCK
100
AcDbLine
 10
111.232034743299
 20
205.2389702090363
 30
0.0
 11
110.3286014382074
 21
207.1020309533326
 31
0.0
  0
LINE
  5
9073
330
19
100
AcDbEntity
  8
0
  6
BYBLOCK
100
AcDbLine
 10
110.3286014382074
 20
207.1020309533326
 30
0.0
 11
112.0425279979195
 21
205.9402896647489
 31
0.0
  0
LINE
  5
9074
330
19
100
AcDbEntity
  8
0
  6
BYBLOCK
100
AcDbLine
 10
110.3286014382074
 20
207.1020309533326
 30
0.0
 11
111.6372813706093
 21
205.5896299368926
 31
0.0
  0
VIEWPORT
  5
2FC
330
16
100
AcDbEntity
 67
     1
  8
0
100
AcDbViewport
 68
     1
 10
22.94917553389939
 20
11.67386981220955
 30
0.0
 40
664.6656048522001
 41
310.2027191416985
 68
     1
 69
     1
1001
ACAD
1000
MVIEW
1002
{
1070
    16
1010
0.0
1020
0.0
1030
0.0
1010
0.0
1020
0.0
1030
1.0
1040
0.0
1040
310.2027191416985
1040
22.94917553389939
1040
11.67386981220955
1040
50.0
1040
0.0
1040
0.0
1070
     0
1070
   100
1070
     0
1070
     1
1070
     0
1070
     0
1070
     0
1070
     0
1040
0.0
1040
0.0
1040
0.0
1040
10.0
1040
10.0
1040
10.0
1040
10.0
1070
     0
1002
{
1002
}
1002
}
  0
ENDSEC
  0
SECTION
  2
OBJECTS
  0
DICTIONARY
  5
C
330
0
100
AcDbDictionary
  3
ACAD_CIP_PREVIOUS_PRODUCT_INFO
350
88CA
  3
ACAD_COLOR
350
C0F
  3
ACAD_GROUP
350
D
  3
ACAD_LAYOUT
350
C37
  3
ACAD_MATERIAL
350
BE5
  3
ACAD_MLEADERSTYLE
350
C34
  3
ACAD_MLINESTYLE
350
E
  3
ACAD_PLOTSETTINGS
350
C38
  3
ACAD_SCALELIST
350
C12
  3
ACAD_VISUALSTYLE
350
BFE
  3
ACDBHEADERROUNDTRIPXREC
350
9078
  3
ACDBVARIABLEDICTIONARY
350
2E2
  3
AEC_PROPERTY_SET_DEFS
350
1E54
  3
CONTENTDICTIONARY
350
31B
  3
DRAWINGVARIABLESDICT
350
377
  3
DWGPROPS
350
907B
1001
ACAD
1000
TREAT_AS_HARD
1070
     0
  0
DICTIONARY
  5
FE0
330
2
100
AcDbDictionary
  3
ACAD_LAYERSTATES
360
FE1
1001
ACAD
1000
TREAT_AS_HARD
1070
     1
  0
DICTIONARY
  5
C40
330
F
100
AcDbDictionary
  3
ADSK_XREC_LAYER_RECONCILED
360
C41
1001
ACAD
1000
TREAT_AS_HARD
1070
     1
  0
DICTIONARY
  5
C46
330
753
100
AcDbDictionary
  3
ADSK_XREC_LAYER_RECONCILED
360
C47
1001
ACAD
1000
TREAT_AS_HARD
1070
     1
  0
DICTIONARY
  5
C4A
330
BC3
100
AcDbDictionary
  3
ADSK_XREC_LAYER_RECONCILED
360
C4B
1001
ACAD
1000
TREAT_AS_HARD
1070
     1
  0
DICTIONARY
  5
7014
330
7013
100
AcDbDictionary
  3
ADSK_XREC_LAYER_RECONCILED
360
7015
1001
ACAD
1000
TREAT_AS_HARD
1070
     1
  0
DICTIONARY
  5
7059
330
7058
100
AcDbDictionary
  3
ADSK_XREC_LAYER_RECONCILED
360
705A
1001
ACAD
1000
TREAT_AS_HARD
1070
     1
  0
DICTIONARY
  5
11D9
330
19
100
AcDbDictionary
  3
ACAD_SORTENTS
360
11DA
1001
ACAD
1000
TREAT_AS_HARD
1070
     1
  0
DICTIONARY
  5
2400
330
16
100
AcDbDictionary
  3
ACAD_SORTENTS
360
2401
1001
ACAD
1000
TREAT_AS_HARD
1070
     1
  0
XRECORD
  5
88CA
102
{ACAD_REACTORS
330
C
102
}
330
C
100
AcDbXrecord
300
ACDLT
300
2012
300
ACDLT_F_S
  0
DICTIONARY
  5
C0F
102
{ACAD_REACTORS
330
C
102
}
330
C
100
AcDbDictionary
1001
ACAD
1000
TREAT_AS_HARD
1070
     0
  0
DICTIONARY
  5
D
102
{ACAD_REACTORS
330
C
102
}
330
C
100
AcDbDictionary
  3
*A1
350
843A
  3
*A3
350
8F63
1001
ACAD
1000
TREAT_AS_HARD
1070
     0
  0
DICTIONARY
  5
C37
102
{ACAD_REACTORS
330
C
102
}
330
C
100
AcDbDictionary
1001
ACAD
1000
TREAT_AS_HARD
1070
     0
  0
DICTIONARY
  5
BE5
102
{ACAD_REACTORS
330
C
102
}
330
C
100
AcDbDictionary
  3
BYBLOCK
350
BEE
  3
BYLAYER
350
BE6
  3
GLOBAL
350
BF6
1001
ACAD
1000
TREAT_AS_HARD
1070
     0
  0
DICTIONARY
  5
C34
102
{ACAD_REACTORS
330
C
102
}
330
C
100
AcDbDictionary
  3
STANDARD
350
C35
1001
ACAD
1000
TREAT_AS_HARD
1070
     0
  0
DICTIONARY
  5
E
102
{ACAD_REACTORS
330
C
102
}
330
C
100
AcDbDictionary
  3
STANDARD
350
1C
1001
ACAD
1000
TREAT_AS_HARD
1070
     0
  0
DICTIONARY
  5
C38
102
{ACAD_REACTORS
330
C
102
}
330
C
100
AcDbDictionary
1001
ACAD
1000
TREAT_AS_HARD
1070
     0
  0
DICTIONARY
  5
C12
102
{ACAD_REACTORS
330
C
102
}
330
C
100
AcDbDictionary
  3
A0
350
C13
  3
A1
350
C14
  3
A2
350
C15
  3
A3
350
C16
  3
A4
350
C17
  3
A5
350
C18
  3
A6
350
C19
  3
A7
350
C1A
  3
A8
350
C1B
  3
A9
350
C1C
  3
B0
350
C1D
  3
B1
350
C1E
  3
B2
350
C1F
  3
B3
350
C20
  3
B4
350
C21
  3
B5
350
C22
  3
B6
350
C23
  3
B7
350
C24
  3
B8
350
C25
  3
B9
350
C26
  3
C0
350
C27
  3
C1
350
C28
  3
C2
350
C29
  3
C3
350
C2A
  3
C4
350
C2B
  3
C5
350
C2C
  3
C6
350
C2D
  3
C7
350
C2E
  3
C8
350
C2F
  3
C9
350
C30
  3
D0
350
C31
  3
D1
350
C32
  3
D2
350
C33
1001
ACAD
1000
TREAT_AS_HARD
1070
     0
  0
DICTIONARY
  5
BFE
102
{ACAD_REACTORS
330
C
102
}
330
C
100
AcDbDictionary
  3
2DWIREFRAME
350
C04
  3
3D_HIDDEN
350
C06
  3
3DWIREFRAME
350
C05
  3
BASIC
350
C03
  3
BRIGHTEN
350
C0A
  3
COLORCHANGE
350
C0E
  3
CONCEPTUAL
350
C07
  3
DIM
350
C09
  3
EDGECOLOROFF
350
88B6
  3
FACEPATTERN
350
C0D
  3
FLAT
350
BFF
  3
FLATWITHEDGES
350
C00
  3
GOURAUD
350
C01
  3
GOURAUDWITHEDGES
350
C02
  3
HIDDEN
350
88AE
  3
JITTEROFF
350
88B4
  3
LINEPATTERN
350
C0C
  3
MODELING
350
8F82
  3
OVERHANGOFF
350
88B5
  3
REALISTIC
350
C08
  3
SHADED
350
88B3
  3
SHADED_WITH_EDGES
350
88B2
  3
SHADES_OF_GRAY
350
88AF
  3
SKETCHY
350
88B0
  3
THICKEN
350
C0B
  3
WIREFRAME
350
88AD
  3
X-RAY
350
88B1
1001
ACAD
1000
TREAT_AS_HARD
1070
     0
  0
DICTIONARY
  5
9078
102
{ACAD_REACTORS
330
C
102
}
330
C
100
AcDbDictionary
  3
COLORDICT
350
9079
  3
MATERIALDICT
350
907A
1001
ACAD
1000
TREAT_AS_HARD
1070
     0
  0
DICTIONARY
  5
2E2
102
{ACAD_REACTORS
330
C
102
}
330
C
100
AcDbDictionary
  3
CANNOSCALE
350
907C
  3
CMLEADERSTYLE
350
C68
  3
CTABLESTYLE
350
C67
  3
DIMADEC
350
385
  3
DIMASSOC
350
C6B
  3
HIDETEXT
350
1D00
  3
INDEXCTL
350
C6A
  3
INTERSECTIONCOLOR
350
1D04
  3
INTERSECTIONDISPLAY
350
1D03
  3
LAYEREVAL
350
6E7B
  3
LAYERNOTIFY
350
6E7C
  3
MSLTSCALE
350
9075
  3
OBSCOLOR
350
1D01
  3
OBSLTYPE
350
1D02
  3
SORTENTS
350
2E3
  3
XCLIPFRAME
350
8F81
1001
ACAD
1000
TREAT_AS_HARD
1070
     0
  0
DICTIONARY
  5
1E54
102
{ACAD_REACTORS
330
C
102
}
330
C
100
AcDbDictionary
1001
ACAD
1000
TREAT_AS_HARD
1070
     0
  0
DICTIONARY
  5
31B
102
{ACAD_REACTORS
330
C
102
}
330
C
100
AcDbDictionary
1001
CONTENTTABDATA
1070
     6
1000
Symbol
1000
D:\ACLT\STL2\Symbol.dwg
1070
     0
1070
     0
1070
     1
1000
ねじ
1000
D:\ACLT\STL2\ねじ.dwg
1070
     0
1070
     0
1070
     1
1000
図面
1000
D:\ACLT\STL2\図面.dwg
1070
     0
1070
     0
1070
     1
1000
要素
1000
D:\ACLT\STL2\要素.dwg
1070
     0
1070
     0
1070
     1
1000
ｷｬｽﾀｰ
1000
D:\ACLT\Stl2\ｷｬｽﾀｰ.dwg
1070
     0
1070
     0
1070
     1
1000
SB関連
1000
D:\ACLT\Stl2\SB関連.dwg
1070
     0
1070
     0
1070
     1
1001
CONTENTCURRENTTAB
1070
     0
1001
ACAD
1000
TREAT_AS_HARD
1070
     0
  0
DICTIONARY
  5
377
102
{ACAD_REACTORS
330
C
102
}
330
C
100
AcDbDictionary
1001
DRAWINGVARIABLESXDATA
1000
POLARANG
1000
0.261799387799149410000000
1000
POLARMODE
1000
1
1000
POLARSTYLE
1000
1
1001
ACAD
1000
TREAT_AS_HARD
1070
     0
  0
XRECORD
  5
907B
102
{ACAD_REACTORS
330
C
102
}
330
C
100
AcDbXrecord
  1
DWGPROPS COOKIE
  2

  3

  4

  6

  7

  8
1123
  9

300
=
301
=
302
=
303
=
304
=
305
=
306
=
307
=
308
=
309
=
 40
0.0
 41
2448750.112089236
 42
2458439.119820289
  1

 90
        0
  0
DICTIONARY
  5
FE1
102
{ACAD_REACTORS
330
FE0
102
}
330
FE0
100
AcDbDictionary
1001
ACAD
1000
TREAT_AS_HARD
1070
     0
  0
ACAD_PROXY_OBJECT
  5
C41
102
{ACAD_REACTORS
330
C40
102
}
330
C40
100
AcDbZombieObject
 90
      499
 91
      523
 93
       34
310
40C8804040
  0
ACAD_PROXY_OBJECT
  5
C47
102
{ACAD_REACTORS
330
C46
102
}
330
C46
100
AcDbZombieObject
 90
      499
 91
      523
 93
       34
310
40C8804040
  0
ACAD_PROXY_OBJECT
  5
C4B
102
{ACAD_REACTORS
330
C4A
102
}
330
C4A
100
AcDbZombieObject
 90
      499
 91
      523
 93
       34
310
40C8804040
  0
ACAD_PROXY_OBJECT
  5
7015
102
{ACAD_REACTORS
330
7014
102
}
330
7014
100
AcDbZombieObject
 90
      499
 91
      523
 93
       34
310
40C8804040
  0
ACAD_PROXY_OBJECT
  5
705A
102
{ACAD_REACTORS
330
7059
102
}
330
7059
100
AcDbZombieObject
 90
      499
 91
      523
 93
       34
310
40C8804040
  0
SORTENTSTABLE
  5
11DA
102
{ACAD_REACTORS
330
11D9
102
}
330
11D9
100
AcDbSortentsTable
330
19
331
7351
  5
7352
331
7352
  5
7353
331
7353
  5
7354
331
7354
  5
7355
331
7355
  5
7356
331
7356
  5
7357
331
7357
  5
7358
331
7358
  5
7359
331
7359
  5
735A
331
735A
  5
735B
331
735B
  5
735C
331
735C
  5
735D
331
735D
  5
735E
331
735E
  5
735F
331
735F
  5
7360
331
7360
  5
7361
331
7361
  5
7362
331
7362
  5
7363
331
7363
  5
7364
331
7364
  5
7365
331
7365
  5
7366
331
7366
  5
7367
331
7367
  5
7368
331
7368
  5
7369
331
7369
  5
736A
331
736A
  5
736B
331
736B
  5
736C
331
736C
  5
736D
331
736D
  5
736E
331
736E
  5
736F
331
736F
  5
7370
331
7370
  5
7371
331
7387
  5
7388
331
7389
  5
738B
331
738A
  5
738E
331
738B
  5
738F
331
7390
  5
7394
331
7391
  5
7395
331
7395
  5
739D
331
7396
  5
739E
331
7397
  5
739F
331
7398
  5
73A0
331
7399
  5
73A1
331
739A
  5
73A2
331
739B
  5
73A3
331
739C
  5
73A4
331
739D
  5
73A5
331
739E
  5
73A7
331
739F
  5
73A8
331
73AB
  5
73B6
331
73AC
  5
73B7
331
73AD
  5
73B8
331
73AF
  5
73BA
331
73B0
  5
73BB
331
73B6
  5
73C5
331
73B7
  5
73C6
331
73B8
  5
73C7
331
73BA
  5
73CB
331
73C1
  5
73D3
331
73C2
  5
73DF
331
73C3
  5
73E0
331
73C8
  5
73E7
331
73C9
  5
73E9
331
73CA
  5
73EA
331
73CB
  5
73EB
331
73CC
  5
73EC
331
73CD
  5
73ED
331
73CE
  5
73EE
331
73CF
  5
73F0
331
73D0
  5
73FB
331
73D1
  5
73FD
331
73D2
  5
7399
331
0
  5
7623
331
0
  5
7624
331
0
  5
7625
331
0
  5
7626
331
0
  5
7627
331
0
  5
7E9E
331
8063
  5
840A
331
8064
  5
840B
331
8065
  5
840C
331
8066
  5
840D
331
8067
  5
840E
331
8068
  5
840F
331
822B
  5
8410
331
82D0
  5
8411
331
82D1
  5
8413
331
82D2
  5
8414
331
82D8
  5
8416
331
82DB
  5
8415
331
82DE
  5
8417
331
82DF
  5
8418
331
82E0
  5
8419
331
82E1
  5
841A
331
82E2
  5
841B
331
82E3
  5
841D
331
82E4
  5
841F
331
82E5
  5
8420
331
82E6
  5
8423
331
82E7
  5
8424
331
82E8
  5
8425
331
82E9
  5
8426
331
82EB
  5
8427
331
82EC
  5
841E
331
82ED
  5
8428
331
8317
  5
842B
331
8319
  5
842A
331
831A
  5
8422
331
831B
  5
842C
331
831C
  5
842D
331
831D
  5
8421
331
831E
  5
841C
331
8323
  5
842E
331
8335
  5
842F
331
8336
  5
8431
331
8337
  5
8432
331
8338
  5
8433
331
8339
  5
8434
331
833D
  5
8435
331
833E
  5
8436
331
8343
  5
8437
331
8344
  5
8438
331
8347
  5
8439
331
8348
  5
843B
331
834C
  5
8440
331
8353
  5
8504
331
8356
  5
8506
331
8358
  5
8501
331
8359
  5
8441
331
835A
  5
8442
331
835C
  5
847E
331
835D
  5
8502
331
835E
  5
8412
331
835F
  5
8429
331
8361
  5
850F
331
836A
  5
850E
331
8371
  5
8510
331
8372
  5
8511
331
8374
  5
8512
331
83B6
  5
8513
331
83F7
  5
851F
331
83F8
  5
8520
331
83F9
  5
8521
331
83FA
  5
8522
331
83FB
  5
8523
331
83FC
  5
8524
331
83FD
  5
8525
331
83FE
  5
8526
331
83FF
  5
8527
331
8400
  5
8528
331
8401
  5
8529
331
8402
  5
852A
331
8403
  5
852B
331
8404
  5
852D
331
8405
  5
852E
331
8406
  5
8530
331
8407
  5
8531
331
8408
  5
8532
331
8409
  5
8533
331
840A
  5
8534
331
840B
  5
8535
331
840C
  5
8536
331
840D
  5
8537
331
840E
  5
8538
331
840F
  5
8539
331
8410
  5
8547
331
8411
  5
8548
331
8412
  5
854D
331
8413
  5
854E
331
8414
  5
854F
331
8415
  5
8550
331
8416
  5
8552
331
8417
  5
8553
331
8418
  5
8554
331
8419
  5
8555
331
841A
  5
8556
331
841B
  5
8557
331
841C
  5
8558
331
841D
  5
8559
331
841E
  5
855A
331
841F
  5
855B
331
8420
  5
855C
331
8421
  5
855D
331
8422
  5
855E
331
8423
  5
855F
331
8425
  5
8560
331
8426
  5
8561
331
8427
  5
8562
331
8428
  5
8563
331
8429
  5
8564
331
842A
  5
8565
331
842B
  5
8566
331
842C
  5
8567
331
842D
  5
8568
331
842E
  5
8514
331
842F
  5
8515
331
8430
  5
8516
331
8431
  5
8517
331
8432
  5
8518
331
8433
  5
8519
331
8434
  5
851A
331
8435
  5
851B
331
8436
  5
851C
331
8437
  5
851D
331
8438
  5
851E
331
0
  5
843C
331
0
  5
843D
331
0
  5
843E
331
0
  5
843F
331
843F
  5
8575
331
8440
  5
8576
331
8441
  5
8ACD
331
8442
  5
8ACE
331
0
  5
848B
331
8501
  5
9004
331
8502
  5
9005
331
8503
  5
9006
331
8505
  5
9007
331
850C
  5
9008
331
850D
  5
9009
331
850E
  5
900A
331
850F
  5
900B
331
8510
  5
900C
331
8511
  5
900D
331
8512
  5
900E
331
8513
  5
900F
331
8514
  5
9010
331
8515
  5
9011
331
8516
  5
9012
331
8517
  5
9013
331
8518
  5
9014
331
8519
  5
9015
331
851A
  5
9016
331
851B
  5
9017
331
851C
  5
9018
331
851D
  5
9019
331
851E
  5
901A
331
851F
  5
901B
331
8520
  5
901C
331
8521
  5
901D
331
8522
  5
901E
331
8523
  5
901F
331
8524
  5
9020
331
8525
  5
9021
331
8526
  5
9022
331
8527
  5
9023
331
8528
  5
9024
331
8529
  5
9025
331
852A
  5
9026
331
852B
  5
9027
331
852C
  5
9028
331
852D
  5
9029
331
852E
  5
902A
331
852F
  5
902B
331
8530
  5
902C
331
8531
  5
902D
331
8532
  5
902E
331
8533
  5
902F
331
8534
  5
9030
331
8535
  5
9031
331
8536
  5
9032
331
8537
  5
9033
331
8541
  5
9034
331
8545
  5
9035
331
8546
  5
9036
331
8547
  5
9037
331
8548
  5
9038
331
8549
  5
9039
331
854A
  5
903A
331
854B
  5
903B
331
854C
  5
903C
331
854D
  5
903D
331
854E
  5
903E
331
854F
  5
903F
331
8550
  5
9040
331
8551
  5
9041
331
8552
  5
9042
331
8553
  5
9043
331
8554
  5
9044
331
8555
  5
9045
331
8556
  5
9046
331
8557
  5
9047
331
8558
  5
9048
331
8559
  5
9049
331
855A
  5
904A
331
855B
  5
904B
331
855C
  5
904C
331
855D
  5
904D
331
855E
  5
904E
331
855F
  5
904F
331
8560
  5
9050
331
8561
  5
9051
331
8562
  5
9052
331
8563
  5
9053
331
8564
  5
9054
331
8565
  5
9055
331
8566
  5
9056
331
8567
  5
9057
331
8568
  5
9058
331
8569
  5
9059
331
856A
  5
905A
331
856B
  5
905B
331
856C
  5
905C
331
856D
  5
905D
331
856E
  5
905E
331
856F
  5
905F
331
8570
  5
9060
331
8571
  5
9061
331
8572
  5
9062
331
8573
  5
9063
331
8574
  5
9064
331
8575
  5
9065
331
8576
  5
9066
331
8ACD
  5
9067
331
8ACE
  5
9068
331
8ACF
  5
9069
331
8AD0
  5
906A
331
8AD1
  5
906B
331
8AD2
  5
906C
331
8AD3
  5
906D
331
8AD4
  5
906E
331
8AD5
  5
906F
331
8AD6
  5
9070
331
8AD7
  5
9071
331
8AD8
  5
9072
331
8AD9
  5
9073
331
8ADA
  5
9074
331
8FEF
  5
8069
331
8FF0
  5
806A
331
8FF1
  5
806C
331
0
  5
806D
331
0
  5
806E
331
0
  5
806F
331
8FF5
  5
8312
331
8FF6
  5
8313
331
8FF7
  5
831C
331
0
  5
82E1
331
0
  5
82E2
331
0
  5
82E3
331
8FFB
  5
833D
331
8FFC
  5
833E
331
8FFD
  5
833F
331
0
  5
82ED
331
0
  5
82F7
331
0
  5
8304
331
9001
  5
8358
331
9002
  5
835A
331
9003
  5
835C
331
0
  5
8314
331
0
  5
8315
331
0
  5
831B
331
9007
  5
8374
331
9008
  5
8376
331
9009
  5
83B6
331
900A
  5
83F6
331
0
  5
8323
331
0
  5
8325
331
0
  5
8328
331
900E
  5
83FF
331
900F
  5
8400
331
9010
  5
8401
331
0
  5
8331
331
0
  5
8337
331
0
  5
8338
331
9014
  5
8569
331
0
  5
852C
331
9016
  5
856D
331
9017
  5
856E
331
0
  5
852F
331
9019
  5
8572
331
901A
  5
8573
331
901B
  5
8574
331
901C
  5
8ACF
331
901D
  5
8AD0
331
901E
  5
8AD1
331
0
  5
8544
331
0
  5
8545
331
0
  5
8546
331
9022
  5
8AD9
331
9023
  5
8ADA
331
0
  5
8549
331
0
  5
854A
331
0
  5
854B
331
0
  5
854C
331
9028
  5
8FF9
331
9029
  5
8FFA
331
902A
  5
8FFB
331
902B
  5
8FFC
331
0
  5
8551
331
902D
  5
9000
331
902E
  5
9001
331
902F
  5
9002
331
9030
  5
9003
331
9031
  5
82DE
331
9032
  5
82DF
331
9033
  5
82E0
331
9034
  5
82E5
331
9035
  5
82E9
331
9036
  5
82EC
331
9037
  5
8311
331
9038
  5
831D
331
9039
  5
831F
331
903A
  5
8321
331
903B
  5
832E
331
903C
  5
832F
331
903D
  5
8330
331
903E
  5
8339
331
903F
  5
8340
331
9040
  5
8343
331
9041
  5
8348
331
9042
  5
834C
331
9043
  5
834F
331
9044
  5
8352
331
9045
  5
8355
331
9046
  5
835D
331
9047
  5
835E
331
9048
  5
835F
331
9049
  5
8360
331
904A
  5
8361
331
904B
  5
8370
331
904C
  5
8371
331
904D
  5
83F7
331
904E
  5
83F9
331
904F
  5
83FA
331
9050
  5
83FB
331
9051
  5
83FC
331
9052
  5
83FD
331
9053
  5
83FE
331
9054
  5
8403
331
9055
  5
8404
331
9056
  5
8405
331
9057
  5
8406
331
9058
  5
8407
331
9059
  5
8408
331
905A
  5
8409
331
905B
  5
856A
331
905C
  5
856B
331
905D
  5
856C
331
905E
  5
856F
331
905F
  5
8570
331
9060
  5
8571
331
9061
  5
8AD2
331
9062
  5
8AD3
331
9063
  5
8AD4
331
9064
  5
8AD5
331
9065
  5
8AD6
331
9066
  5
8AD7
331
9067
  5
8AD8
331
9068
  5
8FEF
331
9069
  5
8FF0
331
906A
  5
8FF1
331
906B
  5
8FF2
331
906C
  5
8FF3
331
906D
  5
8FF4
331
906E
  5
8FF5
331
906F
  5
8FF6
331
9070
  5
8FF7
331
9071
  5
8FF8
331
9072
  5
8FFD
331
9073
  5
8FFE
331
9074
  5
8FFF
  0
SORTENTSTABLE
  5
2401
102
{ACAD_REACTORS
330
2400
102
}
330
2400
100
AcDbSortentsTable
330
16
331
2FC
  5
2FC
331
0
  5
4CA8
  0
GROUP
  5
843A
102
{ACAD_REACTORS
330
D
102
}
330
D
100
AcDbGroup
300

 70
     1
 71
     1
340
8432
340
842F
340
8438
340
8435
340
8437
340
842C
340
8429
340
8425
340
8423
340
8416
340
840F
340
83F9
340
83B6
340
8374
340
842A
340
8426
340
8436
340
8434
340
8372
340
842B
340
8413
340
8412
340
8410
340
8428
340
8427
340
8433
340
8431
340
8371
340
842D
340
8415
340
8414
340
8422
340
8421
340
8420
340
841F
340
8402
340
83FB
340
83FA
340
841A
340
8419
340
8417
340
8418
340
83FF
340
83FE
340
83FC
340
841E
340
841D
340
841C
340
8411
340
841B
340
8401
340
8400
340
840E
340
840D
340
840C
340
840B
340
83F7
340
842E
340
8430
340
8406
340
8405
340
8404
340
8403
340
83F8
340
8409
340
8408
340
8407
340
83FD
340
840A
  0
GROUP
  5
8F63
102
{ACAD_REACTORS
330
D
102
}
330
D
100
AcDbGroup
300

 70
     1
 71
     1
  0
MATERIAL
  5
BEE
102
{ACAD_REACTORS
330
BE5
102
}
102
{ACAD_XDICTIONARY
360
907D
102
}
330
BE5
100
AcDbMaterial
  1
BYBLOCK
 72
     0
 73
     2
 43
0.0208333333333333
 43
0.0
 43
0.0
 43
0.0
 43
0.0
 43
0.0208333333333333
 43
0.0
 43
0.0
 43
0.0
 43
0.0
 43
1.0
 43
0.0
 43
0.0
 43
0.0
 43
0.0
 43
1.0
 77
     0
 78
     2
 47
0.0208333333333333
 47
0.0
 47
0.0
 47
0.0
 47
0.0
 47
0.0208333333333333
 47
0.0
 47
0.0
 47
0.0
 47
0.0
 47
1.0
 47
0.0
 47
0.0
 47
0.0
 47
0.0
 47
1.0
171
     0
172
     2
 49
0.0208333333333333
 49
0.0
 49
0.0
 49
0.0
 49
0.0
 49
0.0208333333333333
 49
0.0
 49
0.0
 49
0.0
 49
0.0
 49
1.0
 49
0.0
 49
0.0
 49
0.0
 49
0.0
 49
1.0
175
     0
176
     2
142
0.0208333333333333
142
0.0
142
0.0
142
0.0
142
0.0
142
0.0208333333333333
142
0.0
142
0.0
142
0.0
142
0.0
142
1.0
142
0.0
142
0.0
142
0.0
142
0.0
142
1.0
179
     0
270
     2
144
0.0208333333333333
144
0.0
144
0.0
144
0.0
144
0.0
144
0.0208333333333333
144
0.0
144
0.0
144
0.0
144
0.0
144
1.0
144
0.0
144
0.0
144
0.0
144
0.0
144
1.0
274
     2
147
0.0208333333333333
147
0.0
147
0.0
147
0.0
147
0.0
147
0.0208333333333333
147
0.0
147
0.0
147
0.0
147
0.0
147
1.0
147
0.0
147
0.0
147
0.0
147
0.0
147
1.0
  0
MATERIAL
  5
BE6
102
{ACAD_REACTORS
330
BE5
102
}
102
{ACAD_XDICTIONARY
360
907F
102
}
330
BE5
100
AcDbMaterial
  1
BYLAYER
 72
     0
 73
     2
 43
0.0208333333333333
 43
0.0
 43
0.0
 43
0.0
 43
0.0
 43
0.0208333333333333
 43
0.0
 43
0.0
 43
0.0
 43
0.0
 43
1.0
 43
0.0
 43
0.0
 43
0.0
 43
0.0
 43
1.0
 77
     0
 78
     2
 47
0.0208333333333333
 47
0.0
 47
0.0
 47
0.0
 47
0.0
 47
0.0208333333333333
 47
0.0
 47
0.0
 47
0.0
 47
0.0
 47
1.0
 47
0.0
 47
0.0
 47
0.0
 47
0.0
 47
1.0
171
     0
172
     2
 49
0.0208333333333333
 49
0.0
 49
0.0
 49
0.0
 49
0.0
 49
0.0208333333333333
 49
0.0
 49
0.0
 49
0.0
 49
0.0
 49
1.0
 49
0.0
 49
0.0
 49
0.0
 49
0.0
 49
1.0
175
     0
176
     2
142
0.0208333333333333
142
0.0
142
0.0
142
0.0
142
0.0
142
0.0208333333333333
142
0.0
142
0.0
142
0.0
142
0.0
142
1.0
142
0.0
142
0.0
142
0.0
142
0.0
142
1.0
179
     0
270
     2
144
0.0208333333333333
144
0.0
144
0.0
144
0.0
144
0.0
144
0.0208333333333333
144
0.0
144
0.0
144
0.0
144
0.0
144
1.0
144
0.0
144
0.0
144
0.0
144
0.0
144
1.0
274
     2
147
0.0208333333333333
147
0.0
147
0.0
147
0.0
147
0.0
147
0.0208333333333333
147
0.0
147
0.0
147
0.0
147
0.0
147
1.0
147
0.0
147
0.0
147
0.0
147
0.0
147
1.0
  0
MATERIAL
  5
BF6
102
{ACAD_REACTORS
330
BE5
102
}
102
{ACAD_XDICTIONARY
360
9081
102
}
330
BE5
100
AcDbMaterial
  1
GLOBAL
 72
     0
 73
     2
 43
0.0208333333333333
 43
0.0
 43
0.0
 43
0.0
 43
0.0
 43
0.0208333333333333
 43
0.0
 43
0.0
 43
0.0
 43
0.0
 43
1.0
 43
0.0
 43
0.0
 43
0.0
 43
0.0
 43
1.0
 77
     0
 78
     2
 47
0.0208333333333333
 47
0.0
 47
0.0
 47
0.0
 47
0.0
 47
0.0208333333333333
 47
0.0
 47
0.0
 47
0.0
 47
0.0
 47
1.0
 47
0.0
 47
0.0
 47
0.0
 47
0.0
 47
1.0
171
     0
172
     2
 49
0.0208333333333333
 49
0.0
 49
0.0
 49
0.0
 49
0.0
 49
0.0208333333333333
 49
0.0
 49
0.0
 49
0.0
 49
0.0
 49
1.0
 49
0.0
 49
0.0
 49
0.0
 49
0.0
 49
1.0
175
     0
176
     2
142
0.0208333333333333
142
0.0
142
0.0
142
0.0
142
0.0
142
0.0208333333333333
142
0.0
142
0.0
142
0.0
142
0.0
142
1.0
142
0.0
142
0.0
142
0.0
142
0.0
142
1.0
179
     0
270
     2
144
0.0208333333333333
144
0.0
144
0.0
144
0.0
144
0.0
144
0.0208333333333333
144
0.0
144
0.0
144
0.0
144
0.0
144
1.0
144
0.0
144
0.0
144
0.0
144
0.0
144
1.0
274
     2
147
0.0208333333333333
147
0.0
147
0.0
147
0.0
147
0.0
147
0.0208333333333333
147
0.0
147
0.0
147
0.0
147
0.0
147
1.0
147
0.0
147
0.0
147
0.0
147
0.0
147
1.0
  0
ACAD_PROXY_OBJECT
  5
C35
102
{ACAD_REACTORS
330
C34
102
}
330
C34
100
AcDbZombieObject
 90
      499
 91
      509
 93
      610
310
40901902A4063FBFFFFFE000000000000002040AD7A3703D0AD73F4214DD185B99185C990000000000000104090141901A00000000000004100000000000000041025764000000000000300FC0
340
13
340
0
340
10
340
0
 94
        0
1001
ACAD_MLEADERVER
1070
     2
  0
MLINESTYLE
  5
1C
102
{ACAD_REACTORS
330
E
102
}
330
E
100
AcDbMlineStyle
  2
STANDARD
 70
     0
  3

 62
     0
 51
90.0
 52
90.0
 71
     2
 49
0.5
 62
   256
  6
BYLAYER
 49
-0.5
 62
   256
  6
BYLAYER
  0
ACAD_PROXY_OBJECT
  5
C13
102
{ACAD_REACTORS
330
C12
330
C12
102
}
330
C12
100
AcDbZombieObject
 90
      499
 91
      508
 93
       41
310
903313A31580
  0
ACAD_PROXY_OBJECT
  5
C14
102
{ACAD_REACTORS
330
C12
330
C12
102
}
330
C12
100
AcDbZombieObject
 90
      499
 91
      508
 93
      105
310
903313A324000000000000004000
  0
ACAD_PROXY_OBJECT
  5
C15
102
{ACAD_REACTORS
330
C12
330
C12
102
}
330
C12
100
AcDbZombieObject
 90
      499
 91
      508
 93
      105
310
903313A344000000000000104000
  0
ACAD_PROXY_OBJECT
  5
C16
102
{ACAD_REACTORS
330
C12
330
C12
102
}
330
C12
100
AcDbZombieObject
 90
      499
 91
      508
 93
      105
310
903313A354000000000000144000
  0
ACAD_PROXY_OBJECT
  5
C17
102
{ACAD_REACTORS
330
C12
330
C12
102
}
330
C12
100
AcDbZombieObject
 90
      499
 91
      508
 93
      105
310
903313A384000000000000204000
  0
ACAD_PROXY_OBJECT
  5
C18
102
{ACAD_REACTORS
330
C12
330
C12
102
}
330
C12
100
AcDbZombieObject
 90
      499
 91
      508
 93
      113
310
904313A31304000000000000244000
  0
ACAD_PROXY_OBJECT
  5
C19
102
{ACAD_REACTORS
330
C12
330
C12
102
}
330
C12
100
AcDbZombieObject
 90
      499
 91
      508
 93
      113
310
904313A31364000000000000304000
  0
ACAD_PROXY_OBJECT
  5
C1A
102
{ACAD_REACTORS
330
C12
330
C12
102
}
330
C12
100
AcDbZombieObject
 90
      499
 91
      508
 93
      113
310
904313A32304000000000000344000
  0
ACAD_PROXY_OBJECT
  5
C1B
102
{ACAD_REACTORS
330
C12
330
C12
102
}
330
C12
100
AcDbZombieObject
 90
      499
 91
      508
 93
      113
310
904313A333040000000000003E4000
  0
ACAD_PROXY_OBJECT
  5
C1C
102
{ACAD_REACTORS
330
C12
330
C12
102
}
330
C12
100
AcDbZombieObject
 90
      499
 91
      508
 93
      113
310
904313A34304000000000000444000
  0
ACAD_PROXY_OBJECT
  5
C1D
102
{ACAD_REACTORS
330
C12
330
C12
102
}
330
C12
100
AcDbZombieObject
 90
      499
 91
      508
 93
      113
310
904313A35304000000000000494000
  0
ACAD_PROXY_OBJECT
  5
C1E
102
{ACAD_REACTORS
330
C12
330
C12
102
}
330
C12
100
AcDbZombieObject
 90
      499
 91
      508
 93
      121
310
905313A3130304000000000000594000
  0
ACAD_PROXY_OBJECT
  5
C1F
102
{ACAD_REACTORS
330
C12
330
C12
102
}
330
C12
100
AcDbZombieObject
 90
      499
 91
      508
 93
      105
310
903323A310000000000000010100
  0
ACAD_PROXY_OBJECT
  5
C20
102
{ACAD_REACTORS
330
C12
330
C12
102
}
330
C12
100
AcDbZombieObject
 90
      499
 91
      508
 93
      105
310
903343A310000000000000410100
  0
ACAD_PROXY_OBJECT
  5
C21
102
{ACAD_REACTORS
330
C12
330
C12
102
}
330
C12
100
AcDbZombieObject
 90
      499
 91
      508
 93
      105
310
903383A310000000000000810100
  0
ACAD_PROXY_OBJECT
  5
C22
102
{ACAD_REACTORS
330
C12
330
C12
102
}
330
C12
100
AcDbZombieObject
 90
      499
 91
      508
 93
      113
310
90431303A310000000000000910100
  0
ACAD_PROXY_OBJECT
  5
C23
102
{ACAD_REACTORS
330
C12
330
C12
102
}
330
C12
100
AcDbZombieObject
 90
      499
 91
      508
 93
      121
310
9053130303A310000000000001650100
  0
ACAD_PROXY_OBJECT
  5
C24
102
{ACAD_REACTORS
330
C12
330
C12
102
}
330
C12
100
AcDbZombieObject
 90
      499
 91
      508
 93
      257
310
90E312F31323822203D2031272D3022000000000000200FC000000000000284000
  0
ACAD_PROXY_OBJECT
  5
C25
102
{ACAD_REACTORS
330
C12
330
C12
102
}
330
C12
100
AcDbZombieObject
 90
      499
 91
      508
 93
      249
310
90D312F363422203D2031272D3022000000000000240FC000000000000284000
  0
ACAD_PROXY_OBJECT
  5
C26
102
{ACAD_REACTORS
330
C12
330
C12
102
}
330
C12
100
AcDbZombieObject
 90
      499
 91
      508
 93
      249
310
90D312F333222203D2031272D3022000000000000280FC000000000000284000
  0
ACAD_PROXY_OBJECT
  5
C27
102
{ACAD_REACTORS
330
C12
330
C12
102
}
330
C12
100
AcDbZombieObject
 90
      499
 91
      508
 93
      249
310
90D312F313622203D2031272D30220000000000002C0FC000000000000284000
  0
ACAD_PROXY_OBJECT
  5
C28
102
{ACAD_REACTORS
330
C12
330
C12
102
}
330
C12
100
AcDbZombieObject
 90
      499
 91
      508
 93
      249
310
90D332F333222203D2031272D30220000000000002E0FC000000000000284000
  0
ACAD_PROXY_OBJECT
  5
C29
102
{ACAD_REACTORS
330
C12
330
C12
102
}
330
C12
100
AcDbZombieObject
 90
      499
 91
      508
 93
      241
310
90C312F3822203D2031272D3022000000000000300FC000000000000284000
  0
ACAD_PROXY_OBJECT
  5
C2A
102
{ACAD_REACTORS
330
C12
330
C12
102
}
330
C12
100
AcDbZombieObject
 90
      499
 91
      508
 93
      249
310
90D332F313622203D2031272D3022000000000000320FC000000000000284000
  0
ACAD_PROXY_OBJECT
  5
C2B
102
{ACAD_REACTORS
330
C12
330
C12
102
}
330
C12
100
AcDbZombieObject
 90
      499
 91
      508
 93
      241
310
90C312F3422203D2031272D3022000000000000340FC000000000000284000
  0
ACAD_PROXY_OBJECT
  5
C2C
102
{ACAD_REACTORS
330
C12
330
C12
102
}
330
C12
100
AcDbZombieObject
 90
      499
 91
      508
 93
      241
310
90C332F3822203D2031272D3022000000000000360FC000000000000284000
  0
ACAD_PROXY_OBJECT
  5
C2D
102
{ACAD_REACTORS
330
C12
330
C12
102
}
330
C12
100
AcDbZombieObject
 90
      499
 91
      508
 93
      241
310
90C312F3222203D2031272D3022000000000000380FC000000000000284000
  0
ACAD_PROXY_OBJECT
  5
C2E
102
{ACAD_REACTORS
330
C12
330
C12
102
}
330
C12
100
AcDbZombieObject
 90
      499
 91
      508
 93
      241
310
90C332F3422203D2031272D30220000000000003A0FC000000000000284000
  0
ACAD_PROXY_OBJECT
  5
C2F
102
{ACAD_REACTORS
330
C12
330
C12
102
}
330
C12
100
AcDbZombieObject
 90
      499
 91
      508
 93
      161
310
90A3122203D2031272D30224000000000000284000
  0
ACAD_PROXY_OBJECT
  5
C30
102
{ACAD_REACTORS
330
C12
330
C12
102
}
330
C12
100
AcDbZombieObject
 90
      499
 91
      508
 93
      257
310
90E312D312F3222203D2031272D30220000000000003E0FC000000000000284000
  0
ACAD_PROXY_OBJECT
  5
C31
102
{ACAD_REACTORS
330
C12
330
C12
102
}
330
C12
100
AcDbZombieObject
 90
      499
 91
      508
 93
      225
310
90A3322203D2031272D302200000000000002100000000000000284000
  0
ACAD_PROXY_OBJECT
  5
C32
102
{ACAD_REACTORS
330
C12
330
C12
102
}
330
C12
100
AcDbZombieObject
 90
      499
 91
      508
 93
      225
310
90A3622203D2031272D302200000000000006100000000000000284000
  0
ACAD_PROXY_OBJECT
  5
C33
102
{ACAD_REACTORS
330
C12
330
C12
102
}
330
C12
100
AcDbZombieObject
 90
      499
 91
      508
 93
      249
310
90D31272D3022203D2031272D30220000000000000A100000000000000284000
  0
ACAD_PROXY_OBJECT
  5
C04
102
{ACAD_REACTORS
330
BFE
102
}
330
BFE
100
AcDbZombieObject
 90
      499
 91
      506
 93
      436
310
42CC9915DA5C99599C985B595049028333333333333E3BF0000000000000FB0107901411070040501600405405064090741402480A0340
1001
ACAD
1000
AcDbSavedByObjectVersion
1070
     0
  0
ACAD_PROXY_OBJECT
  5
C06
102
{ACAD_REACTORS
330
BFE
102
}
330
BFE
100
AcDbZombieObject
 90
      499
 91
      506
 93
      500
310
424CD108121A5919195B90640502408333333333333E3BF0000000000000FB01079024090700405020000000000001110200405405064090740C02480A0340
1001
ACAD
1000
AcDbSavedByObjectVersion
1070
     0
  0
ACAD_PROXY_OBJECT
  5
C05
102
{ACAD_REACTORS
330
BFE
102
}
330
BFE
100
AcDbZombieObject
 90
      499
 91
      506
 93
      436
310
42CCD915DA5C99599C985B595059028333333333333E3BF0000000000000FB0107901411070040501600405405064090741402480A0340
1001
ACAD
1000
AcDbSavedByObjectVersion
1070
     0
  0
ACAD_PROXY_OBJECT
  5
C03
102
{ACAD_REACTORS
330
BFE
102
}
330
BFE
100
AcDbZombieObject
 90
      499
 91
      506
 93
      388
310
4150985CDA58D07406404333333333333E3BF0000000000000FB0107A41107004050150841D405064090741402480A0350
1001
ACAD
1000
AcDbSavedByObjectVersion
1070
     0
  0
ACAD_PROXY_OBJECT
  5
C0A
102
{ACAD_REACTORS
330
BFE
102
}
330
BFE
100
AcDbZombieObject
 90
      499
 91
      506
 93
      428
310
42109C9A59DA1D195B90C409028333333333333E3BF0000000000000FB010790141107004050150841D405064090741402480A029950
1001
ACAD
1000
AcDbSavedByObjectVersion
1070
     0
  0
ACAD_PROXY_OBJECT
  5
C0E
102
{ACAD_REACTORS
330
BFE
102
}
330
BFE
100
AcDbZombieObject
 90
      499
 91
      506
 93
      452
310
42D0DBDB1BDC90DA185B99D95104090240C333333333333E3BF0000000000000FB0108901411070040501508421405064090741402480A0350
1001
ACAD
1000
AcDbSavedByObjectVersion
1070
     0
  0
ACAD_PROXY_OBJECT
  5
C07
102
{ACAD_REACTORS
330
BFE
102
}
330
BFE
100
AcDbZombieObject
 90
      499
 91
      506
 93
      500
310
4290DBDB98D95C1D1D585B10940D028333333333333E3BF0000000000000FB0107902409070040501000000000000111010841D405064090740C02480A0340
1001
ACAD
1000
AcDbSavedByObjectVersion
1070
     0
  0
ACAD_PROXY_OBJECT
  5
C09
102
{ACAD_REACTORS
330
BFE
102
}
330
BFE
100
AcDbZombieObject
 90
      499
 91
      506
 93
      412
310
40D11A5B50B409028333333333333E3BF0000000000000FB010790141107004050150841D405064090741402480A02677FFFFFD0
1001
ACAD
1000
AcDbSavedByObjectVersion
1070
     0
  0
ACAD_PROXY_OBJECT
  5
88B6
102
{ACAD_REACTORS
330
BFE
102
}
330
BFE
100
AcDbZombieObject
 90
      499
 91
      506
 93
      452
310
43115919D950DBDB1BDC93D999916409028333333333333E3BF0000000000000FB010790141107004050150841D405064090741402480A0350
1001
ACAD
1000
AcDbSavedByObjectVersion
1070
     0
  0
ACAD_PROXY_OBJECT
  5
C0D
102
{ACAD_REACTORS
330
BFE
102
}
330
BFE
100
AcDbZombieObject
 90
      499
 91
      506
 93
      444
310
42D19858D95C185D1D195C9B90F409028333333333333E3BF0000000000000FB010790141107004050150841D405064090741402480A0350
1001
ACAD
1000
AcDbSavedByObjectVersion
1070
     0
  0
ACAD_PROXY_OBJECT
  5
BFF
102
{ACAD_REACTORS
330
BFE
102
}
330
BFE
100
AcDbZombieObject
 90
      499
 91
      506
 93
      388
310
41119B185D240901404333333333333E3BF0000000000000F9010740A41107004050150841D405064090741402480A1B50
1001
ACAD
1000
AcDbSavedByObjectVersion
1070
     0
  0
ACAD_PROXY_OBJECT
  5
C00
102
{ACAD_REACTORS
330
BFE
102
}
330
BFE
100
AcDbZombieObject
 90
      499
 91
      506
 93
      476
310
43519B185D15DA5D1A115919D95CD0140901404333333333333E3BF0000000000000F9010740901411070040501600405405064090741402480A1B50
1001
ACAD
1000
AcDbSavedByObjectVersion
1070
     0
  0
ACAD_PROXY_OBJECT
  5
C01
102
{ACAD_REACTORS
330
BFE
102
}
330
BFE
100
AcDbZombieObject
 90
      499
 91
      506
 93
      412
310
41D1DBDD5C985D5910240902404333333333333E3BF0000000000000F9010740A411070040501641D405064090741402480A1B50
1001
ACAD
1000
AcDbSavedByObjectVersion
1070
     0
  0
ACAD_PROXY_OBJECT
  5
C02
102
{ACAD_REACTORS
330
BFE
102
}
330
BFE
100
AcDbZombieObject
 90
      499
 91
      506
 93
      500
310
4411DBDD5C985D5915DA5D1A115919D95CD0340902404333333333333E3BF0000000000000F9010740901411070040501600405405064090741402480A1B50
1001
ACAD
1000
AcDbSavedByObjectVersion
1070
     0
  0
ACAD_PROXY_OBJECT
  5
88AE
102
{ACAD_REACTORS
330
BFE
102
}
330
BFE
100
AcDbZombieObject
 90
      499
 91
      506
 93
      476
310
41921A5919195B90640502408333333333333E3BF0000000000000FB01079024090700405020000000000001110200405405064090740C02480A0340
1001
ACAD
1000
AcDbSavedByObjectVersion
1070
     0
  0
ACAD_PROXY_OBJECT
  5
88B4
102
{ACAD_REACTORS
330
BFE
102
}
330
BFE
100
AcDbZombieObject
 90
      499
 91
      506
 93
      428
310
42529A5D1D195C93D999914409028333333333333E3BF0000000000000FB010790141107004050150A41D405064090741402480A0350
1001
ACAD
1000
AcDbSavedByObjectVersion
1070
     0
  0
ACAD_PROXY_OBJECT
  5
C0C
102
{ACAD_REACTORS
330
BFE
102
}
330
BFE
100
AcDbZombieObject
 90
      499
 91
      506
 93
      444
310
42D31A5B995C185D1D195C9B90E409028333333333333E3BF0000000000000FB010790141107004050750841D405064090741402483A0350
1001
ACAD
1000
AcDbSavedByObjectVersion
1070
     0
  0
ACAD_PROXY_OBJECT
  5
8F82
102
{ACAD_REACTORS
330
BFE
102
}
330
BFE
100
AcDbZombieObject
 90
      499
 91
      506
 93
      484
310
42135BD9195B1A5B99D0A409038333333333333E33F0000000000000F901074090290700405010000000000201990108421405064090741402480A1B40
1001
ACAD
1000
AcDbSavedByObjectVersion
1070
     0
  0
ACAD_PROXY_OBJECT
  5
88B5
102
{ACAD_REACTORS
330
BFE
102
}
330
BFE
100
AcDbZombieObject
 90
      499
 91
      506
 93
      444
310
42D3DD995C9A185B99D3D999915409028333333333333E3BF0000000000000FB010790141107004050150941D405064090741402480A0350
1001
ACAD
1000
AcDbSavedByObjectVersion
1070
     0
  0
ACAD_PROXY_OBJECT
  5
C08
102
{ACAD_REACTORS
330
BFE
102
}
330
BFE
100
AcDbZombieObject
 90
      499
 91
      506
 93
      420
310
425499585B1A5CDD1A58D08409028333333333333E3BF0000000000000FB01079019070040501508421405064090741402480A1B40
1001
ACAD
1000
AcDbSavedByObjectVersion
1070
     0
  0
ACAD_PROXY_OBJECT
  5
88B3
102
{ACAD_REACTORS
330
BFE
102
}
330
BFE
100
AcDbZombieObject
 90
      499
 91
      506
 93
      420
310
4194DA1859195911B40902404333333333333E3BF0000000000000F9010740A41107004050150800405405064090840C02480A0B40
1001
ACAD
1000
AcDbSavedByObjectVersion
1070
     0
  0
ACAD_PROXY_OBJECT
  5
88B2
102
{ACAD_REACTORS
330
BFE
102
}
330
BFE
100
AcDbZombieObject
 90
      499
 91
      506
 93
      516
310
4454DA18591959081DDA5D1A08195919D95CD1A40902404333333333333E3BF0000000000000F901074090142907004050250800405405064090740C02480A0B40
1001
ACAD
1000
AcDbSavedByObjectVersion
1070
     0
  0
ACAD_PROXY_OBJECT
  5
88AF
102
{ACAD_REACTORS
330
BFE
102
}
330
BFE
100
AcDbZombieObject
 90
      499
 91
      506
 93
      532
310
4394DA1859195CC81BD98811DC985E5174090240C333333333333E3BF0000000000000FB01079024090741D01000000000000111010841D405064090740C02480A0340
1001
ACAD
1000
AcDbSavedByObjectVersion
1070
     0
  0
ACAD_PROXY_OBJECT
  5
88B0
102
{ACAD_REACTORS
330
BFE
102
}
330
BFE
100
AcDbZombieObject
 90
      499
 91
      506
 93
      476
310
41D4DAD95D18DA1E51840502408333333333333E3BF0000000000000FB01079024090741D01000000000000111010B41D405064090741802480A0340
1001
ACAD
1000
AcDbSavedByObjectVersion
1070
     0
  0
ACAD_PROXY_OBJECT
  5
C0B
102
{ACAD_REACTORS
330
BFE
102
}
330
BFE
100
AcDbZombieObject
 90
      499
 91
      506
 93
      412
310
41D51A1A58DAD95B90D409028333333333333E3BF0000000000000FB010790141107004050150C41D405064090741402480A0350
1001
ACAD
1000
AcDbSavedByObjectVersion
1070
     0
  0
ACAD_PROXY_OBJECT
  5
88AD
102
{ACAD_REACTORS
330
BFE
102
}
330
BFE
100
AcDbZombieObject
 90
      499
 91
      506
 93
      420
310
4255DA5C99599C985B595059028333333333333E3BF0000000000000FB0107901411070040501600405405064090740C02480A0340
1001
ACAD
1000
AcDbSavedByObjectVersion
1070
     0
  0
ACAD_PROXY_OBJECT
  5
88B1
102
{ACAD_REACTORS
330
BFE
102
}
330
BFE
100
AcDbZombieObject
 90
      499
 91
      506
 93
      404
310
41560B54985E51940902404000000000000E03F0000000000000FB010740501907004050150841D405064090740C02480A1B40
1001
ACAD
1000
AcDbSavedByObjectVersion
1070
     0
  0
XRECORD
  5
9079
102
{ACAD_REACTORS
330
9078
102
}
330
9078
100
AcDbXrecord
340
C0F
  0
XRECORD
  5
907A
102
{ACAD_REACTORS
330
9078
102
}
330
9078
100
AcDbXrecord
340
BE5
  0
DICTIONARYVAR
  5
907C
102
{ACAD_REACTORS
330
2E2
102
}
330
2E2
100
DictionaryVariables
280
     0
  1
1:1
  0
DICTIONARYVAR
  5
C68
102
{ACAD_REACTORS
330
2E2
102
}
330
2E2
100
DictionaryVariables
280
     0
  1
Standard
  0
DICTIONARYVAR
  5
C67
102
{ACAD_REACTORS
330
2E2
102
}
330
2E2
100
DictionaryVariables
280
     0
  1
Standard
  0
DICTIONARYVAR
  5
385
102
{ACAD_REACTORS
330
2E2
102
}
330
2E2
100
DictionaryVariables
280
     0
  1
-1
  0
DICTIONARYVAR
  5
C6B
102
{ACAD_REACTORS
330
2E2
102
}
330
2E2
100
DictionaryVariables
280
     0
  1
2
  0
DICTIONARYVAR
  5
1D00
102
{ACAD_REACTORS
330
2E2
102
}
330
2E2
100
DictionaryVariables
280
     0
  1
1
  0
DICTIONARYVAR
  5
C6A
102
{ACAD_REACTORS
330
2E2
102
}
330
2E2
100
DictionaryVariables
280
     0
  1
0
  0
DICTIONARYVAR
  5
1D04
102
{ACAD_REACTORS
330
2E2
102
}
330
2E2
100
DictionaryVariables
280
     0
  1
8
  0
DICTIONARYVAR
  5
1D03
102
{ACAD_REACTORS
330
2E2
102
}
330
2E2
100
DictionaryVariables
280
     0
  1
1
  0
DICTIONARYVAR
  5
6E7B
102
{ACAD_REACTORS
330
2E2
102
}
330
2E2
100
DictionaryVariables
280
     0
  1
0
  0
DICTIONARYVAR
  5
6E7C
102
{ACAD_REACTORS
330
2E2
102
}
330
2E2
100
DictionaryVariables
280
     0
  1
0
  0
DICTIONARYVAR
  5
9075
102
{ACAD_REACTORS
330
2E2
102
}
330
2E2
100
DictionaryVariables
280
     0
  1
0
  0
DICTIONARYVAR
  5
1D01
102
{ACAD_REACTORS
330
2E2
102
}
330
2E2
100
DictionaryVariables
280
     0
  1
120
  0
DICTIONARYVAR
  5
1D02
102
{ACAD_REACTORS
330
2E2
102
}
330
2E2
100
DictionaryVariables
280
     0
  1
0
  0
DICTIONARYVAR
  5
2E3
102
{ACAD_REACTORS
330
2E2
102
}
330
2E2
100
DictionaryVariables
280
     0
  1
96
  0
DICTIONARYVAR
  5
8F81
102
{ACAD_REACTORS
330
2E2
102
}
330
2E2
100
DictionaryVariables
280
     0
  1
2
  0
DICTIONARY
  5
907D
330
BEE
100
AcDbDictionary
  3
ACAD_XREC_ROUNDTRIP
360
907E
1001
ACAD
1000
TREAT_AS_HARD
1070
     1
  0
DICTIONARY
  5
907F
330
BE6
100
AcDbDictionary
  3
ACAD_XREC_ROUNDTRIP
360
9080
1001
ACAD
1000
TREAT_AS_HARD
1070
     1
  0
DICTIONARY
  5
9081
330
BF6
100
AcDbDictionary
  3
ACAD_XREC_ROUNDTRIP
360
9082
1001
ACAD
1000
TREAT_AS_HARD
1070
     1
  0
XRECORD
  5
907E
102
{ACAD_REACTORS
330
907D
102
}
330
907D
100
AcDbXrecord
102
MATERIAL
148
0.0
149
0.0
149
0.0
 93
        0
 94
      127
282
     0
 72
     0
 77
     0
171
     0
175
     0
179
     0
273
     0
  0
XRECORD
  5
9080
102
{ACAD_REACTORS
330
907F
102
}
330
907F
100
AcDbXrecord
102
MATERIAL
148
0.0
149
0.0
149
0.0
 93
        0
 94
      127
282
     0
 72
     0
 77
     0
171
     0
175
     0
179
     0
273
     0
  0
XRECORD
  5
9082
102
{ACAD_REACTORS
330
9081
102
}
330
9081
100
AcDbXrecord
102
MATERIAL
148
0.0
149
0.0
149
0.0
 93
        0
 94
      127
282
     0
 72
     0
 77
     0
171
     0
175
     0
179
     0
273
     0
  0
ENDSEC
  0
EOF
