  0
SECTION
  2
HEADER
  9
$ACADVER
  1
AC1009
  9
$INSBASE
 10
0.0
 20
0.0
 30
0.0
  9
$EXTMIN
 10
-1735.6525695325211
 20
-947.22685437453163
 30
0.0
  9
$EXTMAX
 10
-1463.652569532522
 20
-698.66338674878955
 30
0.0
  9
$LIMMIN
 10
0.0
 20
0.0
  9
$LIMMAX
 10
420.0
 20
297.0
  9
$ORTHOMODE
 70
     0
  9
$REGENMODE
 70
     1
  9
$FILLMODE
 70
     1
  9
$QTEXTMODE
 70
     0
  9
$MIRRTEXT
 70
     0
  9
$DRAGMODE
 70
     2
  9
$LTSCALE
 40
0.5
  9
$OSMODE
 70
  2173
  9
$ATTMODE
 70
     1
  9
$TEXTSIZE
 40
4.0
  9
$TRACEWID
 40
1.0
  9
$TEXTSTYLE
  7
STANDARD
  9
$CLAYER
  8
1TEXT
  9
$CELTYPE
  6
BYLAYER
  9
$CECOLOR
 62
   256
  9
$DIMSCALE
 40
1.0
  9
$DIMASZ
 40
2.0
  9
$DIMEXO
 40
0.0
  9
$DIMDLI
 40
7.0
  9
$DIMRND
 40
0.0
  9
$DIMDLE
 40
0.0
  9
$DIMEXE
 40
1.0
  9
$DIMTP
 40
0.0
  9
$DIMTM
 40
0.0
  9
$DIMTXT
 40
3.5
  9
$DIMCEN
 40
0.0
  9
$DIMTSZ
 40
0.0
  9
$DIMTOL
 70
     0
  9
$DIMLIM
 70
     0
  9
$DIMTIH
 70
     0
  9
$DIMTOH
 70
     0
  9
$DIMSE1
 70
     0
  9
$DIMSE2
 70
     0
  9
$DIMTAD
 70
     1
  9
$DIMZIN
 70
     8
  9
$DIMBLK
  1

  9
$DIMASO
 70
     1
  9
$DIMSHO
 70
     1
  9
$DIMPOST
  1
 
  9
$DIMAPOST
  1

  9
$DIMALT
 70
     0
  9
$DIMALTD
 70
     2
  9
$DIMALTF
 40
25.399999999999999
  9
$DIMLFAC
 40
1.0
  9
$DIMTOFL
 70
     1
  9
$DIMTVP
 40
0.0
  9
$DIMTIX
 70
     0
  9
$DIMSOXD
 70
     0
  9
$DIMSAH
 70
     1
  9
$DIMBLK1
  1
OPEN30
  9
$DIMBLK2
  1
OPEN30
  9
$DIMSTYLE
  2
NEWX10
  9
$DIMCLRD
 70
   256
  9
$DIMCLRE
 70
   256
  9
$DIMCLRT
 70
   201
  9
$DIMTFAC
 40
0.7
  9
$DIMGAP
 40
0.7
  9
$LUNITS
 70
     2
  9
$LUPREC
 70
     4
  9
$SKETCHINC
 40
1.0
  9
$FILLETRAD
 40
0.0
  9
$AUNITS
 70
     0
  9
$AUPREC
 70
     2
  9
$MENU
  1
acad
  9
$ELEVATION
 40
0.0
  9
$PELEVATION
 40
0.0
  9
$THICKNESS
 40
0.0
  9
$LIMCHECK
 70
     0
  9
$BLIPMODE
 70
     0
  9
$CHAMFERA
 40
10.0
  9
$CHAMFERB
 40
10.0
  9
$SKPOLY
 70
     0
  9
$TDCREATE
 40
2453033.7326634838
  9
$TDUPDATE
 40
2453551.7127101389
  9
$TDINDWG
 40
1.6459935532000001
  9
$TDUSRTIMER
 40
1.6459935532000001
  9
$USRTIMER
 70
     1
  9
$ANGBASE
 50
0.0
  9
$ANGDIR
 70
     0
  9
$PDMODE
 70
     0
  9
$PDSIZE
 40
0.0
  9
$PLINEWID
 40
0.0
  9
$COORDS
 70
     2
  9
$SPLFRAME
 70
     0
  9
$SPLINETYPE
 70
     6
  9
$SPLINESEGS
 70
     8
  9
$ATTDIA
 70
     0
  9
$ATTREQ
 70
     1
  9
$HANDLING
 70
     1
  9
$HANDSEED
  5
17A26
  9
$SURFTAB1
 70
     6
  9
$SURFTAB2
 70
     6
  9
$SURFTYPE
 70
     6
  9
$SURFU
 70
     6
  9
$SURFV
 70
     6
  9
$UCSNAME
  2

  9
$UCSORG
 10
0.0
 20
0.0
 30
0.0
  9
$UCSXDIR
 10
1.0
 20
0.0
 30
0.0
  9
$UCSYDIR
 10
0.0
 20
1.0
 30
0.0
  9
$PUCSNAME
  2

  9
$PUCSORG
 10
0.0
 20
0.0
 30
0.0
  9
$PUCSXDIR
 10
1.0
 20
0.0
 30
0.0
  9
$PUCSYDIR
 10
0.0
 20
1.0
 30
0.0
  9
$USERI1
 70
     0
  9
$USERI2
 70
     0
  9
$USERI3
 70
     0
  9
$USERI4
 70
     0
  9
$USERI5
 70
     0
  9
$USERR1
 40
0.0
  9
$USERR2
 40
0.0
  9
$USERR3
 40
0.0
  9
$USERR4
 40
0.0
  9
$USERR5
 40
0.0
  9
$WORLDVIEW
 70
     1
  9
$SHADEDGE
 70
     3
  9
$SHADEDIF
 70
    70
  9
$TILEMODE
 70
     1
  9
$MAXACTVP
 70
    48
  9
$PLIMCHECK
 70
     0
  9
$PEXTMIN
 10
1.0000000000000000E+020
 20
1.0000000000000000E+020
 30
1.0000000000000000E+020
  9
$PEXTMAX
 10
-1.0000000000000000E+020
 20
-1.0000000000000000E+020
 30
-1.0000000000000000E+020
  9
$PLIMMIN
 10
0.0
 20
0.0
  9
$PLIMMAX
 10
420.0
 20
297.0
  9
$UNITMODE
 70
     0
  9
$VISRETAIN
 70
     1
  9
$PLINEGEN
 70
     0
  9
$PSLTSCALE
 70
     1
  0
ENDSEC
  0
SECTION
  2
TABLES
  0
TABLE
  2
VPORT
 70
     5
  0
VPORT
  2
*ACTIVE
 70
     0
 10
0.0
 20
0.0
 11
1.0
 21
1.0
 12
-1599.622724981371
 22
-822.95794832015042
 13
0.0
 23
0.0
 14
10.0
 24
10.0
 15
10.0
 25
10.0
 16
0.0
 26
0.0
 36
1.0
 17
0.0
 27
0.0
 37
0.0
 40
263.81199571251818
 41
1.508086253369272
 42
50.0
 43
0.0
 44
0.0
 50
0.0
 51
0.0
 71
     0
 72
   100
 73
     1
 74
     1
 75
     0
 76
     0
 77
     0
 78
     0
  0
ENDTAB
  0
TABLE
  2
LTYPE
 70
    15
  0
LTYPE
  2
CONTINUOUS
 70
     0
  3
Solid line
 72
    65
 73
     0
 40
0.0
  0
LTYPE
  2
CENTER2
 70
     0
  3
Center (.5x) ___ _ ___ _ ___ _ ___ _ ___ _ ___
 72
    65
 73
     4
 40
28.574999999999999
 49
19.050000000000001
 49
-3.1749999999999989
 49
3.1749999999999989
 49
-3.1749999999999989
  0
LTYPE
  2
XREF1|CENTER2
 70
    48
  3
Center (.5x) ___ _ ___ _ ___ _ ___ _ ___ _ ___
 72
    65
 73
     4
 40
28.574999999999999
 49
19.050000000000001
 49
-3.1749999999999989
 49
3.1749999999999989
 49
-3.1749999999999989
  0
LTYPE
  2
PHANTOM2
 70
     0
  3
Phantom (.5x) ___ _ _ ___ _ _ ___ _ _ ___ _ _
 72
    65
 73
     6
 40
31.75
 49
15.875
 49
-3.1749999999999989
 49
3.1749999999999989
 49
-3.1749999999999989
 49
3.1749999999999989
 49
-3.1749999999999989
  0
LTYPE
  2
A3WAKUDAKE|CENTER2
 70
    48
  3
Center (.5x) ___ _ ___ _ ___ _ ___ _ ___ _ ___
 72
    65
 73
     4
 40
28.574999999999999
 49
19.050000000000001
 49
-3.1749999999999989
 49
3.1749999999999989
 49
-3.1749999999999989
  0
ENDTAB
  0
TABLE
  2
LAYER
 70
    44
  0
LAYER
  2
0
 70
     0
 62
     7
  6
CONTINUOUS
  0
LAYER
  2
1CENTER
 70
     0
 62
     7
  6
CENTER2
  0
LAYER
  2
1TEXT
 70
     0
 62
     7
  6
CONTINUOUS
  0
LAYER
  2
1DIM
 70
     0
 62
     7
  6
CONTINUOUS
  0
LAYER
  2
1PHANTOM
 70
     0
 62
     7
  6
PHANTOM2
  0
LAYER
  2
01
 70
     0
 62
     1
  6
CONTINUOUS
  0
LAYER
  2
1HATCH
 70
     0
 62
     7
  6
CONTINUOUS
  0
LAYER
  2
XREF1|1CENTER
 70
    48
 62
     7
  6
XREF1|CENTER2
  0
LAYER
  2
A3WAKUDAKE|THICK
 70
    48
 62
     7
  6
CONTINUOUS
  0
LAYER
  2
A3WAKUDAKE|POINT
 70
    48
 62
     7
  6
CONTINUOUS
  0
LAYER
  2
A3WAKUDAKE|1CENTER
 70
    48
 62
     7
  6
A3WAKUDAKE|CENTER2
  0
LAYER
  2
A3WAKUDAKE|0-6
 70
    48
 62
     7
  6
CONTINUOUS
  0
LAYER
  2
A3WAKUDAKE|1DIM
 70
    48
 62
     7
  6
CONTINUOUS
  0
ENDTAB
  0
TABLE
  2
STYLE
 70
    22
  0
STYLE
  2
STANDARD
 70
     0
 40
0.0
 41
1.0
 50
0.0
 71
     0
 42
4.0
  3
txt.shx
  4
extfont.shx
  0
ENDTAB
  0
TABLE
  2
VIEW
 70
     0
  0
ENDTAB
  0
TABLE
  2
UCS
 70
     0
  0
ENDTAB
  0
TABLE
  2
APPID
 70
     9
  0
APPID
  2
ACAD
 70
     0
  0
APPID
  2
DRAWINGVARIABLESXDATA
 70
     0
  0
APPID
  2
CONTENTTABDATA
 70
     0
  0
APPID
  2
CONTENTCURRENTTAB
 70
     0
  0
APPID
  2
CONTENTBLOCKDESCRIPTION
 70
     0
  0
APPID
  2
CONTENTBLOCKICON
 70
     0
  0
APPID
  2
CONTENTLONGBLOCKNAME
 70
     0
  0
APPID
  2
ACAD_PSEXT
 70
     0
  0
APPID
  2
ACAD_DSTYLE_DIMTEXT_FILL
 70
     0
  0
ENDTAB
  0
TABLE
  2
DIMSTYLE
 70
     9
  0
DIMSTYLE
  2
NEWX10
 70
     0
  3
 
  4

  5

  6
OPEN30
  7
OPEN30
 40
1.0
 41
2.0
 42
0.0
 43
7.0
 44
1.0
 45
0.0
 46
0.0
 47
0.0
 48
0.0
140
3.5
141
0.0
142
0.0
143
25.399999999999999
144
1.0
145
0.0
146
0.7
147
0.7
 71
     0
 72
     0
 73
     0
 74
     0
 75
     0
 76
     0
 77
     1
 78
     8
170
     0
171
     2
172
     1
173
     1
174
     0
175
     0
176
   256
177
   256
178
   201
  0
ENDTAB
  0
ENDSEC
  0
SECTION
  2
BLOCKS
  0
BLOCK
  8
0
  2
$MODEL_SPACE
 70
     0
 10
0.0
 20
0.0
 30
0.0
  3
$MODEL_SPACE
  1

  0
ENDBLK
  5
1A
  8
0
  0
BLOCK
 67
     1
  8
0
  2
$PAPER_SPACE
 70
     0
 10
0.0
 20
0.0
 30
0.0
  3
$PAPER_SPACE
  1

  0
ENDBLK
  5
17
 67
     1
  8
0
  0
BLOCK
  8
0
  2
_OPEN30
 70
     0
 10
0.0
 20
0.0
 30
0.0
  3
_OPEN30
  1

  0
LINE
  5
44
  8
0
  6
BYBLOCK
 62
     0
 10
-1.0
 20
0.26794919
 30
0.0
 11
0.0
 21
0.0
 31
0.0
  0
LINE
  5
45
  8
0
  6
BYBLOCK
 62
     0
 10
0.0
 20
0.0
 30
0.0
 11
-1.0
 21
-0.26794919
 31
0.0
  0
LINE
  5
46
  8
0
  6
BYBLOCK
 62
     0
 10
0.0
 20
0.0
 30
0.0
 11
-1.0
 21
0.0
 31
0.0
  0
ENDBLK
  5
47
  8
0
  0
BLOCK
  8
0
  2
XREF1
 70
    36
 10
0.0
 20
0.0
 30
0.0
  3
XREF1
  1
D:\ACLT\FORMAT\KAWAJUN(9)図面用.dwg
  0
ENDBLK
  5
5D
  8
0
  0
BLOCK
  8
0
  2
A3WAKUDAKE
 70
    36
 10
0.0
 20
0.0
 30
0.0
  3
A3WAKUDAKE
  1
D:\ACLT\FORMAT\A3WAKUdake.dwg
  0
ENDBLK
  5
6DC
  8
0
  0
BLOCK
  8
0
  2
*U19
 70
     1
 10
0.0
 20
0.0
 30
0.0
  3
*U19
  1

  0
TEXT
  5
178F3
  8
1DIM
 62
   201
 10
-1647.435902865858
 20
-805.10767399502765
 30
0.0
 40
3.5
  1
φ16
  0
ENDBLK
  5
178F5
  8
0
  0
BLOCK
  8
0
  2
*U20
 70
     1
 10
0.0
 20
0.0
 30
0.0
  3
*U20
  1

  0
TEXT
  5
178F7
  8
1DIM
 62
   201
 10
-1610.352569532515
 20
-855.62908972629793
 30
0.0
 40
3.5
  1
74 
 50
90.0
  0
ENDBLK
  5
178F9
  8
0
  0
BLOCK
  8
0
  2
*U21
 70
     1
 10
0.0
 20
0.0
 30
0.0
  3
*U21
  1

  0
TEXT
  5
178FB
  8
1DIM
 62
   201
 10
-1644.9859028658529
 20
-935.52685437453169
 30
0.0
 40
3.5
  1
18 
  0
ENDBLK
  5
178FD
  8
0
  0
BLOCK
  8
0
  2
*U22
 70
     1
 10
0.0
 20
0.0
 30
0.0
  3
*U22
  1

  0
TEXT
  5
178FF
  8
1DIM
 62
   201
 10
-1645.569236199183
 20
-945.52685437453169
 30
0.0
 40
3.5
  1
46 
  0
ENDBLK
  5
17901
  8
0
  0
BLOCK
  8
0
  2
*U23
 70
     1
 10
0.0
 20
0.0
 30
0.0
  3
*U23
  1

  0
TEXT
  5
17903
  8
1DIM
 62
   201
 10
-1528.5692361991819
 20
-935.52743177907848
 30
0.0
 40
3.5
  1
22 
  0
ENDBLK
  5
17905
  8
0
  0
BLOCK
  8
0
  2
*U24
 70
     1
 10
0.0
 20
0.0
 30
0.0
  3
*U24
  1

  0
TEXT
  5
17907
  8
1DIM
 62
   201
 10
-1475.352569532522
 20
-893.74409844567685
 30
0.0
 40
3.5
  1
22 
 50
90.0
  0
ENDBLK
  5
17909
  8
0
  0
BLOCK
  8
0
  2
*U25
 70
     1
 10
0.0
 20
0.0
 30
0.0
  3
*U25
  1

  0
TEXT
  5
1790B
  8
1DIM
 62
   201
 10
-1465.352569532522
 20
-908.22743177908364
 30
0.0
 40
3.5
  1
46.5 
 50
90.0
  0
ENDBLK
  5
1790D
  8
0
  0
BLOCK
  8
0
  2
*U26
 70
     1
 10
0.0
 20
0.0
 30
0.0
  3
*U26
  1

  0
TEXT
  5
1790F
  8
1DIM
 62
   201
 10
-1546.152629408572
 20
-805.10825139954216
 30
0.0
 40
3.5
  1
52.5 
  0
ENDBLK
  5
17911
  8
0
  0
BLOCK
  8
0
  2
*U27
 70
     1
 10
0.0
 20
0.0
 30
0.0
  3
*U27
  1

  0
TEXT
  5
17913
  8
1DIM
 62
   201
 10
-1550.069236199188
 20
-795.10825139954204
 30
0.0
 40
3.5
  1
65 
  0
ENDBLK
  5
17915
  8
0
  0
BLOCK
  8
0
  2
*U28
 70
     1
 10
0.0
 20
0.0
 30
0.0
  3
*U28
  1

  0
TEXT
  5
17917
  8
1DIM
 62
   201
 10
-1590.6933112696299
 20
-876.55893085144623
 30
0.0
 40
3.5
  1
110.5
 50
90.0
  0
ENDBLK
  5
17919
  8
0
  0
BLOCK
  8
0
  2
*U29
 70
     1
 10
0.0
 20
0.0
 30
0.0
  3
*U29
  1

  0
TEXT
  5
1791B
  8
1DIM
 62
   201
 10
-1600.352569532515
 20
-861.78393021549675
 30
0.0
 40
3.5
  1
86 
 50
90.0
  0
ENDBLK
  5
1791D
  8
0
  0
BLOCK
  8
0
  2
*U30
 70
     1
 10
0.0
 20
0.0
 30
0.0
  3
*U30
  1

  0
TEXT
  5
1791F
  8
1DIM
 62
   201
 10
-1645.5823836184591
 20
-795.10825139954204
 30
0.0
 40
3.5
  1
32 
  0
ENDBLK
  5
17921
  8
0
  0
ENDSEC
  0
SECTION
  2
ENTITIES
  0
LINE
  5
1542E
  8
01
 10
-1505.652569532522
 20
-855.47743177908785
 30
0.0
 11
-1505.652569532522
 21
-935.47743177908751
 31
0.0
  0
LINE
  5
1542F
  8
01
 10
-1496.652569532522
 20
-855.47743177908785
 30
0.0
 11
-1496.652569532522
 21
-935.47743177908751
 31
0.0
  0
LINE
  5
15430
  8
01
 10
-1514.652569532522
 20
-855.47743177908785
 30
0.0
 11
-1514.652569532522
 21
-935.47743177908751
 31
0.0
  0
TEXT
  5
16435
  8
1TEXT
 10
-1735.6525695325211
 20
-728.60814899798186
 30
0.0
 40
8.0
  1
SA347XC
  0
TEXT
  5
16441
  8
1TEXT
 10
-1559.900188580141
 20
-766.97743177908796
 30
0.0
 40
4.0
  1
表面処理：
 72
     1
 11
-1549.2525695325221
 21
-766.97743177908796
 31
0.0
  0
TEXT
  5
16442
  8
1TEXT
 10
-1558.5859028658549
 20
-773.81272043861225
 30
0.0
 40
4.0
  1
クローム
 72
     1
 11
-1549.2525695325221
 21
-773.81272043861225
 31
0.0
  0
LINE
  5
16443
  8
1DIM
 10
-1566.652569532522
 20
-761.47743177908785
 30
0.0
 11
-1496.652569532522
 21
-761.47743177908785
 31
0.0
  0
LINE
  5
16444
  8
1DIM
 10
-1566.652569532522
 20
-775.47743177908796
 30
0.0
 11
-1496.652569532522
 21
-775.47743177908796
 31
0.0
  0
LINE
  5
16445
  8
1DIM
 10
-1566.652569532522
 20
-768.47743177908785
 30
0.0
 11
-1496.652569532522
 21
-768.47743177908785
 31
0.0
  0
LINE
  5
16446
  8
1DIM
 10
-1531.652569532522
 20
-761.47743177908785
 30
0.0
 11
-1531.652569532522
 21
-775.47743177908796
 31
0.0
  0
TEXT
  5
16447
  8
1TEXT
 10
-1527.5859028658549
 20
-774.19178876273736
 30
0.0
 40
4.0
  1
SA347XC
 72
     1
 11
-1514.2525695325221
 21
-774.19178876273736
 31
0.0
  0
TEXT
  5
16448
  8
1TEXT
 10
-1521.0525695325221
 20
-766.97743177908796
 30
0.0
 40
4.0
  1
コード
 72
     1
 11
-1514.2525695325221
 21
-766.97743177908796
 31
0.0
  0
LINE
  5
16449
  8
1DIM
 10
-1566.652569532522
 20
-775.47743177908796
 30
0.0
 11
-1566.652569532522
 21
-761.47743177908785
 31
0.0
  0
LINE
  5
1644A
  8
1DIM
 10
-1496.652569532522
 20
-775.47743177908796
 30
0.0
 11
-1496.652569532522
 21
-761.47743177908785
 31
0.0
  0
LINE
  5
16ABA
  8
1PHANTOM
 10
-1638.178065202537
 20
-729.78195469923776
 30
0.0
 11
-1638.7417524704199
 21
-751.3083029850601
 31
0.0
  0
LINE
  5
16ABB
  8
1PHANTOM
 10
-1647.1270738625119
 20
-729.78195469923708
 30
0.0
 11
-1646.5633865946261
 21
-751.30830298505839
 31
0.0
  0
ARC
  5
16ABF
  8
1PHANTOM
 10
-1637.178407877562
 20
-729.80813164754568
 30
0.0
 40
1.0
 50
90.000000000000028
 51
178.4999999999971
  0
ARC
  5
16AC0
  8
1PHANTOM
 10
-1648.126731187486
 20
-729.808131647545
 30
0.0
 40
1.0
 50
1.500000000009335
 51
90.000000000000028
  0
LINE
  5
16AC1
  8
1PHANTOM
 10
-1655.4525695325269
 20
-728.80813164754431
 30
0.0
 11
-1648.126731187486
 21
-728.80813164754477
 31
0.0
  0
LINE
  5
16AC2
  8
1PHANTOM
 10
-1629.352569532525
 20
-724.80813164743881
 30
0.0
 11
-1655.9525695325269
 21
-724.80813164743881
 31
0.0
  0
LINE
  5
16AC4
  8
1PHANTOM
 10
-1655.9525695325269
 20
-728.30813164754431
 30
0.0
 11
-1655.4525695325269
 21
-728.80813164754431
 31
0.0
  0
LINE
  5
16AC5
  8
1PHANTOM
 10
-1655.9525695325269
 20
-724.80813164743881
 30
0.0
 11
-1655.9525695325269
 21
-728.30813164754431
 31
0.0
  0
LINE
  5
16AC6
  8
1PHANTOM
 10
-1629.8525695325241
 20
-728.80813164754613
 30
0.0
 11
-1629.352569532525
 21
-728.30813164754613
 31
0.0
  0
LINE
  5
16AC7
  8
1PHANTOM
 10
-1629.352569532525
 20
-728.30813164754795
 30
0.0
 11
-1629.352569532525
 21
-724.80813164743881
 31
0.0
  0
LINE
  5
16AD0
  8
1PHANTOM
 10
-1646.050298120472
 20
-751.80813164754522
 30
0.0
 11
-1639.254840944574
 21
-751.80813164754704
 31
0.0
  0
LINE
  5
16AD2
  8
1PHANTOM
 10
-1639.254840944574
 20
-751.80813164754704
 30
0.0
 11
-1638.7417524704199
 21
-751.30830298505839
 31
0.0
  0
LINE
  5
16AD3
  8
1PHANTOM
 10
-1646.5633865946261
 20
-751.30830298505839
 30
0.0
 11
-1646.050298120472
 21
-751.80813164754704
 31
0.0
  0
LINE
  5
16AEC
  8
1PHANTOM
 10
-1637.178407877562
 20
-728.80813164754579
 30
0.0
 11
-1629.8525695325241
 21
-728.80813164754613
 31
0.0
  0
LINE
  5
16B48
  8
1PHANTOM
 10
-1637.452706551195
 20
-728.80813164754431
 30
0.0
 11
-1629.8527065511701
 21
-728.80813164754431
 31
0.0
  0
LINE
  5
16B49
  8
1PHANTOM
 10
-1635.6526613402159
 20
-725.90812787181915
 30
0.0
 11
-1631.652661340217
 21
-725.10813717900123
 31
0.0
  0
LINE
  5
16B4A
  8
1PHANTOM
 10
-1631.652661340217
 20
-726.70813717900523
 30
0.0
 11
-1632.152661340217
 21
-726.60813601560835
 31
0.0
  0
LINE
  5
16B4B
  8
1PHANTOM
 10
-1635.1526613402159
 20
-726.00812903521796
 30
0.0
 11
-1635.6526613402159
 21
-725.90812787181915
 31
0.0
  0
LINE
  5
16B4C
  8
1PHANTOM
 10
-1634.7470316901099
 20
-701.90812997902572
 30
0.0
 11
-1632.7846966012339
 21
-701.10813454497361
 31
0.0
  0
LINE
  5
16B4D
  8
1PHANTOM
 10
-1635.1998451981581
 20
-703.50812892542001
 30
0.0
 11
-1632.3318824968269
 21
-702.70813559857993
 31
0.0
  0
LINE
  5
16B4E
  8
1PHANTOM
 10
-1635.6526613402159
 20
-705.10812787181078
 30
0.0
 11
-1631.879068392421
 21
-704.30813665218625
 31
0.0
  0
LINE
  5
16B4F
  8
1PHANTOM
 10
-1635.6526613402159
 20
-724.3081278718189
 30
0.0
 11
-1631.652661340217
 21
-723.50813717900076
 31
0.0
  0
LINE
  5
16B50
  8
1PHANTOM
 10
-1635.6526613402159
 20
-722.7081278718149
 30
0.0
 11
-1631.652661340217
 21
-721.90813717899675
 31
0.0
  0
LINE
  5
16B51
  8
1PHANTOM
 10
-1635.6526613402159
 20
-721.10812787181453
 30
0.0
 11
-1631.652661340217
 21
-720.3081371789965
 31
0.0
  0
LINE
  5
16B52
  8
1PHANTOM
 10
-1635.6526613402159
 20
-708.3081278718098
 30
0.0
 11
-1631.652661340217
 21
-707.50813717898814
 31
0.0
  0
LINE
  5
16B53
  8
1PHANTOM
 10
-1635.6526613402159
 20
-717.90812787181005
 30
0.0
 11
-1631.652661340217
 21
-717.10813717899214
 31
0.0
  0
LINE
  5
16B54
  8
1PHANTOM
 10
-1635.6526613402159
 20
-714.70812787181114
 30
0.0
 11
-1631.652661340217
 21
-713.90813717898777
 31
0.0
  0
LINE
  5
16B55
  8
1PHANTOM
 10
-1635.6526613402159
 20
-716.3081278718098
 30
0.0
 11
-1631.652661340217
 21
-715.50813717899166
 31
0.0
  0
LINE
  5
16B56
  8
1PHANTOM
 10
-1635.6526613402159
 20
-709.90812787181005
 30
0.0
 11
-1631.652661340217
 21
-709.1081371789885
 31
0.0
  0
LINE
  5
16B57
  8
1PHANTOM
 10
-1635.6526613402159
 20
-711.50812787181053
 30
0.0
 11
-1631.652661340217
 21
-710.70813717898875
 31
0.0
  0
LINE
  5
16B58
  8
1PHANTOM
 10
-1635.6526613402159
 20
-713.10812787181089
 30
0.0
 11
-1631.652661340217
 21
-712.30813717898741
 31
0.0
  0
LINE
  5
16B59
  8
1PHANTOM
 10
-1635.6526613402159
 20
-719.50812787181053
 30
0.0
 11
-1631.652661340217
 21
-718.7081371789925
 31
0.0
  0
LINE
  5
16B5A
  8
1PHANTOM
 10
-1635.6526613402159
 20
-706.70812787181114
 30
0.0
 11
-1631.652661340217
 21
-705.90813717898766
 31
0.0
  0
LINE
  5
16B5B
  8
1PHANTOM
 10
-1633.652661340217
 20
-699.80813252534665
 30
0.0
 11
-1635.1526613402159
 21
-705.1081290352073
 31
0.0
  0
LINE
  5
16B5C
  8
1PHANTOM
 10
-1632.7846966012339
 20
-701.10813454497361
 30
0.0
 11
-1633.3729731762769
 21
-700.79636468872263
 31
0.0
  0
LINE
  5
16B5D
  8
1PHANTOM
 10
-1632.3318824968269
 20
-702.70813559857993
 30
0.0
 11
-1632.883631960631
 21
-702.52537145595193
 31
0.0
  0
LINE
  5
16B5E
  8
1PHANTOM
 10
-1631.879068392421
 20
-704.30813665218625
 30
0.0
 11
-1632.415662127692
 21
-704.17886595455525
 31
0.0
  0
LINE
  5
16B5F
  8
1PHANTOM
 10
-1631.652661340217
 20
-723.50813717900076
 30
0.0
 11
-1632.152661340217
 21
-723.40813601560387
 31
0.0
  0
LINE
  5
16B60
  8
1PHANTOM
 10
-1631.652661340217
 20
-725.10813717900123
 30
0.0
 11
-1632.152661340217
 21
-725.00813601560435
 31
0.0
  0
LINE
  5
16B61
  8
1PHANTOM
 10
-1631.652661340217
 20
-721.90813717899675
 30
0.0
 11
-1632.152661340217
 21
-721.80813601559987
 31
0.0
  0
LINE
  5
16B62
  8
1PHANTOM
 10
-1631.652661340217
 20
-720.3081371789965
 30
0.0
 11
-1632.152661340217
 21
-720.20813601559962
 31
0.0
  0
LINE
  5
16B63
  8
1PHANTOM
 10
-1631.652661340217
 20
-710.70813717898875
 30
0.0
 11
-1632.152661340217
 21
-710.60813601559016
 31
0.0
  0
LINE
  5
16B64
  8
1PHANTOM
 10
-1631.652661340217
 20
-712.30813717898741
 30
0.0
 11
-1632.152661340217
 21
-712.20813601559053
 31
0.0
  0
LINE
  5
16B65
  8
1PHANTOM
 10
-1631.652661340217
 20
-709.1081371789885
 30
0.0
 11
-1632.152661340217
 21
-709.00813601559162
 31
0.0
  0
LINE
  5
16B66
  8
1PHANTOM
 10
-1631.652661340217
 20
-707.50813717898814
 30
0.0
 11
-1632.152661340217
 21
-707.40813601559125
 31
0.0
  0
LINE
  5
16B67
  8
1PHANTOM
 10
-1631.652661340217
 20
-717.10813717899214
 30
0.0
 11
-1632.152661340217
 21
-717.00813601559526
 31
0.0
  0
LINE
  5
16B68
  8
1PHANTOM
 10
-1631.652661340217
 20
-713.90813717898777
 30
0.0
 11
-1632.152661340217
 21
-713.80813601559089
 31
0.0
  0
LINE
  5
16B69
  8
1PHANTOM
 10
-1631.652661340217
 20
-715.50813717899166
 30
0.0
 11
-1632.152661340217
 21
-715.40813601559489
 31
0.0
  0
LINE
  5
16B6A
  8
1PHANTOM
 10
-1631.652661340217
 20
-718.7081371789925
 30
0.0
 11
-1632.152661340217
 21
-718.60813601559562
 31
0.0
  0
LINE
  5
16B6B
  8
1PHANTOM
 10
-1631.652661340217
 20
-705.90813717898766
 30
0.0
 11
-1632.152661340217
 21
-705.80813601559089
 31
0.0
  0
LINE
  5
16B6C
  8
1PHANTOM
 10
-1633.652661340217
 20
-699.80813252534665
 30
0.0
 11
-1632.152661340217
 21
-705.10813601559198
 31
0.0
  0
LINE
  5
16B6D
  8
1PHANTOM
 10
-1634.289859849478
 20
-702.05956577546635
 30
0.0
 11
-1634.7470316901099
 21
-701.90812997902572
 31
0.0
  0
LINE
  5
16B6E
  8
1PHANTOM
 10
-1634.731746743008
 20
-703.62089843777062
 30
0.0
 11
-1635.1998451981581
 21
-703.50812892542001
 31
0.0
  0
LINE
  5
16B6F
  8
1PHANTOM
 10
-1635.1526613402159
 20
-705.20812903520766
 30
0.0
 11
-1635.6526613402159
 21
-705.10812787181078
 31
0.0
  0
LINE
  5
16B70
  8
1PHANTOM
 10
-1635.1526613402159
 20
-724.4081290352176
 30
0.0
 11
-1635.6526613402159
 21
-724.3081278718189
 31
0.0
  0
LINE
  5
16B71
  8
1PHANTOM
 10
-1635.1526613402159
 20
-722.8081290352136
 30
0.0
 11
-1635.6526613402159
 21
-722.7081278718149
 31
0.0
  0
LINE
  5
16B72
  8
1PHANTOM
 10
-1635.1526613402159
 20
-721.20812903521323
 30
0.0
 11
-1635.6526613402159
 21
-721.10812787181453
 31
0.0
  0
LINE
  5
16B73
  8
1PHANTOM
 10
-1635.1526613402159
 20
-708.40812903520839
 30
0.0
 11
-1635.6526613402159
 21
-708.3081278718098
 31
0.0
  0
LINE
  5
16B74
  8
1PHANTOM
 10
-1635.1526613402159
 20
-716.40812903520839
 30
0.0
 11
-1635.6526613402159
 21
-716.3081278718098
 31
0.0
  0
LINE
  5
16B75
  8
1PHANTOM
 10
-1635.1526613402159
 20
-718.00812903520875
 30
0.0
 11
-1635.6526613402159
 21
-717.90812787181005
 31
0.0
  0
LINE
  5
16B76
  8
1PHANTOM
 10
-1635.1526613402159
 20
-714.80812903520814
 30
0.0
 11
-1635.6526613402159
 21
-714.70812787181114
 31
0.0
  0
LINE
  5
16B77
  8
1PHANTOM
 10
-1635.1526613402159
 20
-713.20812903520766
 30
0.0
 11
-1635.6526613402159
 21
-713.10812787181089
 31
0.0
  0
LINE
  5
16B78
  8
1PHANTOM
 10
-1635.1526613402159
 20
-710.00812903520705
 30
0.0
 11
-1635.6526613402159
 21
-709.90812787181005
 31
0.0
  0
LINE
  5
16B79
  8
1PHANTOM
 10
-1635.1526613402159
 20
-711.60812903520741
 30
0.0
 11
-1635.6526613402159
 21
-711.50812787181053
 31
0.0
  0
LINE
  5
16B7A
  8
1PHANTOM
 10
-1635.1526613402159
 20
-719.60812903520923
 30
0.0
 11
-1635.6526613402159
 21
-719.50812787181053
 31
0.0
  0
LINE
  5
16B7B
  8
1PHANTOM
 10
-1635.1526613402159
 20
-706.80812903520814
 30
0.0
 11
-1635.6526613402159
 21
-706.70812787181114
 31
0.0
  0
LINE
  5
16B7C
  8
1PHANTOM
 10
-1634.1526988909261
 20
-728.80813887207182
 30
0.0
 11
-1631.652661340217
 21
-728.30813717900548
 31
0.0
  0
LINE
  5
16B7D
  8
1PHANTOM
 10
-1632.152661340217
 20
-729.80813601548539
 30
0.0
 11
-1635.1526613402159
 21
-729.80812903510071
 31
0.0
  0
LINE
  5
16B7E
  8
1PHANTOM
 10
-1633.1527090279819
 20
-729.80813368857412
 30
0.0
 11
-1634.15270640118
 21
-728.80813136178097
 31
0.0
  0
LINE
  5
16B7F
  8
1PHANTOM
 10
-1635.6527113663069
 20
-732.40812787159371
 30
0.0
 11
-1631.6527113663069
 21
-732.40813717877313
 31
0.0
  0
LINE
  5
16B80
  8
1PHANTOM
 10
-1631.652661340217
 20
-728.30813717900548
 30
0.0
 11
-1632.152661340217
 21
-728.2081360156086
 31
0.0
  0
LINE
  5
16B81
  8
1PHANTOM
 10
-1635.1526613402159
 20
-727.60812903522196
 30
0.0
 11
-1635.6526613402159
 21
-727.50812787182315
 31
0.0
  0
LINE
  5
16B82
  8
1PHANTOM
 10
-1637.4527088779701
 20
-729.80812368335387
 30
0.0
 11
-1637.452706551177
 21
-728.80812368336115
 31
0.0
  0
LINE
  5
16B83
  8
1PHANTOM
 10
-1637.1527078761139
 20
-729.80812438140185
 30
0.0
 11
-1635.1526613402159
 21
-729.80812903510071
 31
0.0
  0
LINE
  5
16B84
  8
1PHANTOM
 10
-1637.1527078761139
 20
-729.80812438140185
 30
0.0
 11
-1637.1527078761139
 21
-730.90812787159734
 31
0.0
  0
ARC
  5
16B85
  8
1PHANTOM
 10
-1635.6527078761139
 20
-730.90812787159734
 30
0.0
 40
1.5
 50
180.0
 51
269.99986668447491
  0
LINE
  5
16B86
  8
1PHANTOM
 10
-1632.152661340217
 20
-705.10813601559198
 30
0.0
 11
-1632.152661340217
 21
-728.80813601548346
 31
0.0
  0
LINE
  5
16B87
  8
1PHANTOM
 10
-1635.1526613402159
 20
-705.1081290352073
 30
0.0
 11
-1635.1526613402159
 21
-728.80812903509707
 31
0.0
  0
LINE
  5
16B88
  8
1CENTER
 10
-1633.652708896456
 20
-698.66338674878955
 30
0.0
 11
-1633.652708896456
 21
-734.18806899706533
 31
0.0
  0
LINE
  5
16B89
  8
1PHANTOM
 10
-1635.6526613402159
 20
-727.50812787182315
 30
0.0
 11
-1631.652661340217
 21
-726.70813717900523
 31
0.0
  0
LINE
  5
16B8A
  8
1PHANTOM
 10
-1629.8527088779849
 20
-729.8081413670086
 30
0.0
 11
-1629.8527065511701
 21
-728.80813164754431
 31
0.0
  0
LINE
  5
16B8B
  8
1PHANTOM
 10
-1630.1527078761151
 20
-729.80814066896778
 30
0.0
 11
-1630.1527078761151
 21
-730.90813717877666
 31
0.0
  0
LINE
  5
16B8C
  8
1PHANTOM
 10
-1629.8527088779849
 20
-729.8081413670086
 30
0.0
 11
-1637.4527088779701
 21
-729.80812368335387
 31
0.0
  0
LINE
  5
16B8D
  8
1PHANTOM
 10
-1632.152661340217
 20
-729.80813601548539
 30
0.0
 11
-1630.1527078761151
 21
-729.80814066896778
 31
0.0
  0
ARC
  5
16B8E
  8
1PHANTOM
 10
-1631.6527078761151
 20
-730.90813717877666
 30
0.0
 40
1.5
 50
269.99986668447491
 51
0.0
  0
LINE
  5
16B8F
  8
1PHANTOM
 10
-1655.452427823323
 20
-728.80813164754534
 30
0.0
 11
-1647.8524278232981
 21
-728.80813164754534
 31
0.0
  0
LINE
  5
16B90
  8
1PHANTOM
 10
-1653.652382612345
 20
-725.90812787182028
 30
0.0
 11
-1649.652382612345
 21
-725.10813717900226
 31
0.0
  0
LINE
  5
16B91
  8
1PHANTOM
 10
-1649.652382612345
 20
-726.70813717900614
 30
0.0
 11
-1650.152382612345
 21
-726.60813601560938
 31
0.0
  0
LINE
  5
16B92
  8
1PHANTOM
 10
-1653.152382612345
 20
-726.00812903521887
 30
0.0
 11
-1653.652382612345
 21
-725.90812787182028
 31
0.0
  0
LINE
  5
16B93
  8
1PHANTOM
 10
-1652.7467529622379
 20
-701.90812997902674
 30
0.0
 11
-1650.7844178733631
 21
-701.10813454497463
 31
0.0
  0
LINE
  5
16B94
  8
1PHANTOM
 10
-1653.1995664702861
 20
-703.50812892542115
 30
0.0
 11
-1650.3316037689549
 21
-702.70813559858095
 31
0.0
  0
LINE
  5
16B95
  8
1PHANTOM
 10
-1653.652382612345
 20
-705.10812787181192
 30
0.0
 11
-1649.878789664549
 21
-704.30813665218727
 31
0.0
  0
LINE
  5
16B96
  8
1PHANTOM
 10
-1653.652382612345
 20
-724.30812787181992
 30
0.0
 11
-1649.652382612345
 21
-723.50813717900189
 31
0.0
  0
LINE
  5
16B97
  8
1PHANTOM
 10
-1653.652382612345
 20
-722.70812787181592
 30
0.0
 11
-1649.652382612345
 21
-721.90813717899789
 31
0.0
  0
LINE
  5
16B98
  8
1PHANTOM
 10
-1653.652382612345
 20
-721.10812787181555
 30
0.0
 11
-1649.652382612345
 21
-720.30813717899753
 31
0.0
  0
LINE
  5
16B99
  8
1PHANTOM
 10
-1653.652382612345
 20
-708.30812787181083
 30
0.0
 11
-1649.652382612345
 21
-707.50813717898916
 31
0.0
  0
LINE
  5
16B9A
  8
1PHANTOM
 10
-1653.652382612345
 20
-717.90812787181108
 30
0.0
 11
-1649.652382612345
 21
-717.10813717899305
 31
0.0
  0
LINE
  5
16B9B
  8
1PHANTOM
 10
-1653.652382612345
 20
-714.70812787181228
 30
0.0
 11
-1649.652382612345
 21
-713.90813717898868
 31
0.0
  0
LINE
  5
16B9C
  8
1PHANTOM
 10
-1653.652382612345
 20
-716.30812787181083
 30
0.0
 11
-1649.652382612345
 21
-715.50813717899268
 31
0.0
  0
LINE
  5
16B9D
  8
1PHANTOM
 10
-1653.652382612345
 20
-709.90812787181108
 30
0.0
 11
-1649.652382612345
 21
-709.10813717898952
 31
0.0
  0
LINE
  5
16B9E
  8
1PHANTOM
 10
-1653.652382612345
 20
-711.50812787181155
 30
0.0
 11
-1649.652382612345
 21
-710.70813717898989
 31
0.0
  0
LINE
  5
16B9F
  8
1PHANTOM
 10
-1653.652382612345
 20
-713.10812787181192
 30
0.0
 11
-1649.652382612345
 21
-712.30813717898843
 31
0.0
  0
LINE
  5
16BA0
  8
1PHANTOM
 10
-1653.652382612345
 20
-719.50812787181155
 30
0.0
 11
-1649.652382612345
 21
-718.70813717899352
 31
0.0
  0
LINE
  5
16BA1
  8
1PHANTOM
 10
-1653.652382612345
 20
-706.70812787181228
 30
0.0
 11
-1649.652382612345
 21
-705.90813717898868
 31
0.0
  0
LINE
  5
16BA2
  8
1PHANTOM
 10
-1651.652382612345
 20
-699.80813252534779
 30
0.0
 11
-1653.152382612345
 21
-705.10812903520844
 31
0.0
  0
LINE
  5
16BA3
  8
1PHANTOM
 10
-1650.7844178733631
 20
-701.10813454497463
 30
0.0
 11
-1651.3726944484049
 21
-700.79636468872366
 31
0.0
  0
LINE
  5
16BA4
  8
1PHANTOM
 10
-1650.3316037689549
 20
-702.70813559858095
 30
0.0
 11
-1650.883353232759
 21
-702.52537145595295
 31
0.0
  0
LINE
  5
16BA5
  8
1PHANTOM
 10
-1649.878789664549
 20
-704.30813665218727
 30
0.0
 11
-1650.41538339982
 21
-704.17886595455616
 31
0.0
  0
LINE
  5
16BA6
  8
1PHANTOM
 10
-1649.652382612345
 20
-723.50813717900189
 30
0.0
 11
-1650.152382612345
 21
-723.40813601560501
 31
0.0
  0
LINE
  5
16BA7
  8
1PHANTOM
 10
-1649.652382612345
 20
-725.10813717900226
 30
0.0
 11
-1650.152382612345
 21
-725.00813601560537
 31
0.0
  0
LINE
  5
16BA8
  8
1PHANTOM
 10
-1649.652382612345
 20
-721.90813717899789
 30
0.0
 11
-1650.152382612345
 21
-721.80813601560101
 31
0.0
  0
LINE
  5
16BA9
  8
1PHANTOM
 10
-1649.652382612345
 20
-720.30813717899753
 30
0.0
 11
-1650.152382612345
 21
-720.20813601560064
 31
0.0
  0
LINE
  5
16BAA
  8
1PHANTOM
 10
-1649.652382612345
 20
-710.70813717898989
 30
0.0
 11
-1650.152382612345
 21
-710.60813601559107
 31
0.0
  0
LINE
  5
16BAB
  8
1PHANTOM
 10
-1649.652382612345
 20
-712.30813717898843
 30
0.0
 11
-1650.152382612345
 21
-712.20813601559155
 31
0.0
  0
LINE
  5
16BAC
  8
1PHANTOM
 10
-1649.652382612345
 20
-709.10813717898952
 30
0.0
 11
-1650.152382612345
 21
-709.00813601559264
 31
0.0
  0
LINE
  5
16BAD
  8
1PHANTOM
 10
-1649.652382612345
 20
-707.50813717898916
 30
0.0
 11
-1650.152382612345
 21
-707.40813601559216
 31
0.0
  0
LINE
  5
16BAE
  8
1PHANTOM
 10
-1649.652382612345
 20
-717.10813717899305
 30
0.0
 11
-1650.152382612345
 21
-717.00813601559616
 31
0.0
  0
LINE
  5
16BAF
  8
1PHANTOM
 10
-1649.652382612345
 20
-713.90813717898868
 30
0.0
 11
-1650.152382612345
 21
-713.8081360155918
 31
0.0
  0
LINE
  5
16BB0
  8
1PHANTOM
 10
-1649.652382612345
 20
-715.50813717899268
 30
0.0
 11
-1650.152382612345
 21
-715.4081360155958
 31
0.0
  0
LINE
  5
16BB1
  8
1PHANTOM
 10
-1649.652382612345
 20
-718.70813717899352
 30
0.0
 11
-1650.152382612345
 21
-718.60813601559664
 31
0.0
  0
LINE
  5
16BB2
  8
1PHANTOM
 10
-1649.652382612345
 20
-705.90813717898868
 30
0.0
 11
-1650.152382612345
 21
-705.8081360155918
 31
0.0
  0
LINE
  5
16BB3
  8
1PHANTOM
 10
-1651.652382612345
 20
-699.80813252534779
 30
0.0
 11
-1650.152382612345
 21
-705.10813601559289
 31
0.0
  0
LINE
  5
16BB4
  8
1PHANTOM
 10
-1652.289581121606
 20
-702.05956577546726
 30
0.0
 11
-1652.7467529622379
 21
-701.90812997902674
 31
0.0
  0
LINE
  5
16BB5
  8
1PHANTOM
 10
-1652.731468015136
 20
-703.62089843777164
 30
0.0
 11
-1653.1995664702861
 21
-703.50812892542115
 31
0.0
  0
LINE
  5
16BB6
  8
1PHANTOM
 10
-1653.152382612345
 20
-705.2081290352088
 30
0.0
 11
-1653.652382612345
 21
-705.10812787181192
 31
0.0
  0
LINE
  5
16BB7
  8
1PHANTOM
 10
-1653.152382612345
 20
-724.40812903521862
 30
0.0
 11
-1653.652382612345
 21
-724.30812787181992
 31
0.0
  0
LINE
  5
16BB8
  8
1PHANTOM
 10
-1653.152382612345
 20
-722.80812903521462
 30
0.0
 11
-1653.652382612345
 21
-722.70812787181592
 31
0.0
  0
LINE
  5
16BB9
  8
1PHANTOM
 10
-1653.152382612345
 20
-721.20812903521426
 30
0.0
 11
-1653.652382612345
 21
-721.10812787181555
 31
0.0
  0
LINE
  5
16BBA
  8
1PHANTOM
 10
-1653.152382612345
 20
-708.40812903520953
 30
0.0
 11
-1653.652382612345
 21
-708.30812787181083
 31
0.0
  0
LINE
  5
16BBB
  8
1PHANTOM
 10
-1653.152382612345
 20
-716.40812903520953
 30
0.0
 11
-1653.652382612345
 21
-716.30812787181083
 31
0.0
  0
LINE
  5
16BBC
  8
1PHANTOM
 10
-1653.152382612345
 20
-718.00812903520989
 30
0.0
 11
-1653.652382612345
 21
-717.90812787181108
 31
0.0
  0
LINE
  5
16BBD
  8
1PHANTOM
 10
-1653.152382612345
 20
-714.80812903520916
 30
0.0
 11
-1653.652382612345
 21
-714.70812787181228
 31
0.0
  0
LINE
  5
16BBE
  8
1PHANTOM
 10
-1653.152382612345
 20
-713.2081290352088
 30
0.0
 11
-1653.652382612345
 21
-713.10812787181192
 31
0.0
  0
LINE
  5
16BBF
  8
1PHANTOM
 10
-1653.152382612345
 20
-710.00812903520796
 30
0.0
 11
-1653.652382612345
 21
-709.90812787181108
 31
0.0
  0
LINE
  5
16BC0
  8
1PHANTOM
 10
-1653.152382612345
 20
-711.60812903520844
 30
0.0
 11
-1653.652382612345
 21
-711.50812787181155
 31
0.0
  0
LINE
  5
16BC1
  8
1PHANTOM
 10
-1653.152382612345
 20
-719.60812903521025
 30
0.0
 11
-1653.652382612345
 21
-719.50812787181155
 31
0.0
  0
LINE
  5
16BC2
  8
1PHANTOM
 10
-1653.152382612345
 20
-706.80812903520905
 30
0.0
 11
-1653.652382612345
 21
-706.70812787181228
 31
0.0
  0
LINE
  5
16BC3
  8
1PHANTOM
 10
-1652.1524201630541
 20
-728.80813887207285
 30
0.0
 11
-1649.652382612345
 21
-728.30813717900662
 31
0.0
  0
LINE
  5
16BC4
  8
1PHANTOM
 10
-1650.152382612345
 20
-729.8081360154863
 30
0.0
 11
-1653.152382612345
 21
-729.80812903510184
 31
0.0
  0
LINE
  5
16BC5
  8
1PHANTOM
 10
-1651.1524303001111
 20
-729.80813368857514
 30
0.0
 11
-1652.152427673308
 21
-728.8081313617821
 31
0.0
  0
LINE
  5
16BC6
  8
1PHANTOM
 10
-1653.6524326384349
 20
-732.40812787159473
 30
0.0
 11
-1649.6524326384349
 21
-732.40813717877415
 31
0.0
  0
LINE
  5
16BC7
  8
1PHANTOM
 10
-1649.652382612345
 20
-728.30813717900662
 30
0.0
 11
-1650.152382612345
 21
-728.20813601560974
 31
0.0
  0
LINE
  5
16BC8
  8
1PHANTOM
 10
-1653.152382612345
 20
-727.60812903522287
 30
0.0
 11
-1653.652382612345
 21
-727.50812787182429
 31
0.0
  0
LINE
  5
16BC9
  8
1PHANTOM
 10
-1655.4524301500981
 20
-729.80812368335489
 30
0.0
 11
-1655.452427823305
 21
-728.80812368336217
 31
0.0
  0
LINE
  5
16BCA
  8
1PHANTOM
 10
-1655.1524291482431
 20
-729.80812438140299
 30
0.0
 11
-1653.152382612345
 21
-729.80812903510184
 31
0.0
  0
LINE
  5
16BCB
  8
1PHANTOM
 10
-1655.1524291482431
 20
-729.80812438140299
 30
0.0
 11
-1655.1524291482431
 21
-730.90812787159825
 31
0.0
  0
ARC
  5
16BCC
  8
1PHANTOM
 10
-1653.6524291482431
 20
-730.90812787159825
 30
0.0
 40
1.5
 50
180.0
 51
269.99986668447491
  0
LINE
  5
16BCD
  8
1PHANTOM
 10
-1650.152382612345
 20
-705.10813601559289
 30
0.0
 11
-1650.152382612345
 21
-728.80813601548459
 31
0.0
  0
LINE
  5
16BCE
  8
1PHANTOM
 10
-1653.152382612345
 20
-705.10812903520844
 30
0.0
 11
-1653.152382612345
 21
-728.8081290350982
 31
0.0
  0
LINE
  5
16BCF
  8
1CENTER
 10
-1651.652430168584
 20
-698.66338674879057
 30
0.0
 11
-1651.652430168584
 21
-734.18806899706635
 31
0.0
  0
LINE
  5
16BD0
  8
1PHANTOM
 10
-1653.652382612345
 20
-727.50812787182429
 30
0.0
 11
-1649.652382612345
 21
-726.70813717900614
 31
0.0
  0
LINE
  5
16BD1
  8
1PHANTOM
 10
-1647.8524301501141
 20
-729.80814136700963
 30
0.0
 11
-1647.8524278232981
 21
-728.80813164754534
 31
0.0
  0
LINE
  5
16BD2
  8
1PHANTOM
 10
-1648.1524291482431
 20
-729.80814066896869
 30
0.0
 11
-1648.1524291482431
 21
-730.90813717877779
 31
0.0
  0
LINE
  5
16BD3
  8
1PHANTOM
 10
-1647.8524301501141
 20
-729.80814136700963
 30
0.0
 11
-1655.4524301500981
 21
-729.80812368335489
 31
0.0
  0
LINE
  5
16BD4
  8
1PHANTOM
 10
-1650.152382612345
 20
-729.8081360154863
 30
0.0
 11
-1648.1524291482431
 21
-729.80814066896869
 31
0.0
  0
ARC
  5
16BD5
  8
1PHANTOM
 10
-1649.6524291482431
 20
-730.90813717877779
 30
0.0
 40
1.5
 50
269.99986668447491
 51
0.0
  0
LINE
  5
170B7
  8
01
 10
-1626.6657169517921
 20
-784.80825139954209
 30
0.0
 11
-1626.6657169517921
 21
-724.80813164743824
 31
0.0
  0
LINE
  5
170B8
  8
01
 10
-1658.639422113265
 20
-784.80825139954163
 30
0.0
 11
-1658.639422113265
 21
-724.80813164743915
 31
0.0
  0
ARC
  5
170BA
  8
01
 10
-1567.1526892846241
 20
-895.30825139947115
 30
0.0
 40
12.5
 50
179.74920172575719
 51
244.4425946554386
  0
LINE
  5
170BB
  8
01
 10
-1578.152569532512
 20
-889.30825139948104
 30
0.0
 11
-1518.6525695325211
 21
-889.30825139985984
 31
0.0
  0
LINE
  5
170BC
  8
01
 10
-1650.6525695325249
 20
-879.72685437454186
 30
0.0
 11
-1664.652569532519
 21
-879.72685437454186
 31
0.0
  0
LINE
  5
170BE
  8
01
 10
-1657.6394221132639
 20
-785.80825139954163
 30
0.0
 11
-1627.6657169517921
 21
-785.80825139954197
 31
0.0
  0
LINE
  5
170BF
  8
01
 10
-1620.652569532522
 20
-926.22685437453163
 30
0.0
 11
-1664.6525695325111
 21
-926.22685437453242
 31
0.0
  0
LINE
  5
170C0
  8
01
 10
-1627.6525695325161
 20
-919.11717212422639
 30
0.0
 11
-1657.652569532517
 21
-919.11717212422639
 31
0.0
  0
LINE
  5
170C1
  8
01
 10
-1627.6525695325161
 20
-889.61717212423548
 30
0.0
 11
-1657.652569532517
 21
-889.61717212423548
 31
0.0
  0
ARC
  5
170C4
  8
01
 10
-1657.6525695325181
 20
-918.11717212422786
 30
0.0
 40
1.0
 50
179.99999999992181
 51
270.00000000002598
  0
ARC
  5
170C5
  8
01
 10
-1657.652569532519
 20
-890.61717212423423
 30
0.0
 40
1.0
 50
89.99999999992184
 51
180.0000000000781
  0
LINE
  5
170C6
  8
01
 10
-1658.652569532517
 20
-890.61717212423571
 30
0.0
 11
-1658.652569532517
 21
-918.11717212422639
 31
0.0
  0
POINT
  5
170C7
  8
01
  6
BYBLOCK
 10
-1654.1524301685911
 20
-901.92685310263255
 30
0.0
  0
ARC
  5
170C8
  8
01
 10
-1664.652569532519
 20
-880.72685437454197
 30
0.0
 40
1.0
 50
90.0
 51
180.00000000000651
  0
ARC
  5
170C9
  8
01
 10
-1664.6525695325111
 20
-925.22685437453254
 30
0.0
 40
1.0
 50
180.00000000001299
 51
270.0
  0
LINE
  5
170CA
  8
01
 10
-1665.652569532519
 20
-880.72685437454197
 30
0.0
 11
-1665.6525695325111
 21
-925.22685437453276
 31
0.0
  0
ARC
  5
170CB
  8
01
 10
-1657.6394221132639
 20
-784.80825139954163
 30
0.0
 40
1.0
 50
180.0
 51
270.0
  0
LINE
  5
170CC
  8
01
 10
-1634.652569532524
 20
-817.30767399502713
 30
0.0
 11
-1634.652569532527
 21
-889.61717212423605
 31
0.0
  0
LINE
  5
170CD
  8
01
 10
-1650.652569532527
 20
-817.30767399494448
 30
0.0
 11
-1650.652569532524
 21
-889.61717212423548
 31
0.0
  0
ARC
  5
170CF
  8
01
 10
-1627.6525695325149
 20
-918.11717212422786
 30
0.0
 40
1.0
 50
269.99999999997391
 51
0.0000000000781653
  0
ARC
  5
170D0
  8
01
 10
-1627.6525695325149
 20
-890.61717212423457
 30
0.0
 40
1.0
 50
359.99999999994787
 51
90.000000000026048
  0
LINE
  5
170D1
  8
01
 10
-1626.6525695325161
 20
-890.61717212423571
 30
0.0
 11
-1626.6525695325161
 21
-918.11717212422639
 31
0.0
  0
ARC
  5
170D2
  8
01
 10
-1620.652569532514
 20
-880.72685437454152
 30
0.0
 40
1.0
 50
359.99999999998698
 51
90.0
  0
ARC
  5
170D3
  8
01
 10
-1620.652569532522
 20
-925.2268543745314
 30
0.0
 40
1.0
 50
270.0
 51
359.99999999998698
  0
LINE
  5
170D4
  8
01
 10
-1619.6525695325131
 20
-880.72685437454152
 30
0.0
 11
-1619.652569532522
 21
-925.22685437453185
 31
0.0
  0
POINT
  5
170D5
  8
01
  6
BYBLOCK
 10
-1649.152430168577
 20
-901.92685310263255
 30
0.0
  0
POLYLINE
  5
170E4
  8
01
 10
-1646.1525695325161
 20
-917.81355033406157
 30
0.0
 66
     1
 70
     8
  0
VERTEX
  8
01
  5
17922
 10
-1646.15
 20
-917.814
 30
0.000000
  70
    32
  0
VERTEX
  8
01
  5
17923
 10
-1646.15
 20
-917.802
 30
0.000000
  70
    32
  0
VERTEX
  8
01
  5
17924
 10
-1646.15
 20
-917.790
 30
0.000000
  70
    32
  0
VERTEX
  8
01
  5
17925
 10
-1646.14
 20
-917.778
 30
0.000000
  70
    32
  0
VERTEX
  8
01
  5
17926
 10
-1646.14
 20
-917.767
 30
0.000000
  70
    32
  0
VERTEX
  8
01
  5
17927
 10
-1646.13
 20
-917.755
 30
0.000000
  70
    32
  0
VERTEX
  8
01
  5
17928
 10
-1646.11
 20
-917.743
 30
0.000000
  70
    32
  0
VERTEX
  8
01
  5
17929
 10
-1646.10
 20
-917.732
 30
0.000000
  70
    32
  0
VERTEX
  8
01
  5
1792A
 10
-1646.09
 20
-917.720
 30
0.000000
  70
    32
  0
VERTEX
  8
01
  5
1792B
 10
-1646.07
 20
-917.709
 30
0.000000
  70
    32
  0
VERTEX
  8
01
  5
1792C
 10
-1646.05
 20
-917.697
 30
0.000000
  70
    32
  0
VERTEX
  8
01
  5
1792D
 10
-1646.03
 20
-917.686
 30
0.000000
  70
    32
  0
VERTEX
  8
01
  5
1792E
 10
-1646.00
 20
-917.675
 30
0.000000
  70
    32
  0
VERTEX
  8
01
  5
1792F
 10
-1645.98
 20
-917.664
 30
0.000000
  70
    32
  0
VERTEX
  8
01
  5
17930
 10
-1645.95
 20
-917.653
 30
0.000000
  70
    32
  0
VERTEX
  8
01
  5
17931
 10
-1645.92
 20
-917.642
 30
0.000000
  70
    32
  0
VERTEX
  8
01
  5
17932
 10
-1645.89
 20
-917.631
 30
0.000000
  70
    32
  0
VERTEX
  8
01
  5
17933
 10
-1645.85
 20
-917.620
 30
0.000000
  70
    32
  0
VERTEX
  8
01
  5
17934
 10
-1645.82
 20
-917.609
 30
0.000000
  70
    32
  0
VERTEX
  8
01
  5
17935
 10
-1645.78
 20
-917.599
 30
0.000000
  70
    32
  0
VERTEX
  8
01
  5
17936
 10
-1645.74
 20
-917.588
 30
0.000000
  70
    32
  0
VERTEX
  8
01
  5
17937
 10
-1645.70
 20
-917.578
 30
0.000000
  70
    32
  0
VERTEX
  8
01
  5
17938
 10
-1645.65
 20
-917.568
 30
0.000000
  70
    32
  0
VERTEX
  8
01
  5
17939
 10
-1645.61
 20
-917.558
 30
0.000000
  70
    32
  0
VERTEX
  8
01
  5
1793A
 10
-1645.56
 20
-917.548
 30
0.000000
  70
    32
  0
VERTEX
  8
01
  5
1793B
 10
-1645.51
 20
-917.538
 30
0.000000
  70
    32
  0
VERTEX
  8
01
  5
1793C
 10
-1645.46
 20
-917.529
 30
0.000000
  70
    32
  0
VERTEX
  8
01
  5
1793D
 10
-1645.41
 20
-917.520
 30
0.000000
  70
    32
  0
VERTEX
  8
01
  5
1793E
 10
-1645.36
 20
-917.510
 30
0.000000
  70
    32
  0
VERTEX
  8
01
  5
1793F
 10
-1645.30
 20
-917.501
 30
0.000000
  70
    32
  0
VERTEX
  8
01
  5
17940
 10
-1645.25
 20
-917.493
 30
0.000000
  70
    32
  0
VERTEX
  8
01
  5
17941
 10
-1645.19
 20
-917.484
 30
0.000000
  70
    32
  0
VERTEX
  8
01
  5
17942
 10
-1645.13
 20
-917.476
 30
0.000000
  70
    32
  0
VERTEX
  8
01
  5
17943
 10
-1645.07
 20
-917.467
 30
0.000000
  70
    32
  0
VERTEX
  8
01
  5
17944
 10
-1645.00
 20
-917.459
 30
0.000000
  70
    32
  0
VERTEX
  8
01
  5
17945
 10
-1644.94
 20
-917.452
 30
0.000000
  70
    32
  0
VERTEX
  8
01
  5
17946
 10
-1644.87
 20
-917.444
 30
0.000000
  70
    32
  0
VERTEX
  8
01
  5
17947
 10
-1644.81
 20
-917.437
 30
0.000000
  70
    32
  0
VERTEX
  8
01
  5
17948
 10
-1644.74
 20
-917.430
 30
0.000000
  70
    32
  0
VERTEX
  8
01
  5
17949
 10
-1644.67
 20
-917.423
 30
0.000000
  70
    32
  0
VERTEX
  8
01
  5
1794A
 10
-1644.60
 20
-917.416
 30
0.000000
  70
    32
  0
VERTEX
  8
01
  5
1794B
 10
-1644.53
 20
-917.410
 30
0.000000
  70
    32
  0
VERTEX
  8
01
  5
1794C
 10
-1644.45
 20
-917.404
 30
0.000000
  70
    32
  0
VERTEX
  8
01
  5
1794D
 10
-1644.38
 20
-917.398
 30
0.000000
  70
    32
  0
VERTEX
  8
01
  5
1794E
 10
-1644.30
 20
-917.392
 30
0.000000
  70
    32
  0
VERTEX
  8
01
  5
1794F
 10
-1644.23
 20
-917.387
 30
0.000000
  70
    32
  0
VERTEX
  8
01
  5
17950
 10
-1644.15
 20
-917.382
 30
0.000000
  70
    32
  0
VERTEX
  8
01
  5
17951
 10
-1644.07
 20
-917.377
 30
0.000000
  70
    32
  0
VERTEX
  8
01
  5
17952
 10
-1643.99
 20
-917.372
 30
0.000000
  70
    32
  0
VERTEX
  8
01
  5
17953
 10
-1643.91
 20
-917.368
 30
0.000000
  70
    32
  0
VERTEX
  8
01
  5
17954
 10
-1643.83
 20
-917.364
 30
0.000000
  70
    32
  0
VERTEX
  8
01
  5
17955
 10
-1643.75
 20
-917.360
 30
0.000000
  70
    32
  0
VERTEX
  8
01
  5
17956
 10
-1643.67
 20
-917.356
 30
0.000000
  70
    32
  0
VERTEX
  8
01
  5
17957
 10
-1643.59
 20
-917.353
 30
0.000000
  70
    32
  0
VERTEX
  8
01
  5
17958
 10
-1643.50
 20
-917.350
 30
0.000000
  70
    32
  0
VERTEX
  8
01
  5
17959
 10
-1643.42
 20
-917.347
 30
0.000000
  70
    32
  0
VERTEX
  8
01
  5
1795A
 10
-1643.34
 20
-917.345
 30
0.000000
  70
    32
  0
VERTEX
  8
01
  5
1795B
 10
-1643.25
 20
-917.343
 30
0.000000
  70
    32
  0
VERTEX
  8
01
  5
1795C
 10
-1643.17
 20
-917.341
 30
0.000000
  70
    32
  0
VERTEX
  8
01
  5
1795D
 10
-1643.08
 20
-917.339
 30
0.000000
  70
    32
  0
VERTEX
  8
01
  5
1795E
 10
-1643.00
 20
-917.338
 30
0.000000
  70
    32
  0
VERTEX
  8
01
  5
1795F
 10
-1642.91
 20
-917.337
 30
0.000000
  70
    32
  0
VERTEX
  8
01
  5
17960
 10
-1642.82
 20
-917.336
 30
0.000000
  70
    32
  0
VERTEX
  8
01
  5
17961
 10
-1642.74
 20
-917.336
 30
0.000000
  70
    32
  0
VERTEX
  8
01
  5
17962
 10
-1642.65
 20
-917.336
 30
0.000000
  70
    32
  0
VERTEX
  8
01
  5
17963
 10
-1642.57
 20
-917.336
 30
0.000000
  70
    32
  0
VERTEX
  8
01
  5
17964
 10
-1642.48
 20
-917.336
 30
0.000000
  70
    32
  0
VERTEX
  8
01
  5
17965
 10
-1642.40
 20
-917.337
 30
0.000000
  70
    32
  0
VERTEX
  8
01
  5
17966
 10
-1642.31
 20
-917.338
 30
0.000000
  70
    32
  0
VERTEX
  8
01
  5
17967
 10
-1642.22
 20
-917.339
 30
0.000000
  70
    32
  0
VERTEX
  8
01
  5
17968
 10
-1642.14
 20
-917.341
 30
0.000000
  70
    32
  0
VERTEX
  8
01
  5
17969
 10
-1642.05
 20
-917.343
 30
0.000000
  70
    32
  0
VERTEX
  8
01
  5
1796A
 10
-1641.97
 20
-917.345
 30
0.000000
  70
    32
  0
VERTEX
  8
01
  5
1796B
 10
-1641.89
 20
-917.347
 30
0.000000
  70
    32
  0
VERTEX
  8
01
  5
1796C
 10
-1641.80
 20
-917.350
 30
0.000000
  70
    32
  0
VERTEX
  8
01
  5
1796D
 10
-1641.72
 20
-917.353
 30
0.000000
  70
    32
  0
VERTEX
  8
01
  5
1796E
 10
-1641.64
 20
-917.356
 30
0.000000
  70
    32
  0
VERTEX
  8
01
  5
1796F
 10
-1641.55
 20
-917.360
 30
0.000000
  70
    32
  0
VERTEX
  8
01
  5
17970
 10
-1641.47
 20
-917.364
 30
0.000000
  70
    32
  0
VERTEX
  8
01
  5
17971
 10
-1641.39
 20
-917.368
 30
0.000000
  70
    32
  0
VERTEX
  8
01
  5
17972
 10
-1641.31
 20
-917.372
 30
0.000000
  70
    32
  0
VERTEX
  8
01
  5
17973
 10
-1641.23
 20
-917.377
 30
0.000000
  70
    32
  0
VERTEX
  8
01
  5
17974
 10
-1641.16
 20
-917.382
 30
0.000000
  70
    32
  0
VERTEX
  8
01
  5
17975
 10
-1641.08
 20
-917.387
 30
0.000000
  70
    32
  0
VERTEX
  8
01
  5
17976
 10
-1641.00
 20
-917.392
 30
0.000000
  70
    32
  0
VERTEX
  8
01
  5
17977
 10
-1640.93
 20
-917.398
 30
0.000000
  70
    32
  0
VERTEX
  8
01
  5
17978
 10
-1640.85
 20
-917.404
 30
0.000000
  70
    32
  0
VERTEX
  8
01
  5
17979
 10
-1640.78
 20
-917.410
 30
0.000000
  70
    32
  0
VERTEX
  8
01
  5
1797A
 10
-1640.71
 20
-917.416
 30
0.000000
  70
    32
  0
VERTEX
  8
01
  5
1797B
 10
-1640.64
 20
-917.423
 30
0.000000
  70
    32
  0
VERTEX
  8
01
  5
1797C
 10
-1640.57
 20
-917.430
 30
0.000000
  70
    32
  0
VERTEX
  8
01
  5
1797D
 10
-1640.50
 20
-917.437
 30
0.000000
  70
    32
  0
VERTEX
  8
01
  5
1797E
 10
-1640.43
 20
-917.444
 30
0.000000
  70
    32
  0
VERTEX
  8
01
  5
1797F
 10
-1640.37
 20
-917.452
 30
0.000000
  70
    32
  0
VERTEX
  8
01
  5
17980
 10
-1640.30
 20
-917.459
 30
0.000000
  70
    32
  0
VERTEX
  8
01
  5
17981
 10
-1640.24
 20
-917.467
 30
0.000000
  70
    32
  0
VERTEX
  8
01
  5
17982
 10
-1640.18
 20
-917.476
 30
0.000000
  70
    32
  0
VERTEX
  8
01
  5
17983
 10
-1640.12
 20
-917.484
 30
0.000000
  70
    32
  0
VERTEX
  8
01
  5
17984
 10
-1640.06
 20
-917.493
 30
0.000000
  70
    32
  0
VERTEX
  8
01
  5
17985
 10
-1640.00
 20
-917.501
 30
0.000000
  70
    32
  0
VERTEX
  8
01
  5
17986
 10
-1639.95
 20
-917.510
 30
0.000000
  70
    32
  0
VERTEX
  8
01
  5
17987
 10
-1639.89
 20
-917.520
 30
0.000000
  70
    32
  0
VERTEX
  8
01
  5
17988
 10
-1639.84
 20
-917.529
 30
0.000000
  70
    32
  0
VERTEX
  8
01
  5
17989
 10
-1639.79
 20
-917.538
 30
0.000000
  70
    32
  0
VERTEX
  8
01
  5
1798A
 10
-1639.74
 20
-917.548
 30
0.000000
  70
    32
  0
VERTEX
  8
01
  5
1798B
 10
-1639.70
 20
-917.558
 30
0.000000
  70
    32
  0
VERTEX
  8
01
  5
1798C
 10
-1639.65
 20
-917.568
 30
0.000000
  70
    32
  0
VERTEX
  8
01
  5
1798D
 10
-1639.61
 20
-917.578
 30
0.000000
  70
    32
  0
VERTEX
  8
01
  5
1798E
 10
-1639.57
 20
-917.588
 30
0.000000
  70
    32
  0
VERTEX
  8
01
  5
1798F
 10
-1639.53
 20
-917.599
 30
0.000000
  70
    32
  0
VERTEX
  8
01
  5
17990
 10
-1639.49
 20
-917.609
 30
0.000000
  70
    32
  0
VERTEX
  8
01
  5
17991
 10
-1639.45
 20
-917.620
 30
0.000000
  70
    32
  0
VERTEX
  8
01
  5
17992
 10
-1639.42
 20
-917.631
 30
0.000000
  70
    32
  0
VERTEX
  8
01
  5
17993
 10
-1639.39
 20
-917.642
 30
0.000000
  70
    32
  0
VERTEX
  8
01
  5
17994
 10
-1639.36
 20
-917.653
 30
0.000000
  70
    32
  0
VERTEX
  8
01
  5
17995
 10
-1639.33
 20
-917.664
 30
0.000000
  70
    32
  0
VERTEX
  8
01
  5
17996
 10
-1639.30
 20
-917.675
 30
0.000000
  70
    32
  0
VERTEX
  8
01
  5
17997
 10
-1639.28
 20
-917.686
 30
0.000000
  70
    32
  0
VERTEX
  8
01
  5
17998
 10
-1639.26
 20
-917.697
 30
0.000000
  70
    32
  0
VERTEX
  8
01
  5
17999
 10
-1639.24
 20
-917.709
 30
0.000000
  70
    32
  0
VERTEX
  8
01
  5
1799A
 10
-1639.22
 20
-917.720
 30
0.000000
  70
    32
  0
VERTEX
  8
01
  5
1799B
 10
-1639.20
 20
-917.732
 30
0.000000
  70
    32
  0
VERTEX
  8
01
  5
1799C
 10
-1639.19
 20
-917.743
 30
0.000000
  70
    32
  0
VERTEX
  8
01
  5
1799D
 10
-1639.18
 20
-917.755
 30
0.000000
  70
    32
  0
VERTEX
  8
01
  5
1799E
 10
-1639.17
 20
-917.767
 30
0.000000
  70
    32
  0
VERTEX
  8
01
  5
1799F
 10
-1639.16
 20
-917.778
 30
0.000000
  70
    32
  0
VERTEX
  8
01
  5
179A0
 10
-1639.16
 20
-917.790
 30
0.000000
  70
    32
  0
VERTEX
  8
01
  5
179A1
 10
-1639.15
 20
-917.802
 30
0.000000
  70
    32
  0
VERTEX
  8
01
  5
179A2
 10
-1639.15
 20
-917.814
 30
0.000000
  70
    32
  0
SEQEND
  8
01
  5
179A3
  0
POLYLINE
  5
170E5
  8
01
 10
-1639.1525695325161
 20
-917.81355033406157
 30
0.0
 66
     1
 70
     8
  0
VERTEX
  8
01
  5
179A4
 10
-1639.15
 20
-917.814
 30
0.000000
  70
    32
  0
VERTEX
  8
01
  5
179A5
 10
-1639.15
 20
-917.826
 30
0.000000
  70
    32
  0
VERTEX
  8
01
  5
179A6
 10
-1639.16
 20
-917.839
 30
0.000000
  70
    32
  0
VERTEX
  8
01
  5
179A7
 10
-1639.16
 20
-917.852
 30
0.000000
  70
    32
  0
VERTEX
  8
01
  5
179A8
 10
-1639.17
 20
-917.864
 30
0.000000
  70
    32
  0
VERTEX
  8
01
  5
179A9
 10
-1639.18
 20
-917.877
 30
0.000000
  70
    32
  0
VERTEX
  8
01
  5
179AA
 10
-1639.19
 20
-917.890
 30
0.000000
  70
    32
  0
VERTEX
  8
01
  5
179AB
 10
-1639.20
 20
-917.902
 30
0.000000
  70
    32
  0
VERTEX
  8
01
  5
179AC
 10
-1639.22
 20
-917.915
 30
0.000000
  70
    32
  0
VERTEX
  8
01
  5
179AD
 10
-1639.24
 20
-917.927
 30
0.000000
  70
    32
  0
VERTEX
  8
01
  5
179AE
 10
-1639.26
 20
-917.940
 30
0.000000
  70
    32
  0
VERTEX
  8
01
  5
179AF
 10
-1639.28
 20
-917.952
 30
0.000000
  70
    32
  0
VERTEX
  8
01
  5
179B0
 10
-1639.30
 20
-917.964
 30
0.000000
  70
    32
  0
VERTEX
  8
01
  5
179B1
 10
-1639.33
 20
-917.976
 30
0.000000
  70
    32
  0
VERTEX
  8
01
  5
179B2
 10
-1639.36
 20
-917.988
 30
0.000000
  70
    32
  0
VERTEX
  8
01
  5
179B3
 10
-1639.39
 20
-918.000
 30
0.000000
  70
    32
  0
VERTEX
  8
01
  5
179B4
 10
-1639.42
 20
-918.012
 30
0.000000
  70
    32
  0
VERTEX
  8
01
  5
179B5
 10
-1639.45
 20
-918.024
 30
0.000000
  70
    32
  0
VERTEX
  8
01
  5
179B6
 10
-1639.49
 20
-918.035
 30
0.000000
  70
    32
  0
VERTEX
  8
01
  5
179B7
 10
-1639.53
 20
-918.047
 30
0.000000
  70
    32
  0
VERTEX
  8
01
  5
179B8
 10
-1639.57
 20
-918.058
 30
0.000000
  70
    32
  0
VERTEX
  8
01
  5
179B9
 10
-1639.61
 20
-918.069
 30
0.000000
  70
    32
  0
VERTEX
  8
01
  5
179BA
 10
-1639.65
 20
-918.080
 30
0.000000
  70
    32
  0
VERTEX
  8
01
  5
179BB
 10
-1639.70
 20
-918.091
 30
0.000000
  70
    32
  0
VERTEX
  8
01
  5
179BC
 10
-1639.74
 20
-918.102
 30
0.000000
  70
    32
  0
VERTEX
  8
01
  5
179BD
 10
-1639.79
 20
-918.112
 30
0.000000
  70
    32
  0
VERTEX
  8
01
  5
179BE
 10
-1639.84
 20
-918.123
 30
0.000000
  70
    32
  0
VERTEX
  8
01
  5
179BF
 10
-1639.89
 20
-918.133
 30
0.000000
  70
    32
  0
VERTEX
  8
01
  5
179C0
 10
-1639.95
 20
-918.143
 30
0.000000
  70
    32
  0
VERTEX
  8
01
  5
179C1
 10
-1640.00
 20
-918.152
 30
0.000000
  70
    32
  0
VERTEX
  8
01
  5
179C2
 10
-1640.06
 20
-918.162
 30
0.000000
  70
    32
  0
VERTEX
  8
01
  5
179C3
 10
-1640.12
 20
-918.171
 30
0.000000
  70
    32
  0
VERTEX
  8
01
  5
179C4
 10
-1640.18
 20
-918.180
 30
0.000000
  70
    32
  0
VERTEX
  8
01
  5
179C5
 10
-1640.24
 20
-918.189
 30
0.000000
  70
    32
  0
VERTEX
  8
01
  5
179C6
 10
-1640.30
 20
-918.198
 30
0.000000
  70
    32
  0
VERTEX
  8
01
  5
179C7
 10
-1640.37
 20
-918.206
 30
0.000000
  70
    32
  0
VERTEX
  8
01
  5
179C8
 10
-1640.43
 20
-918.215
 30
0.000000
  70
    32
  0
VERTEX
  8
01
  5
179C9
 10
-1640.50
 20
-918.223
 30
0.000000
  70
    32
  0
VERTEX
  8
01
  5
179CA
 10
-1640.57
 20
-918.230
 30
0.000000
  70
    32
  0
VERTEX
  8
01
  5
179CB
 10
-1640.64
 20
-918.238
 30
0.000000
  70
    32
  0
VERTEX
  8
01
  5
179CC
 10
-1640.71
 20
-918.245
 30
0.000000
  70
    32
  0
VERTEX
  8
01
  5
179CD
 10
-1640.78
 20
-918.252
 30
0.000000
  70
    32
  0
VERTEX
  8
01
  5
179CE
 10
-1640.85
 20
-918.259
 30
0.000000
  70
    32
  0
VERTEX
  8
01
  5
179CF
 10
-1640.93
 20
-918.265
 30
0.000000
  70
    32
  0
VERTEX
  8
01
  5
179D0
 10
-1641.00
 20
-918.271
 30
0.000000
  70
    32
  0
VERTEX
  8
01
  5
179D1
 10
-1641.08
 20
-918.277
 30
0.000000
  70
    32
  0
VERTEX
  8
01
  5
179D2
 10
-1641.16
 20
-918.283
 30
0.000000
  70
    32
  0
VERTEX
  8
01
  5
179D3
 10
-1641.23
 20
-918.288
 30
0.000000
  70
    32
  0
VERTEX
  8
01
  5
179D4
 10
-1641.31
 20
-918.293
 30
0.000000
  70
    32
  0
VERTEX
  8
01
  5
179D5
 10
-1641.39
 20
-918.298
 30
0.000000
  70
    32
  0
VERTEX
  8
01
  5
179D6
 10
-1641.47
 20
-918.302
 30
0.000000
  70
    32
  0
VERTEX
  8
01
  5
179D7
 10
-1641.55
 20
-918.306
 30
0.000000
  70
    32
  0
VERTEX
  8
01
  5
179D8
 10
-1641.64
 20
-918.310
 30
0.000000
  70
    32
  0
VERTEX
  8
01
  5
179D9
 10
-1641.72
 20
-918.314
 30
0.000000
  70
    32
  0
VERTEX
  8
01
  5
179DA
 10
-1641.80
 20
-918.317
 30
0.000000
  70
    32
  0
VERTEX
  8
01
  5
179DB
 10
-1641.89
 20
-918.320
 30
0.000000
  70
    32
  0
VERTEX
  8
01
  5
179DC
 10
-1641.97
 20
-918.322
 30
0.000000
  70
    32
  0
VERTEX
  8
01
  5
179DD
 10
-1642.05
 20
-918.325
 30
0.000000
  70
    32
  0
VERTEX
  8
01
  5
179DE
 10
-1642.14
 20
-918.327
 30
0.000000
  70
    32
  0
VERTEX
  8
01
  5
179DF
 10
-1642.22
 20
-918.328
 30
0.000000
  70
    32
  0
VERTEX
  8
01
  5
179E0
 10
-1642.31
 20
-918.330
 30
0.000000
  70
    32
  0
VERTEX
  8
01
  5
179E1
 10
-1642.40
 20
-918.331
 30
0.000000
  70
    32
  0
VERTEX
  8
01
  5
179E2
 10
-1642.48
 20
-918.332
 30
0.000000
  70
    32
  0
VERTEX
  8
01
  5
179E3
 10
-1642.57
 20
-918.332
 30
0.000000
  70
    32
  0
VERTEX
  8
01
  5
179E4
 10
-1642.65
 20
-918.332
 30
0.000000
  70
    32
  0
VERTEX
  8
01
  5
179E5
 10
-1642.74
 20
-918.332
 30
0.000000
  70
    32
  0
VERTEX
  8
01
  5
179E6
 10
-1642.82
 20
-918.332
 30
0.000000
  70
    32
  0
VERTEX
  8
01
  5
179E7
 10
-1642.91
 20
-918.331
 30
0.000000
  70
    32
  0
VERTEX
  8
01
  5
179E8
 10
-1643.00
 20
-918.330
 30
0.000000
  70
    32
  0
VERTEX
  8
01
  5
179E9
 10
-1643.08
 20
-918.328
 30
0.000000
  70
    32
  0
VERTEX
  8
01
  5
179EA
 10
-1643.17
 20
-918.327
 30
0.000000
  70
    32
  0
VERTEX
  8
01
  5
179EB
 10
-1643.25
 20
-918.325
 30
0.000000
  70
    32
  0
VERTEX
  8
01
  5
179EC
 10
-1643.34
 20
-918.322
 30
0.000000
  70
    32
  0
VERTEX
  8
01
  5
179ED
 10
-1643.42
 20
-918.320
 30
0.000000
  70
    32
  0
VERTEX
  8
01
  5
179EE
 10
-1643.50
 20
-918.317
 30
0.000000
  70
    32
  0
VERTEX
  8
01
  5
179EF
 10
-1643.59
 20
-918.314
 30
0.000000
  70
    32
  0
VERTEX
  8
01
  5
179F0
 10
-1643.67
 20
-918.310
 30
0.000000
  70
    32
  0
VERTEX
  8
01
  5
179F1
 10
-1643.75
 20
-918.306
 30
0.000000
  70
    32
  0
VERTEX
  8
01
  5
179F2
 10
-1643.83
 20
-918.302
 30
0.000000
  70
    32
  0
VERTEX
  8
01
  5
179F3
 10
-1643.91
 20
-918.298
 30
0.000000
  70
    32
  0
VERTEX
  8
01
  5
179F4
 10
-1643.99
 20
-918.293
 30
0.000000
  70
    32
  0
VERTEX
  8
01
  5
179F5
 10
-1644.07
 20
-918.288
 30
0.000000
  70
    32
  0
VERTEX
  8
01
  5
179F6
 10
-1644.15
 20
-918.283
 30
0.000000
  70
    32
  0
VERTEX
  8
01
  5
179F7
 10
-1644.23
 20
-918.277
 30
0.000000
  70
    32
  0
VERTEX
  8
01
  5
179F8
 10
-1644.30
 20
-918.271
 30
0.000000
  70
    32
  0
VERTEX
  8
01
  5
179F9
 10
-1644.38
 20
-918.265
 30
0.000000
  70
    32
  0
VERTEX
  8
01
  5
179FA
 10
-1644.45
 20
-918.259
 30
0.000000
  70
    32
  0
VERTEX
  8
01
  5
179FB
 10
-1644.53
 20
-918.252
 30
0.000000
  70
    32
  0
VERTEX
  8
01
  5
179FC
 10
-1644.60
 20
-918.245
 30
0.000000
  70
    32
  0
VERTEX
  8
01
  5
179FD
 10
-1644.67
 20
-918.238
 30
0.000000
  70
    32
  0
VERTEX
  8
01
  5
179FE
 10
-1644.74
 20
-918.230
 30
0.000000
  70
    32
  0
VERTEX
  8
01
  5
179FF
 10
-1644.81
 20
-918.223
 30
0.000000
  70
    32
  0
VERTEX
  8
01
  5
17A00
 10
-1644.87
 20
-918.215
 30
0.000000
  70
    32
  0
VERTEX
  8
01
  5
17A01
 10
-1644.94
 20
-918.206
 30
0.000000
  70
    32
  0
VERTEX
  8
01
  5
17A02
 10
-1645.00
 20
-918.198
 30
0.000000
  70
    32
  0
VERTEX
  8
01
  5
17A03
 10
-1645.07
 20
-918.189
 30
0.000000
  70
    32
  0
VERTEX
  8
01
  5
17A04
 10
-1645.13
 20
-918.180
 30
0.000000
  70
    32
  0
VERTEX
  8
01
  5
17A05
 10
-1645.19
 20
-918.171
 30
0.000000
  70
    32
  0
VERTEX
  8
01
  5
17A06
 10
-1645.25
 20
-918.162
 30
0.000000
  70
    32
  0
VERTEX
  8
01
  5
17A07
 10
-1645.30
 20
-918.152
 30
0.000000
  70
    32
  0
VERTEX
  8
01
  5
17A08
 10
-1645.36
 20
-918.143
 30
0.000000
  70
    32
  0
VERTEX
  8
01
  5
17A09
 10
-1645.41
 20
-918.133
 30
0.000000
  70
    32
  0
VERTEX
  8
01
  5
17A0A
 10
-1645.46
 20
-918.123
 30
0.000000
  70
    32
  0
VERTEX
  8
01
  5
17A0B
 10
-1645.51
 20
-918.112
 30
0.000000
  70
    32
  0
VERTEX
  8
01
  5
17A0C
 10
-1645.56
 20
-918.102
 30
0.000000
  70
    32
  0
VERTEX
  8
01
  5
17A0D
 10
-1645.61
 20
-918.091
 30
0.000000
  70
    32
  0
VERTEX
  8
01
  5
17A0E
 10
-1645.65
 20
-918.080
 30
0.000000
  70
    32
  0
VERTEX
  8
01
  5
17A0F
 10
-1645.70
 20
-918.069
 30
0.000000
  70
    32
  0
VERTEX
  8
01
  5
17A10
 10
-1645.74
 20
-918.058
 30
0.000000
  70
    32
  0
VERTEX
  8
01
  5
17A11
 10
-1645.78
 20
-918.047
 30
0.000000
  70
    32
  0
VERTEX
  8
01
  5
17A12
 10
-1645.82
 20
-918.035
 30
0.000000
  70
    32
  0
VERTEX
  8
01
  5
17A13
 10
-1645.85
 20
-918.024
 30
0.000000
  70
    32
  0
VERTEX
  8
01
  5
17A14
 10
-1645.89
 20
-918.012
 30
0.000000
  70
    32
  0
VERTEX
  8
01
  5
17A15
 10
-1645.92
 20
-918.000
 30
0.000000
  70
    32
  0
VERTEX
  8
01
  5
17A16
 10
-1645.95
 20
-917.988
 30
0.000000
  70
    32
  0
VERTEX
  8
01
  5
17A17
 10
-1645.98
 20
-917.976
 30
0.000000
  70
    32
  0
VERTEX
  8
01
  5
17A18
 10
-1646.00
 20
-917.964
 30
0.000000
  70
    32
  0
VERTEX
  8
01
  5
17A19
 10
-1646.03
 20
-917.952
 30
0.000000
  70
    32
  0
VERTEX
  8
01
  5
17A1A
 10
-1646.05
 20
-917.940
 30
0.000000
  70
    32
  0
VERTEX
  8
01
  5
17A1B
 10
-1646.07
 20
-917.927
 30
0.000000
  70
    32
  0
VERTEX
  8
01
  5
17A1C
 10
-1646.09
 20
-917.915
 30
0.000000
  70
    32
  0
VERTEX
  8
01
  5
17A1D
 10
-1646.10
 20
-917.902
 30
0.000000
  70
    32
  0
VERTEX
  8
01
  5
17A1E
 10
-1646.11
 20
-917.890
 30
0.000000
  70
    32
  0
VERTEX
  8
01
  5
17A1F
 10
-1646.13
 20
-917.877
 30
0.000000
  70
    32
  0
VERTEX
  8
01
  5
17A20
 10
-1646.14
 20
-917.864
 30
0.000000
  70
    32
  0
VERTEX
  8
01
  5
17A21
 10
-1646.14
 20
-917.852
 30
0.000000
  70
    32
  0
VERTEX
  8
01
  5
17A22
 10
-1646.15
 20
-917.839
 30
0.000000
  70
    32
  0
VERTEX
  8
01
  5
17A23
 10
-1646.15
 20
-917.826
 30
0.000000
  70
    32
  0
VERTEX
  8
01
  5
17A24
 10
-1646.15
 20
-917.814
 30
0.000000
  70
    32
  0
SEQEND
  8
01
  5
17A25
  0
LINE
  5
1711D
  8
01
 10
-1620.652569532514
 20
-879.72685437454152
 30
0.0
 11
-1634.6525695325261
 21
-879.72685437454152
 31
0.0
  0
LINE
  5
17120
  8
01
 10
-1579.6525695325211
 20
-890.8082513994807
 30
0.0
 11
-1579.6525695325211
 21
-895.25353587865186
 31
0.0
  0
ARC
  5
17121
  8
01
 10
-1578.1525695325211
 20
-890.80825139948115
 30
0.0
 40
1.5
 50
89.999999999661284
 51
179.99999999998039
  0
ARC
  5
17122
  8
01
 10
-1627.6657169517921
 20
-784.80825139954209
 30
0.0
 40
1.0
 50
270.0
 51
0.0
  0
LINE
  5
17123
  8
01
 10
-1649.152569532517
 20
-815.80767399494448
 30
0.0
 11
-1636.152569532514
 21
-815.80767399502724
 31
0.0
  0
CIRCLE
  5
17124
  8
01
 10
-1642.6525695325261
 20
-773.30813164743915
 30
0.0
 40
7.9999999999890861
  0
CIRCLE
  5
17125
  8
01
 10
-1642.652569532527
 20
-773.30813164743881
 30
0.0
 40
8.1500000000078217
  0
ARC
  5
17126
  8
01
 10
-1649.152569532527
 20
-817.30767399494493
 30
0.0
 40
1.5
 50
89.999999999635222
 51
180.0
  0
ARC
  5
17127
  8
01
 10
-1636.1525695325231
 20
-817.3076739950277
 30
0.0
 40
1.5
 50
359.99999999999352
 51
89.999999999635222
  0
LINE
  5
17128
  8
1PHANTOM
 10
-1498.952573900669
 20
-903.42747933517126
 30
0.0
 11
-1522.6525739005599
 21
-903.42747933517126
 31
0.0
  0
LINE
  5
17129
  8
1PHANTOM
 10
-1498.952566920284
 20
-900.42747933517114
 30
0.0
 11
-1522.652566920174
 21
-900.42747933517114
 31
0.0
  0
LINE
  5
1712A
  8
1PHANTOM
 10
-1511.752565756887
 20
-899.92747933517126
 30
0.0
 11
-1510.9525750640689
 21
-903.92747933517126
 31
0.0
  0
LINE
  5
1712B
  8
1CENTER
 10
-1492.507824633866
 20
-901.92743177893215
 30
0.0
 11
-1547.477662986558
 21
-901.92743177893215
 31
0.0
  0
LINE
  5
1712C
  8
01
 10
-1559.15268928463
 20
-817.30825139954209
 30
0.0
 11
-1559.1526892846341
 21
-889.308251399602
 31
0.0
  0
LINE
  5
1712D
  8
01
 10
-1575.1526892846341
 20
-817.30825139945932
 30
0.0
 11
-1575.1526892846309
 21
-889.30825139950025
 31
0.0
  0
LINE
  5
17130
  8
1PHANTOM
 10
-1542.1525695326211
 20
-905.91681109237265
 30
0.0
 11
-1545.152740870134
 21
-905.83824884103501
 31
0.0
  0
LINE
  5
17131
  8
1PHANTOM
 10
-1523.626392584313
 20
-897.28134500561748
 30
0.0
 11
-1545.152740870134
 21
-897.84503227350137
 31
0.0
  0
LINE
  5
17132
  8
1DIM
 10
-1545.152740870134
 20
-900.92742699489622
 30
0.0
 11
-1522.6525695326211
 21
-900.92742699489622
 31
0.0
  0
ARC
  5
17137
  8
01
 10
-1518.652569532522
 20
-793.88726885546271
 30
0.0
 40
124.92098254400889
 50
244.4425946554386
 51
270.0
  0
LINE
  5
17138
  8
1PHANTOM
 10
-1545.152740870134
 20
-897.84503227350137
 30
0.0
 11
-1545.6525695326229
 21
-898.35812074765522
 31
0.0
  0
LINE
  5
17139
  8
1PHANTOM
 10
-1545.6525695326229
 20
-905.32516036688116
 30
0.0
 11
-1545.152740870134
 21
-905.83824884103501
 31
0.0
  0
LINE
  5
1713A
  8
1DIM
 10
-1545.152740870134
 20
-897.84503227349956
 30
0.0
 11
-1545.1527408701361
 21
-905.8382488410341
 31
0.0
  0
LINE
  5
1713B
  8
1PHANTOM
 10
-1545.6525695326229
 20
-898.35812074765613
 30
0.0
 11
-1545.6525695326229
 21
-905.32516036688116
 31
0.0
  0
LINE
  5
17145
  8
1PHANTOM
 10
-1522.6525767571479
 20
-901.42744178446162
 30
0.0
 11
-1522.1525750640819
 21
-903.92747933517126
 31
0.0
  0
LINE
  5
17146
  8
1PHANTOM
 10
-1521.452566920299
 20
-900.42747933517114
 30
0.0
 11
-1521.3525657569
 21
-899.92747933517126
 31
0.0
  0
LINE
  5
17147
  8
1PHANTOM
 10
-1522.1525750640819
 20
-903.92747933517126
 30
0.0
 11
-1522.052573900685
 21
-903.42747933517126
 31
0.0
  0
LINE
  5
17148
  8
1PHANTOM
 10
-1520.552575064082
 20
-903.92747933517126
 30
0.0
 11
-1520.4525739006849
 21
-903.42747933517126
 31
0.0
  0
LINE
  5
17149
  8
1PHANTOM
 10
-1521.3525657569
 20
-899.92747933517126
 30
0.0
 11
-1520.552575064082
 21
-903.92747933517126
 31
0.0
  0
LINE
  5
1714A
  8
1PHANTOM
 10
-1518.152565756895
 20
-899.92747933517126
 30
0.0
 11
-1517.3525750640781
 21
-903.92747933517126
 31
0.0
  0
LINE
  5
1714B
  8
1PHANTOM
 10
-1517.3525750640781
 20
-903.92747933517126
 30
0.0
 11
-1517.2525739006801
 21
-903.42747933517126
 31
0.0
  0
LINE
  5
1714C
  8
1PHANTOM
 10
-1518.952575064078
 20
-903.92747933517126
 30
0.0
 11
-1518.8525739006809
 21
-903.42747933517126
 31
0.0
  0
LINE
  5
1714D
  8
1PHANTOM
 10
-1518.2525669202939
 20
-900.42747933517114
 30
0.0
 11
-1518.152565756895
 21
-899.92747933517126
 31
0.0
  0
LINE
  5
1714E
  8
1PHANTOM
 10
-1519.852566920295
 20
-900.42747933517114
 30
0.0
 11
-1519.752565756896
 21
-899.92747933517126
 31
0.0
  0
LINE
  5
1714F
  8
1PHANTOM
 10
-1519.752565756896
 20
-899.92747933517126
 30
0.0
 11
-1518.952575064078
 21
-903.92747933517126
 31
0.0
  0
LINE
  5
17150
  8
1PHANTOM
 10
-1523.6525739005619
 20
-903.42747933517126
 30
0.0
 11
-1523.6525669201769
 21
-900.42747933517114
 31
0.0
  0
LINE
  5
17151
  8
1PHANTOM
 10
-1523.6525615684311
 20
-898.12743179741824
 30
0.0
 11
-1522.6525615684379
 21
-898.12743412421116
 31
0.0
  0
LINE
  5
17152
  8
1PHANTOM
 10
-1523.6525715736509
 20
-902.42743164740546
 30
0.0
 11
-1522.6525692468581
 21
-901.42743427420805
 31
0.0
  0
LINE
  5
17153
  8
1PHANTOM
 10
-1523.652562266479
 20
-898.42743279927322
 30
0.0
 11
-1523.6525669201769
 21
-900.42747933517114
 31
0.0
  0
LINE
  5
17154
  8
1PHANTOM
 10
-1523.652562266479
 20
-898.42743279927322
 30
0.0
 11
-1524.7525657566739
 21
-898.42743279927322
 31
0.0
  0
ARC
  5
17155
  8
1PHANTOM
 10
-1524.7525657566739
 20
-899.92743279927333
 30
0.0
 40
1.5
 50
90.0
 51
179.99986668447491
  0
LINE
  5
17156
  8
1PHANTOM
 10
-1526.25256575667
 20
-899.92742930908105
 30
0.0
 11
-1526.2525750638499
 21
-903.92742930908094
 31
0.0
  0
LINE
  5
17157
  8
1PHANTOM
 10
-1516.5525657568919
 20
-899.92747933517126
 30
0.0
 11
-1515.752575064073
 21
-903.92747933517126
 31
0.0
  0
LINE
  5
17158
  8
1PHANTOM
 10
-1516.6525669202899
 20
-900.42747933517114
 30
0.0
 11
-1516.5525657568919
 21
-899.92747933517126
 31
0.0
  0
LINE
  5
17159
  8
1PHANTOM
 10
-1515.05256692029
 20
-900.42747933517114
 30
0.0
 11
-1514.9525657568911
 21
-899.92747933517126
 31
0.0
  0
LINE
  5
1715A
  8
1PHANTOM
 10
-1515.752575064073
 20
-903.92747933517126
 30
0.0
 11
-1515.6525739006761
 21
-903.42747933517126
 31
0.0
  0
LINE
  5
1715B
  8
1PHANTOM
 10
-1514.1525750640731
 20
-903.92747933517126
 30
0.0
 11
-1514.052573900676
 21
-903.42747933517126
 31
0.0
  0
LINE
  5
1715C
  8
1PHANTOM
 10
-1514.9525657568911
 20
-899.92747933517126
 30
0.0
 11
-1514.1525750640731
 21
-903.92747933517126
 31
0.0
  0
LINE
  5
1715D
  8
1PHANTOM
 10
-1511.8525669202861
 20
-900.42747933517114
 30
0.0
 11
-1511.752565756887
 21
-899.92747933517126
 31
0.0
  0
LINE
  5
1715E
  8
1PHANTOM
 10
-1513.452566920286
 20
-900.42747933517114
 30
0.0
 11
-1513.3525657568871
 21
-899.92747933517126
 31
0.0
  0
LINE
  5
1715F
  8
1PHANTOM
 10
-1512.5525750640691
 20
-903.92747933517126
 30
0.0
 11
-1512.452573900672
 21
-903.42747933517126
 31
0.0
  0
LINE
  5
17160
  8
1PHANTOM
 10
-1513.3525657568871
 20
-899.92747933517126
 30
0.0
 11
-1512.5525750640691
 21
-903.92747933517126
 31
0.0
  0
ARC
  5
17163
  8
1PHANTOM
 10
-1523.6525695326211
 20
-896.28168768064211
 30
0.0
 40
1.0
 50
271.4999999999896
 51
0.0
  0
LINE
  5
17164
  8
1PHANTOM
 10
-1522.1525695326211
 20
-893.52742699489193
 30
0.0
 11
-1522.6525695326211
 21
-894.02742699489204
 31
0.0
  0
LINE
  5
17165
  8
1PHANTOM
 10
-1518.6525695325149
 20
-893.52742699489193
 30
0.0
 11
-1522.1525695326211
 21
-893.52742699489193
 31
0.0
  0
LINE
  5
17166
  8
1PHANTOM
 10
-1523.6525792520849
 20
-905.72743179740212
 30
0.0
 11
-1522.6525695326211
 21
-905.72743412421789
 31
0.0
  0
LINE
  5
17167
  8
1PHANTOM
 10
-1523.6525785540441
 20
-905.42743279927322
 30
0.0
 11
-1524.7525750638531
 21
-905.42743279927322
 31
0.0
  0
LINE
  5
17168
  8
1PHANTOM
 10
-1522.1525695326241
 20
-910.3274269948904
 30
0.0
 11
-1518.6525695325149
 21
-910.3274269948904
 31
0.0
  0
LINE
  5
17169
  8
1PHANTOM
 10
-1522.6525695326211
 20
-909.8274269948904
 30
0.0
 11
-1522.1525695326211
 21
-910.3274269948904
 31
0.0
  0
ARC
  5
1716A
  8
1PHANTOM
 10
-1523.652569532617
 20
-907.40159343389371
 30
0.0
 40
1.0
 50
0.0
 51
88.500000000010374
  0
LINE
  5
1716B
  8
1PHANTOM
 10
-1523.6525792520849
 20
-905.72743179740212
 30
0.0
 11
-1523.6525615684311
 21
-898.12743179741824
 31
0.0
  0
LINE
  5
1716D
  8
1PHANTOM
 10
-1523.6525739005619
 20
-903.42747933517126
 30
0.0
 11
-1523.6525785540441
 21
-905.42743279927322
 31
0.0
  0
ARC
  5
1716E
  8
1PHANTOM
 10
-1524.7525750638531
 20
-903.92743279927322
 30
0.0
 40
1.5
 50
179.99986668447491
 51
270.0
  0
LINE
  5
17170
  8
1PHANTOM
 10
-1522.6525695326211
 20
-894.02742699489204
 30
0.0
 11
-1522.6525695326211
 21
-896.28168768064211
 31
0.0
  0
LINE
  5
17171
  8
1PHANTOM
 10
-1518.6525695325149
 20
-910.3274269948904
 30
0.0
 11
-1518.6525695325149
 21
-893.52742699489193
 31
0.0
  0
LINE
  5
17172
  8
1HATCH
 10
-1522.1525695326211
 20
-893.52742699489193
 30
0.0
 11
-1522.1525695326211
 21
-910.3274269948904
 31
0.0
  0
LINE
  5
17177
  8
01
 10
-1518.6525695325211
 20
-889.30825139986223
 30
0.0
 11
-1518.652569532522
 21
-918.8082513994807
 31
0.0
  0
LINE
  5
1717C
  8
01
 10
-1514.652569532522
 20
-924.22743177907853
 30
0.0
 11
-1514.6525695325231
 21
-926.22743177907876
 31
0.0
  0
LINE
  5
1717D
  8
01
 10
-1517.6525695325231
 20
-926.22743177907898
 30
0.0
 11
-1514.652569532522
 21
-926.22743177907876
 31
0.0
  0
ARC
  5
1717E
  8
01
 10
-1517.6525695325231
 20
-925.22743177907898
 30
0.0
 40
1.0
 50
180.0
 51
270.0
  0
LINE
  5
17181
  8
01
 10
-1514.6525695325211
 20
-881.72743177908819
 30
0.0
 11
-1514.6525695325231
 21
-924.22743177907853
 31
0.0
  0
LINE
  5
17184
  8
01
 10
-1518.6525695325211
 20
-880.72743177908774
 30
0.0
 11
-1518.6525695325231
 21
-925.22743177907898
 31
0.0
  0
ARC
  5
17185
  8
01
 10
-1517.6525695325211
 20
-880.72743177908774
 30
0.0
 40
1.0
 50
90.0
 51
180.0
  0
LINE
  5
17186
  8
01
 10
-1514.652569532522
 20
-879.72743177908808
 30
0.0
 11
-1517.6525695325211
 21
-879.72743177908774
 31
0.0
  0
LINE
  5
17187
  8
01
 10
-1514.652569532522
 20
-879.72743177908808
 30
0.0
 11
-1514.652569532522
 21
-881.72743177908865
 31
0.0
  0
LINE
  5
1718C
  8
1PHANTOM
 10
-1533.6525695326191
 20
-902.82743177893155
 30
0.0
 11
-1534.4648941350961
 21
-902.82743177893155
 31
0.0
  0
ARC
  5
1718D
  8
1PHANTOM
 10
-1541.152569532617
 20
-905.6546651813494
 30
0.0
 40
1.0
 50
104.9999999999944
 51
180.0
  0
LINE
  5
1718E
  8
1PHANTOM
 10
-1542.152569532617
 20
-905.6546651813494
 30
0.0
 11
-1542.1525695326191
 21
-905.91681109237265
 31
0.0
  0
LINE
  5
1718F
  8
1CENTER
 10
-1536.6525695325081
 20
-917.26711403096829
 30
0.0
 11
-1536.6525695325081
 21
-903.30382011442236
 31
0.0
  0
LINE
  5
17190
  8
1CENTER
 10
-1536.652569532512
 20
-916.95761048045529
 30
0.0
 11
-1536.652569532512
 21
-902.99431656390936
 31
0.0
  0
LINE
  5
17191
  8
1PHANTOM
 10
-1541.4113885777199
 20
-904.68873935506031
 30
0.0
 11
-1534.4648941350961
 21
-902.82743177893155
 31
0.0
  0
ARC
  5
17192
  8
1PHANTOM
 10
-1533.6525695326191
 20
-904.32743177893155
 30
0.0
 40
1.5
 50
0.0
 51
90.0
  0
LINE
  5
17193
  8
1PHANTOM
 10
-1532.1525695326191
 20
-904.32743177893155
 30
0.0
 11
-1532.1525695326191
 21
-906.17867030806485
 31
0.0
  0
LINE
  5
17194
  8
1HATCH
 10
-1535.245107700676
 20
-914.3330927819826
 30
0.0
 11
-1538.0471179520489
 21
-914.3330927819826
 31
0.0
  0
LINE
  5
17195
  8
1HATCH
 10
-1535.245107700676
 20
-914.3330927819826
 30
0.0
 11
-1534.400871803115
 21
-916.31101708198253
 31
0.0
  0
LINE
  5
17196
  8
1HATCH
 10
-1534.652582422731
 20
-906.8330922819988
 30
0.0
 11
-1538.652582422731
 21
-906.8330922819988
 31
0.0
  0
LINE
  5
17197
  8
1DIM
 10
-1539.1525721325179
 20
-907.08308623691039
 30
0.0
 11
-1539.1525721325179
 21
-916.33309228198254
 31
0.0
  0
LINE
  5
17198
  8
1DIM
 10
-1534.1525669325149
 20
-907.0830991270783
 30
0.0
 11
-1534.1525669325149
 21
-916.33306981138242
 31
0.0
  0
LINE
  5
17199
  8
1HATCH
 10
-1538.856093703115
 20
-916.32343008198245
 30
0.0
 11
-1538.0471179520489
 21
-914.3330927819826
 31
0.0
  0
ARC
  5
1719F
  8
1PHANTOM
 10
-1535.1525684619689
 20
-904.33309228206394
 30
0.0
 40
0.5
 50
359.9996800427503
 51
90.0
  0
LINE
  5
171A0
  8
1PHANTOM
 10
-1534.652582422731
 20
-906.83309228199846
 30
0.0
 11
-1534.6525684619769
 21
-904.33309507421768
 31
0.0
  0
LINE
  5
171A1
  8
1PHANTOM
 10
-1533.6525894031161
 20
-915.83309228198254
 30
0.0
 11
-1533.652582422729
 21
-907.33309048199965
 31
0.0
  0
LINE
  5
171A2
  8
1PHANTOM
 10
-1539.6525894031161
 20
-915.83309228198254
 30
0.0
 11
-1539.652582422729
 21
-907.33309048199794
 31
0.0
  0
LINE
  5
171A3
  8
1PHANTOM
 10
-1539.1525894031161
 20
-916.33309228198254
 30
0.0
 11
-1539.6525894031161
 21
-915.83309228198254
 31
0.0
  0
LINE
  5
171A4
  8
1PHANTOM
 10
-1534.1525894031161
 20
-916.33309228198254
 30
0.0
 11
-1539.1525894031161
 21
-916.33309228198254
 31
0.0
  0
LINE
  5
171A5
  8
1PHANTOM
 10
-1534.1525894031161
 20
-916.33309228198254
 30
0.0
 11
-1533.6525894031161
 21
-915.83309228198254
 31
0.0
  0
LINE
  5
171A6
  8
1PHANTOM
 10
-1533.652582422729
 20
-907.33309048199965
 30
0.0
 11
-1534.652582422731
 21
-906.83309228199846
 31
0.0
  0
LINE
  5
171A7
  8
1PHANTOM
 10
-1539.652582422729
 20
-907.33309048199794
 30
0.0
 11
-1538.652582422731
 21
-906.8330922819988
 31
0.0
  0
LINE
  5
171A8
  8
1PHANTOM
 10
-1538.652582422731
 20
-906.8330922819988
 30
0.0
 11
-1538.652568461946
 21
-904.33308948990975
 31
0.0
  0
ARC
  5
171A9
  8
1PHANTOM
 10
-1538.1525684619539
 20
-904.33309228206394
 30
0.0
 40
0.5
 50
90.0
 51
179.99968004269809
  0
LINE
  5
171AA
  8
1PHANTOM
 10
-1535.1525684619689
 20
-903.83309228206394
 30
0.0
 11
-1538.1525684619539
 21
-903.83309228206394
 31
0.0
  0
LINE
  5
171AB
  8
1PHANTOM
 10
-1523.62639258431
 20
-906.40193610891833
 30
0.0
 11
-1532.1525695326191
 21
-906.17867030806485
 31
0.0
  0
ARC
  5
171AC
  8
01
 10
-1560.65268928463
 20
-817.30825139954209
 30
0.0
 40
1.5
 50
359.99999999999352
 51
89.999999999635222
  0
ARC
  5
171AD
  8
01
 10
-1573.6526892846341
 20
-817.30825139945932
 30
0.0
 40
1.5
 50
89.999999999635222
 51
180.0
  0
LINE
  5
171AE
  8
01
 10
-1573.6526892846241
 20
-815.80825139945921
 30
0.0
 11
-1560.65268928462
 21
-815.80825139954197
 31
0.0
  0
LINE
  5
171AF
  8
1PHANTOM
 10
-1494.9525724300499
 20
-902.79544407415381
 30
0.0
 11
-1494.640802573799
 21
-902.20716749911082
 31
0.0
  0
LINE
  5
171B0
  8
1PHANTOM
 10
-1495.9040036605429
 20
-901.29028082590935
 30
0.0
 11
-1495.752567864102
 21
-900.83310898527793
 31
0.0
  0
LINE
  5
171B1
  8
1PHANTOM
 10
-1495.752567864102
 20
-900.83310898527793
 30
0.0
 11
-1494.9525724300499
 21
-902.79544407415381
 31
0.0
  0
LINE
  5
171B2
  8
1PHANTOM
 10
-1496.5525734836569
 20
-903.24825817856038
 30
0.0
 11
-1496.369809341028
 21
-902.6965087147571
 31
0.0
  0
LINE
  5
171B3
  8
1PHANTOM
 10
-1504.5525750640661
 20
-903.92747933517126
 30
0.0
 11
-1504.4525739006669
 21
-903.42747933517126
 31
0.0
  0
LINE
  5
171B4
  8
1PHANTOM
 10
-1506.152575064064
 20
-903.92747933517126
 30
0.0
 11
-1506.0525739006671
 21
-903.42747933517126
 31
0.0
  0
LINE
  5
171B5
  8
1PHANTOM
 10
-1502.2525669202851
 20
-900.42747933517114
 30
0.0
 11
-1502.1525657568859
 21
-899.92747933517126
 31
0.0
  0
LINE
  5
171B6
  8
1PHANTOM
 10
-1502.9525750640651
 20
-903.92747933517126
 30
0.0
 11
-1502.8525739006679
 21
-903.42747933517126
 31
0.0
  0
LINE
  5
171B7
  8
1PHANTOM
 10
-1501.3525750640649
 20
-903.92747933517126
 30
0.0
 11
-1501.252573900668
 21
-903.42747933517126
 31
0.0
  0
LINE
  5
171B8
  8
1PHANTOM
 10
-1502.1525657568859
 20
-899.92747933517126
 30
0.0
 11
-1501.3525750640649
 21
-903.92747933517126
 31
0.0
  0
LINE
  5
171B9
  8
1PHANTOM
 10
-1508.552565756888
 20
-899.92747933517126
 30
0.0
 11
-1507.7525750640641
 21
-903.92747933517126
 31
0.0
  0
LINE
  5
171BA
  8
1PHANTOM
 10
-1510.1525657568859
 20
-899.92747933517126
 30
0.0
 11
-1509.3525750640681
 21
-903.92747933517126
 31
0.0
  0
LINE
  5
171BB
  8
1PHANTOM
 10
-1510.2525669202851
 20
-900.42747933517114
 30
0.0
 11
-1510.1525657568859
 21
-899.92747933517126
 31
0.0
  0
LINE
  5
171BC
  8
1PHANTOM
 10
-1508.6525669202849
 20
-900.42747933517114
 30
0.0
 11
-1508.552565756888
 21
-899.92747933517126
 31
0.0
  0
LINE
  5
171BD
  8
1PHANTOM
 10
-1510.9525750640689
 20
-903.92747933517126
 30
0.0
 11
-1510.852573900672
 21
-903.42747933517126
 31
0.0
  0
LINE
  5
171BE
  8
1PHANTOM
 10
-1507.7525750640641
 20
-903.92747933517126
 30
0.0
 11
-1507.652573900667
 21
-903.42747933517126
 31
0.0
  0
LINE
  5
171BF
  8
1PHANTOM
 10
-1509.3525750640681
 20
-903.92747933517126
 30
0.0
 11
-1509.2525739006719
 21
-903.42747933517126
 31
0.0
  0
LINE
  5
171C0
  8
1PHANTOM
 10
-1507.0525669202841
 20
-900.42747933517114
 30
0.0
 11
-1506.952565756887
 21
-899.92747933517126
 31
0.0
  0
LINE
  5
171C1
  8
1PHANTOM
 10
-1503.752565756887
 20
-899.92747933517126
 30
0.0
 11
-1502.9525750640651
 21
-903.92747933517126
 31
0.0
  0
LINE
  5
171C2
  8
1PHANTOM
 10
-1503.8525669202841
 20
-900.42747933517114
 30
0.0
 11
-1503.752565756887
 21
-899.92747933517126
 31
0.0
  0
LINE
  5
171C3
  8
1PHANTOM
 10
-1505.452566920284
 20
-900.42747933517114
 30
0.0
 11
-1505.3525657568871
 21
-899.92747933517126
 31
0.0
  0
LINE
  5
171C4
  8
1PHANTOM
 10
-1505.3525657568871
 20
-899.92747933517126
 30
0.0
 11
-1504.5525750640661
 21
-903.92747933517126
 31
0.0
  0
LINE
  5
171C5
  8
1PHANTOM
 10
-1506.952565756887
 20
-899.92747933517126
 30
0.0
 11
-1506.152575064064
 21
-903.92747933517126
 31
0.0
  0
LINE
  5
171C6
  8
1PHANTOM
 10
-1497.465336322847
 20
-900.84839393238019
 30
0.0
 11
-1497.3525668104969
 21
-900.38029547722965
 31
0.0
  0
LINE
  5
171C7
  8
1PHANTOM
 10
-1499.0525669202841
 20
-900.42747933517114
 30
0.0
 11
-1498.952565756887
 21
-899.92747933517126
 31
0.0
  0
LINE
  5
171C8
  8
1PHANTOM
 10
-1498.952565756887
 20
-899.92747933517126
 30
0.0
 11
-1498.152574537263
 21
-903.70107228296695
 31
0.0
  0
LINE
  5
171C9
  8
1PHANTOM
 10
-1498.152574537263
 20
-903.70107228296695
 30
0.0
 11
-1498.023303839632
 21
-903.16447854769626
 31
0.0
  0
LINE
  5
171CA
  8
1PHANTOM
 10
-1500.6525669202849
 20
-900.42747933517114
 30
0.0
 11
-1500.552565756888
 21
-899.92747933517126
 31
0.0
  0
LINE
  5
171CB
  8
1PHANTOM
 10
-1500.552565756888
 20
-899.92747933517126
 30
0.0
 11
-1499.7525750640641
 21
-903.92747933517126
 31
0.0
  0
LINE
  5
171CC
  8
1PHANTOM
 10
-1499.7525750640641
 20
-903.92747933517126
 30
0.0
 11
-1499.652573900667
 21
-903.42747933517126
 31
0.0
  0
LINE
  5
171CD
  8
1PHANTOM
 10
-1497.3525668104969
 20
-900.38029547722965
 30
0.0
 11
-1496.5525734836569
 21
-903.24825817856038
 31
0.0
  0
LINE
  5
171CE
  8
1PHANTOM
 10
-1493.6525704104231
 20
-901.92747933517126
 30
0.0
 11
-1498.952566920284
 21
-900.42747933517114
 31
0.0
  0
LINE
  5
171CF
  8
1PHANTOM
 10
-1493.6525704104231
 20
-901.92747933517126
 30
0.0
 11
-1498.952573900669
 21
-903.42747933517126
 31
0.0
  0
LINE
  5
171D0
  8
01
 10
-1664.6525695325181
 20
-724.80813164743881
 30
0.0
 11
-1620.652569532519
 21
-724.80813164743881
 31
0.0
  0
LINE
  5
171D1
  8
01
 10
-1665.6525695325211
 20
-720.8081316474387
 30
0.0
 11
-1619.6525695325181
 21
-720.8081316474387
 31
0.0
  0
LINE
  5
171D2
  8
01
 10
-1658.639422113265
 20
-724.80813164743915
 30
0.0
 11
-1626.6657169517921
 21
-724.80813164743824
 31
0.0
  0
LINE
  5
171D3
  8
01
 10
-1629.3525695325261
 20
-724.80813164743881
 30
0.0
 11
-1655.9525695325281
 21
-724.80813164743881
 31
0.0
  0
ARC
  5
171D4
  8
01
 10
-1664.6525695325181
 20
-723.80813164743881
 30
0.0
 40
1.0
 50
180.0000000000195
 51
270.0
  0
LINE
  5
171D5
  8
01
 10
-1665.6525695325181
 20
-723.80813164743915
 30
0.0
 11
-1665.6525695325211
 21
-720.8081316474387
 31
0.0
  0
ARC
  5
171D6
  8
01
 10
-1620.652569532519
 20
-723.80813164743881
 30
0.0
 40
1.0
 50
270.0
 51
0.0
  0
LINE
  5
171D7
  8
01
 10
-1619.652569532519
 20
-723.80813164743881
 30
0.0
 11
-1619.6525695325181
 21
-720.8081316474387
 31
0.0
  0
LINE
  5
174BD
  8
1PHANTOM
 10
-1522.6525695326211
 20
-898.12743412419275
 30
0.0
 11
-1522.6525695326211
 21
-905.72743412421789
 31
0.0
  0
LINE
  5
174BE
  8
1PHANTOM
 10
-1522.6525695326211
 20
-907.40159343389371
 30
0.0
 11
-1522.6525695326211
 21
-909.8274269948904
 31
0.0
  0
LINE
  5
1751B
  8
1CENTER
 10
-1642.6525695325261
 20
-776.30813164743927
 30
0.0
 11
-1642.6525695325261
 21
-770.30813164743915
 31
0.0
  0
LINE
  5
1751C
  8
1CENTER
 10
-1645.6525695325261
 20
-773.30813164743915
 30
0.0
 11
-1639.6525695325261
 21
-773.30813164743915
 31
0.0
  0
LINE
  5
1751D
  8
1PHANTOM
 10
-1629.3525695325191
 20
-896.326853102629
 30
0.0
 11
-1629.352569532515
 21
-907.52685310262655
 31
0.0
  0
LINE
  5
1751E
  8
1PHANTOM
 10
-1655.952569532521
 20
-896.326853102629
 30
0.0
 11
-1655.952569532519
 21
-907.52685310262746
 31
0.0
  0
LINE
  5
1751F
  8
1PHANTOM
 10
-1653.1525097820449
 20
-910.32685310262798
 30
0.0
 11
-1632.1526292837791
 21
-910.32685310262798
 31
0.0
  0
ARC
  5
17520
  8
1PHANTOM
 10
-1653.1525695325199
 20
-907.52685310262689
 30
0.0
 40
2.7999999999999989
 50
179.99999999998039
 51
270.00122266073981
  0
ARC
  5
17521
  8
1PHANTOM
 10
-1632.1525695325161
 20
-907.52685310262689
 30
0.0
 40
2.7999999999999989
 50
269.99877732315809
 51
0.0000000000195413
  0
LINE
  5
17522
  8
1PHANTOM
 10
-1653.152509694881
 20
-893.52685310262973
 30
0.0
 11
-1632.1526293689531
 21
-893.52685310262973
 31
0.0
  0
POINT
  5
17523
  8
01
  6
BYBLOCK
 10
-1654.1524301685911
 20
-901.92685310263255
 30
0.0
  0
POINT
  5
17524
  8
01
  6
BYBLOCK
 10
-1649.152430168577
 20
-901.92685310263255
 30
0.0
  0
CIRCLE
  5
17525
  8
1PHANTOM
 10
-1651.652430168584
 20
-901.92685310263255
 30
0.0
 40
2.5000000000072751
  0
ARC
  5
17526
  8
1PHANTOM
 10
-1653.1525695325199
 20
-896.326853102629
 30
0.0
 40
2.7999999999999989
 50
89.998775555658042
 51
180.00000000000651
  0
LINE
  5
17527
  8
1PHANTOM
 10
-1646.2574096828339
 20
-900.63395988288278
 30
0.0
 11
-1644.066783071715
 21
-898.44333328946186
 31
0.0
  0
LINE
  5
17528
  8
1PHANTOM
 10
-1639.04772937649
 20
-900.63395988475224
 30
0.0
 11
-1641.238355946969
 21
-898.4433332965782
 31
0.0
  0
LINE
  5
17529
  8
1PHANTOM
 10
-1646.550302904503
 20
-901.34106666692264
 30
0.0
 11
-1646.550302904501
 21
-901.92685310263334
 31
0.0
  0
LINE
  5
1752A
  8
1PHANTOM
 10
-1638.7548361605329
 20
-901.34106666308298
 30
0.0
 11
-1638.7548361605311
 21
-901.92685310263255
 31
0.0
  0
ARC
  5
1752B
  8
1PHANTOM
 10
-1642.6525695325161
 20
-901.92685310263255
 30
0.0
 40
3.8977333719858498
 50
180.0
 51
0.0
  0
CIRCLE
  5
1752C
  8
1PHANTOM
 10
-1633.652708896456
 20
-901.92685310263255
 30
0.0
 40
2.5000000000072751
  0
ARC
  5
1752D
  8
1PHANTOM
 10
-1639.7548361605329
 20
-901.34106666308298
 30
0.0
 40
1.0
 50
0.0
 51
44.999999768588602
  0
ARC
  5
1752E
  8
1PHANTOM
 10
-1645.550302904503
 20
-901.34106666692492
 30
0.0
 40
1.0
 50
134.99999976861159
 51
179.99999999986969
  0
ARC
  5
1752F
  8
1PHANTOM
 10
-1632.1525695325161
 20
-896.326853102629
 30
0.0
 40
2.7999999999999989
 50
359.99999999999352
 51
90.001224419745938
  0
ARC
  5
17530
  8
1PHANTOM
 10
-1642.6525695129001
 20
-899.85754685539257
 30
0.0
 40
2.0
 50
44.99999985583883
 51
134.9999998558618
  0
LINE
  5
17531
  8
1CENTER
 10
-1633.652708896456
 20
-904.92685310263255
 30
0.0
 11
-1633.652708896456
 21
-898.92685310263255
 31
0.0
  0
LINE
  5
17532
  8
1CENTER
 10
-1636.652708896456
 20
-901.92685310263255
 30
0.0
 11
-1630.6527088964549
 21
-901.92685310263255
 31
0.0
  0
LINE
  5
17533
  8
1CENTER
 10
-1651.652430168584
 20
-904.92685310263255
 30
0.0
 11
-1651.652430168584
 21
-898.92685310263255
 31
0.0
  0
LINE
  5
17534
  8
1CENTER
 10
-1654.652430168584
 20
-901.92685310263255
 30
0.0
 11
-1648.652430168584
 21
-901.92685310263255
 31
0.0
  0
TEXT
  5
1782B
  8
1DIM
 10
-1700.4126871322881
 20
-908.41034732517596
 30
0.0
 40
3.5
  1
材質：真鍮
  0
TEXT
  5
1782C
  8
1DIM
 10
-1712.7793537989551
 20
-914.24368065850933
 30
0.0
 40
3.5
  1
仕上げ：クローム
  0
SOLID
  5
1782D
  8
1DIM
 10
-1661.6289827467299
 20
-886.29550155096672
 30
0.0
 11
-1660.346020465621
 21
-884.72543184029723
 31
0.0
 12
-1661.050421636183
 22
-886.62672879291188
 32
0.0
 13
-1661.050421636183
 23
-886.62672879291188
 33
0.0
  0
TEXT
  5
1782F
  8
1DIM
 10
-1722.3388883538551
 20
-929.14161850260052
 30
0.0
 40
3.5
  1
材質：亜鉛ダイキャスト
  0
TEXT
  5
17830
  8
1DIM
 10
-1710.2055550205221
 20
-934.97495183593378
 30
0.0
 40
3.5
  1
仕上げ：クローム
  0
SOLID
  5
17831
  8
1DIM
 10
-1659.055183968298
 20
-907.02677272839117
 30
0.0
 11
-1657.7722216871889
 21
-905.45670301772168
 31
0.0
 12
-1658.47662285775
 22
-907.35799997033644
 32
0.0
 13
-1658.47662285775
 23
-907.35799997033644
 33
0.0
  0
TEXT
  5
17833
  8
1DIM
 10
-1686.526679511735
 20
-845.51317919263386
 30
0.0
 40
3.5
  1
材質：真鍮
  0
TEXT
  5
17834
  8
1DIM
 10
-1698.893346178402
 20
-851.34651252596723
 30
0.0
 40
3.5
  1
仕上げ：クローム
  0
SOLID
  5
17835
  8
1DIM
 10
-1647.742975126178
 20
-823.39833341842484
 30
0.0
 11
-1646.4600128450679
 21
-821.82826370775513
 31
0.0
 12
-1647.16441401563
 22
-823.72956066037
 32
0.0
 13
-1647.16441401563
 23
-823.72956066037
 33
0.0
  0
LINE
  5
17837
  8
1DIM
 10
-1630.6527088964549
 20
-901.92685310263255
 30
0.0
 11
-1598.6525695325149
 21
-901.92685310263255
 31
0.0
  0
LINE
  5
17838
  8
1DIM
 10
-1636.152569532514
 20
-815.80767399502724
 30
0.0
 11
-1598.6525695325149
 21
-815.80767399502724
 31
0.0
  0
LINE
  5
17839
  8
1DIM
 10
-1599.6525695325149
 20
-899.92685310263255
 30
0.0
 11
-1599.6525695325149
 21
-817.80767399502724
 31
0.0
  0
LINE
  5
1783D
  8
1DIM
 10
-1514.652569532522
 20
-855.47743177908785
 30
0.0
 11
-1514.652569532522
 21
-794.80825139954197
 31
0.0
  0
LINE
  5
1783E
  8
1DIM
 10
-1579.6525695325211
 20
-890.8082513994807
 30
0.0
 11
-1579.6525695325211
 21
-794.80825139954197
 31
0.0
  0
LINE
  5
1783F
  8
1DIM
 10
-1516.652569532522
 20
-795.80825139954209
 30
0.0
 11
-1577.6525695325211
 21
-795.80825139954209
 31
0.0
  0
LINE
  5
17843
  8
1DIM
 10
-1514.652569532522
 20
-855.47743177908785
 30
0.0
 11
-1514.652569532522
 21
-804.80825139954209
 31
0.0
  0
LINE
  5
17844
  8
1DIM
 10
-1567.1526892846221
 20
-815.80825139950059
 30
0.0
 11
-1567.1526892846221
 21
-804.80825139954209
 31
0.0
  0
LINE
  5
17845
  8
1DIM
 10
-1516.652569532522
 20
-805.80825139954209
 30
0.0
 11
-1565.1526892846221
 21
-805.80825139954209
 31
0.0
  0
LINE
  5
17849
  8
1DIM
 10
-1658.665716951793
 20
-784.80825139954209
 30
0.0
 11
-1658.665716951793
 21
-796.80825139954209
 31
0.0
  0
LINE
  5
1784A
  8
1DIM
 10
-1626.6657169517921
 20
-784.80825139954209
 30
0.0
 11
-1626.6657169517921
 21
-796.80825139954209
 31
0.0
  0
LINE
  5
1784B
  8
1DIM
 10
-1656.665716951793
 20
-795.80825139954209
 30
0.0
 11
-1628.665716951791
 21
-795.80825139954209
 31
0.0
  0
LINE
  5
1784F
  8
1DIM
 10
-1665.6525695325111
 20
-925.22685437453276
 30
0.0
 11
-1665.6525695325111
 21
-947.22685437453163
 31
0.0
  0
LINE
  5
17850
  8
1DIM
 10
-1619.652569532522
 20
-925.22685437453185
 30
0.0
 11
-1619.652569532522
 21
-947.22685437453163
 31
0.0
  0
LINE
  5
17851
  8
1DIM
 10
-1663.6525695325111
 20
-946.22685437453174
 30
0.0
 11
-1621.6525695325211
 21
-946.22685437453174
 31
0.0
  0
LINE
  5
17855
  8
1DIM
 10
-1651.652430168584
 20
-904.92685310263255
 30
0.0
 11
-1651.652430168584
 21
-937.22685437453174
 31
0.0
  0
LINE
  5
17856
  8
1DIM
 10
-1633.652708896456
 20
-904.92685310263255
 30
0.0
 11
-1633.652708896456
 21
-937.22685437453174
 31
0.0
  0
LINE
  5
17857
  8
1DIM
 10
-1649.652430168584
 20
-936.22685437453174
 30
0.0
 11
-1635.652708896456
 21
-936.22685437453174
 31
0.0
  0
LINE
  5
1785B
  8
1DIM
 10
-1636.152569532514
 20
-815.80767399502724
 30
0.0
 11
-1588.993311269631
 21
-815.80767399502724
 31
0.0
  0
LINE
  5
1785C
  8
1DIM
 10
-1620.652569532522
 20
-926.22685437453163
 30
0.0
 11
-1588.993311269631
 21
-926.22685437453163
 31
0.0
  0
LINE
  5
1785D
  8
1DIM
 10
-1589.993311269631
 20
-817.80767399502724
 30
0.0
 11
-1589.993311269631
 21
-924.2268543745314
 31
0.0
  0
LINE
  5
17861
  8
1DIM
 10
-1636.152569532514
 20
-815.80767399502724
 30
0.0
 11
-1608.6525695325149
 21
-815.80767399502724
 31
0.0
  0
LINE
  5
17862
  8
1DIM
 10
-1627.6525695325161
 20
-889.61717212423457
 30
0.0
 11
-1608.6525695325149
 21
-889.61717212423457
 31
0.0
  0
LINE
  5
17863
  8
1DIM
 10
-1609.6525695325149
 20
-817.80767399502724
 30
0.0
 11
-1609.6525695325149
 21
-887.61717212423457
 31
0.0
  0
LINE
  5
17867
  8
1DIM
 10
-1514.652569532522
 20
-879.72743177908808
 30
0.0
 11
-1463.652569532522
 21
-879.72743177908808
 31
0.0
  0
LINE
  5
17868
  8
1DIM
 10
-1514.652569532522
 20
-926.22743177907876
 30
0.0
 11
-1463.652569532522
 21
-926.22743177907876
 31
0.0
  0
LINE
  5
17869
  8
1DIM
 10
-1464.652569532522
 20
-881.72743177908819
 30
0.0
 11
-1464.652569532522
 21
-924.22743177907853
 31
0.0
  0
LINE
  5
1786D
  8
1DIM
 10
-1650.652569532527
 20
-817.30767399494493
 30
0.0
 11
-1650.652569532527
 21
-804.8076739950277
 31
0.0
  0
LINE
  5
1786E
  8
1DIM
 10
-1634.652569532524
 20
-817.30767399494493
 30
0.0
 11
-1634.652569532524
 21
-804.8076739950277
 31
0.0
  0
LINE
  5
1786F
  8
1DIM
 10
-1648.652569532527
 20
-805.80767399502759
 30
0.0
 11
-1636.652569532524
 21
-805.80767399502759
 31
0.0
  0
LINE
  5
17873
  8
1DIM
 10
-1514.652569532522
 20
-879.72743177908808
 30
0.0
 11
-1473.652569532522
 21
-879.72743177908808
 31
0.0
  0
LINE
  5
17874
  8
1DIM
 10
-1492.507824633866
 20
-901.92743177893215
 30
0.0
 11
-1473.652569532522
 21
-901.92743177893215
 31
0.0
  0
LINE
  5
17875
  8
1DIM
 10
-1474.652569532522
 20
-881.72743177908819
 30
0.0
 11
-1474.652569532522
 21
-899.92743177893192
 31
0.0
  0
LINE
  5
17879
  8
1DIM
 10
-1536.6525695325081
 20
-917.26711403096829
 30
0.0
 11
-1536.6525695325081
 21
-937.22743177907864
 31
0.0
  0
LINE
  5
1787A
  8
1DIM
 10
-1514.652569532522
 20
-935.47743177908751
 30
0.0
 11
-1514.652569532522
 21
-937.22743177907864
 31
0.0
  0
LINE
  5
1787B
  8
1DIM
 10
-1534.6525695325081
 20
-936.22743177907864
 30
0.0
 11
-1516.652569532522
 21
-936.22743177907864
 31
0.0
  0
TEXT
  5
1787F
  8
1HATCH
 10
-1509.52368481659
 20
-836.43558897242394
 30
0.0
 40
3.5
  1
PB
  0
SOLID
  5
17880
  8
1HATCH
 10
-1508.6417249263691
 20
-854.33870203094057
 30
0.0
 11
-1508.5988174369029
 21
-856.36583548941314
 31
0.0
 12
-1509.2968542918491
 22
-854.46219275500937
 32
0.0
 13
-1509.2968542918491
 23
-854.46219275500937
 33
0.0
  0
SOLID
  5
17882
  8
1DIM
 10
-1500.5556338924171
 20
-854.34273650621287
 30
0.0
 11
-1500.1008352229619
 21
-856.31865889369999
 31
0.0
 12
-1501.1718898737929
 22
-854.59704539292704
 32
0.0
 13
-1501.1718898737929
 23
-854.59704539292704
 33
0.0
  0
TEXT
  5
17884
  8
1DIM
 10
-1503.3563403220519
 20
-841.18693498954792
 30
0.0
 40
3.5
  1
合板9mm以上
  0
LINE
  5
17885
  8
1DIM
 10
-1500.8637618831051
 20
-854.46989094956996
 30
0.0
 11
-1506.056340322051
 21
-841.88693498954785
 31
0.0
  0
LINE
  5
17886
  8
1DIM
 10
-1506.056340322051
 20
-841.88693498954785
 30
0.0
 11
-1474.1563403220509
 21
-841.88693498954785
 31
0.0
  0
LINE
  5
17887
  8
1HATCH
 10
-1508.969289609109
 20
-854.40044739297491
 30
0.0
 11
-1512.2236848165901
 21
-837.13558897242399
 31
0.0
  0
LINE
  5
17888
  8
1HATCH
 10
-1512.2236848165901
 20
-837.13558897242399
 30
0.0
 11
-1503.690351483257
 21
-837.13558897242399
 31
0.0
  0
TEXT
  5
17889
  8
1DIM
 10
-1528.5692361991819
 20
-935.52743177907848
 30
0.0
 40
3.5
  1
22 
  0
LINE
  5
1788A
  8
0
  6
BYBLOCK
 10
-1516.652569532522
 20
-935.69153339907859
 30
0.0
 11
-1514.652569532522
 21
-936.22743177907864
 31
0.0
  0
LINE
  5
1788B
  8
0
  6
BYBLOCK
 10
-1514.652569532522
 20
-936.22743177907864
 30
0.0
 11
-1516.652569532522
 21
-936.76333015907869
 31
0.0
  0
LINE
  5
1788C
  8
0
  6
BYBLOCK
 10
-1514.652569532522
 20
-936.22743177907864
 30
0.0
 11
-1516.652569532522
 21
-936.22743177907864
 31
0.0
  0
LINE
  5
1788D
  8
0
  6
BYBLOCK
 10
-1534.6525695325081
 20
-936.76333015907869
 30
0.0
 11
-1536.6525695325081
 21
-936.22743177907864
 31
0.0
  0
LINE
  5
1788E
  8
0
  6
BYBLOCK
 10
-1536.6525695325081
 20
-936.22743177907864
 30
0.0
 11
-1534.6525695325081
 21
-935.69153339907859
 31
0.0
  0
LINE
  5
1788F
  8
0
  6
BYBLOCK
 10
-1536.6525695325081
 20
-936.22743177907864
 30
0.0
 11
-1534.6525695325081
 21
-936.22743177907864
 31
0.0
  0
TEXT
  5
17890
  8
1DIM
 10
-1475.352569532522
 20
-893.74409844567685
 30
0.0
 40
3.5
  1
22 
 50
90.0
  0
LINE
  5
17891
  8
0
  6
BYBLOCK
 10
-1474.116671152522
 20
-899.92743177893192
 30
0.0
 11
-1474.652569532522
 21
-901.92743177893215
 31
0.0
  0
LINE
  5
17892
  8
0
  6
BYBLOCK
 10
-1474.652569532522
 20
-901.92743177893215
 30
0.0
 11
-1475.1884679125219
 21
-899.92743177893192
 31
0.0
  0
LINE
  5
17893
  8
0
  6
BYBLOCK
 10
-1474.652569532522
 20
-901.92743177893215
 30
0.0
 11
-1474.652569532522
 21
-899.92743177893192
 31
0.0
  0
LINE
  5
17894
  8
0
  6
BYBLOCK
 10
-1475.1884679125219
 20
-881.72743177908819
 30
0.0
 11
-1474.652569532522
 21
-879.72743177908808
 31
0.0
  0
LINE
  5
17895
  8
0
  6
BYBLOCK
 10
-1474.652569532522
 20
-879.72743177908808
 30
0.0
 11
-1474.116671152522
 21
-881.72743177908819
 31
0.0
  0
LINE
  5
17896
  8
0
  6
BYBLOCK
 10
-1474.652569532522
 20
-879.72743177908808
 30
0.0
 11
-1474.652569532522
 21
-881.72743177908819
 31
0.0
  0
TEXT
  5
17897
  8
1DIM
 10
-1647.435902865858
 20
-805.10767399502765
 30
0.0
 40
3.5
  1
φ16
  0
LINE
  5
17898
  8
0
  6
BYBLOCK
 10
-1636.652569532524
 20
-805.27177561502765
 30
0.0
 11
-1634.652569532524
 21
-805.80767399502759
 31
0.0
  0
LINE
  5
17899
  8
0
  6
BYBLOCK
 10
-1634.652569532524
 20
-805.80767399502759
 30
0.0
 11
-1636.652569532524
 21
-806.34357237502775
 31
0.0
  0
LINE
  5
1789A
  8
0
  6
BYBLOCK
 10
-1634.652569532524
 20
-805.80767399502759
 30
0.0
 11
-1636.652569532524
 21
-805.80767399502759
 31
0.0
  0
LINE
  5
1789B
  8
0
  6
BYBLOCK
 10
-1648.652569532527
 20
-806.34357237502775
 30
0.0
 11
-1650.652569532527
 21
-805.80767399502759
 31
0.0
  0
LINE
  5
1789C
  8
0
  6
BYBLOCK
 10
-1650.652569532527
 20
-805.80767399502759
 30
0.0
 11
-1648.652569532527
 21
-805.27177561502765
 31
0.0
  0
LINE
  5
1789D
  8
0
  6
BYBLOCK
 10
-1650.652569532527
 20
-805.80767399502759
 30
0.0
 11
-1648.652569532527
 21
-805.80767399502759
 31
0.0
  0
TEXT
  5
1789E
  8
1DIM
 10
-1465.352569532522
 20
-908.22743177908364
 30
0.0
 40
3.5
  1
46.5 
 50
90.0
  0
LINE
  5
1789F
  8
0
  6
BYBLOCK
 10
-1464.116671152522
 20
-924.22743177907853
 30
0.0
 11
-1464.652569532522
 21
-926.22743177907876
 31
0.0
  0
LINE
  5
178A0
  8
0
  6
BYBLOCK
 10
-1464.652569532522
 20
-926.22743177907876
 30
0.0
 11
-1465.1884679125219
 21
-924.22743177907853
 31
0.0
  0
LINE
  5
178A1
  8
0
  6
BYBLOCK
 10
-1464.652569532522
 20
-926.22743177907876
 30
0.0
 11
-1464.652569532522
 21
-924.22743177907853
 31
0.0
  0
LINE
  5
178A2
  8
0
  6
BYBLOCK
 10
-1465.1884679125219
 20
-881.72743177908819
 30
0.0
 11
-1464.652569532522
 21
-879.72743177908808
 31
0.0
  0
LINE
  5
178A3
  8
0
  6
BYBLOCK
 10
-1464.652569532522
 20
-879.72743177908808
 30
0.0
 11
-1464.116671152522
 21
-881.72743177908819
 31
0.0
  0
LINE
  5
178A4
  8
0
  6
BYBLOCK
 10
-1464.652569532522
 20
-879.72743177908808
 30
0.0
 11
-1464.652569532522
 21
-881.72743177908819
 31
0.0
  0
TEXT
  5
178A5
  8
1DIM
 10
-1610.352569532515
 20
-855.62908972629793
 30
0.0
 40
3.5
  1
74 
 50
90.0
  0
LINE
  5
178A6
  8
0
  6
BYBLOCK
 10
-1609.116671152515
 20
-887.61717212423457
 30
0.0
 11
-1609.6525695325149
 21
-889.61717212423457
 31
0.0
  0
LINE
  5
178A7
  8
0
  6
BYBLOCK
 10
-1609.6525695325149
 20
-889.61717212423457
 30
0.0
 11
-1610.1884679125151
 21
-887.61717212423457
 31
0.0
  0
LINE
  5
178A8
  8
0
  6
BYBLOCK
 10
-1609.6525695325149
 20
-889.61717212423457
 30
0.0
 11
-1609.6525695325149
 21
-887.61717212423457
 31
0.0
  0
LINE
  5
178A9
  8
0
  6
BYBLOCK
 10
-1610.1884679125151
 20
-817.80767399502724
 30
0.0
 11
-1609.6525695325149
 21
-815.80767399502724
 31
0.0
  0
LINE
  5
178AA
  8
0
  6
BYBLOCK
 10
-1609.6525695325149
 20
-815.80767399502724
 30
0.0
 11
-1609.116671152515
 21
-817.80767399502724
 31
0.0
  0
LINE
  5
178AB
  8
0
  6
BYBLOCK
 10
-1609.6525695325149
 20
-815.80767399502724
 30
0.0
 11
-1609.6525695325149
 21
-817.80767399502724
 31
0.0
  0
TEXT
  5
178AC
  8
1DIM
 10
-1590.6933112696299
 20
-876.55893085144623
 30
0.0
 40
3.5
  1
110.5
 50
90.0
  0
LINE
  5
178AD
  8
0
  6
BYBLOCK
 10
-1589.4574128896311
 20
-924.2268543745314
 30
0.0
 11
-1589.993311269631
 21
-926.22685437453163
 31
0.0
  0
LINE
  5
178AE
  8
0
  6
BYBLOCK
 10
-1589.993311269631
 20
-926.22685437453163
 30
0.0
 11
-1590.529209649631
 21
-924.2268543745314
 31
0.0
  0
LINE
  5
178AF
  8
0
  6
BYBLOCK
 10
-1589.993311269631
 20
-926.22685437453163
 30
0.0
 11
-1589.993311269631
 21
-924.2268543745314
 31
0.0
  0
LINE
  5
178B0
  8
0
  6
BYBLOCK
 10
-1590.529209649631
 20
-817.80767399502724
 30
0.0
 11
-1589.993311269631
 21
-815.80767399502724
 31
0.0
  0
LINE
  5
178B1
  8
0
  6
BYBLOCK
 10
-1589.993311269631
 20
-815.80767399502724
 30
0.0
 11
-1589.4574128896311
 21
-817.80767399502724
 31
0.0
  0
LINE
  5
178B2
  8
0
  6
BYBLOCK
 10
-1589.993311269631
 20
-815.80767399502724
 30
0.0
 11
-1589.993311269631
 21
-817.80767399502724
 31
0.0
  0
TEXT
  5
178B3
  8
1DIM
 10
-1644.9859028658529
 20
-935.52685437453169
 30
0.0
 40
3.5
  1
18 
  0
LINE
  5
178B4
  8
0
  6
BYBLOCK
 10
-1635.652708896456
 20
-935.69095599453158
 30
0.0
 11
-1633.652708896456
 21
-936.22685437453174
 31
0.0
  0
LINE
  5
178B5
  8
0
  6
BYBLOCK
 10
-1633.652708896456
 20
-936.22685437453174
 30
0.0
 11
-1635.652708896456
 21
-936.76275275453179
 31
0.0
  0
LINE
  5
178B6
  8
0
  6
BYBLOCK
 10
-1633.652708896456
 20
-936.22685437453174
 30
0.0
 11
-1635.652708896456
 21
-936.22685437453174
 31
0.0
  0
LINE
  5
178B7
  8
0
  6
BYBLOCK
 10
-1649.652430168584
 20
-936.76275275453179
 30
0.0
 11
-1651.652430168584
 21
-936.22685437453174
 31
0.0
  0
LINE
  5
178B8
  8
0
  6
BYBLOCK
 10
-1651.652430168584
 20
-936.22685437453174
 30
0.0
 11
-1649.652430168584
 21
-935.69095599453158
 31
0.0
  0
LINE
  5
178B9
  8
0
  6
BYBLOCK
 10
-1651.652430168584
 20
-936.22685437453174
 30
0.0
 11
-1649.652430168584
 21
-936.22685437453174
 31
0.0
  0
TEXT
  5
178BA
  8
1DIM
 10
-1645.569236199183
 20
-945.52685437453169
 30
0.0
 40
3.5
  1
46 
  0
LINE
  5
178BB
  8
0
  6
BYBLOCK
 10
-1621.6525695325211
 20
-945.69095599453158
 30
0.0
 11
-1619.652569532522
 21
-946.22685437453174
 31
0.0
  0
LINE
  5
178BC
  8
0
  6
BYBLOCK
 10
-1619.652569532522
 20
-946.22685437453174
 30
0.0
 11
-1621.6525695325211
 21
-946.76275275453168
 31
0.0
  0
LINE
  5
178BD
  8
0
  6
BYBLOCK
 10
-1619.652569532522
 20
-946.22685437453174
 30
0.0
 11
-1621.6525695325211
 21
-946.22685437453174
 31
0.0
  0
LINE
  5
178BE
  8
0
  6
BYBLOCK
 10
-1663.6525695325111
 20
-946.76275275453168
 30
0.0
 11
-1665.6525695325111
 21
-946.22685437453174
 31
0.0
  0
LINE
  5
178BF
  8
0
  6
BYBLOCK
 10
-1665.6525695325111
 20
-946.22685437453174
 30
0.0
 11
-1663.6525695325111
 21
-945.69095599453158
 31
0.0
  0
LINE
  5
178C0
  8
0
  6
BYBLOCK
 10
-1665.6525695325111
 20
-946.22685437453174
 30
0.0
 11
-1663.6525695325111
 21
-946.22685437453174
 31
0.0
  0
TEXT
  5
178C1
  8
1DIM
 10
-1645.5823836184591
 20
-795.10825139954204
 30
0.0
 40
3.5
  1
32 
  0
LINE
  5
178C2
  8
0
  6
BYBLOCK
 10
-1628.665716951791
 20
-795.27235301954204
 30
0.0
 11
-1626.6657169517921
 21
-795.80825139954209
 31
0.0
  0
LINE
  5
178C3
  8
0
  6
BYBLOCK
 10
-1626.6657169517921
 20
-795.80825139954209
 30
0.0
 11
-1628.665716951791
 21
-796.34414977954214
 31
0.0
  0
LINE
  5
178C4
  8
0
  6
BYBLOCK
 10
-1626.6657169517921
 20
-795.80825139954209
 30
0.0
 11
-1628.665716951791
 21
-795.80825139954209
 31
0.0
  0
LINE
  5
178C5
  8
0
  6
BYBLOCK
 10
-1656.665716951793
 20
-796.34414977954214
 30
0.0
 11
-1658.665716951793
 21
-795.80825139954209
 31
0.0
  0
LINE
  5
178C6
  8
0
  6
BYBLOCK
 10
-1658.665716951793
 20
-795.80825139954209
 30
0.0
 11
-1656.665716951793
 21
-795.27235301954204
 31
0.0
  0
LINE
  5
178C7
  8
0
  6
BYBLOCK
 10
-1658.665716951793
 20
-795.80825139954209
 30
0.0
 11
-1656.665716951793
 21
-795.80825139954209
 31
0.0
  0
TEXT
  5
178C8
  8
1DIM
 10
-1546.152629408572
 20
-805.10825139954216
 30
0.0
 40
3.5
  1
52.5 
  0
LINE
  5
178C9
  8
0
  6
BYBLOCK
 10
-1565.1526892846221
 20
-806.34414977954214
 30
0.0
 11
-1567.1526892846221
 21
-805.80825139954209
 31
0.0
  0
LINE
  5
178CA
  8
0
  6
BYBLOCK
 10
-1567.1526892846221
 20
-805.80825139954209
 30
0.0
 11
-1565.1526892846221
 21
-805.27235301954204
 31
0.0
  0
LINE
  5
178CB
  8
0
  6
BYBLOCK
 10
-1567.1526892846221
 20
-805.80825139954209
 30
0.0
 11
-1565.1526892846221
 21
-805.80825139954209
 31
0.0
  0
LINE
  5
178CC
  8
0
  6
BYBLOCK
 10
-1516.652569532522
 20
-805.27235301954204
 30
0.0
 11
-1514.652569532522
 21
-805.80825139954209
 31
0.0
  0
LINE
  5
178CD
  8
0
  6
BYBLOCK
 10
-1514.652569532522
 20
-805.80825139954209
 30
0.0
 11
-1516.652569532522
 21
-806.34414977954214
 31
0.0
  0
LINE
  5
178CE
  8
0
  6
BYBLOCK
 10
-1514.652569532522
 20
-805.80825139954209
 30
0.0
 11
-1516.652569532522
 21
-805.80825139954209
 31
0.0
  0
TEXT
  5
178CF
  8
1DIM
 10
-1550.069236199188
 20
-795.10825139954204
 30
0.0
 40
3.5
  1
65 
  0
LINE
  5
178D0
  8
0
  6
BYBLOCK
 10
-1577.6525695325211
 20
-796.34414977954214
 30
0.0
 11
-1579.6525695325211
 21
-795.80825139954209
 31
0.0
  0
LINE
  5
178D1
  8
0
  6
BYBLOCK
 10
-1579.6525695325211
 20
-795.80825139954209
 30
0.0
 11
-1577.6525695325211
 21
-795.27235301954204
 31
0.0
  0
LINE
  5
178D2
  8
0
  6
BYBLOCK
 10
-1579.6525695325211
 20
-795.80825139954209
 30
0.0
 11
-1577.6525695325211
 21
-795.80825139954209
 31
0.0
  0
LINE
  5
178D3
  8
0
  6
BYBLOCK
 10
-1516.652569532522
 20
-795.27235301954204
 30
0.0
 11
-1514.652569532522
 21
-795.80825139954209
 31
0.0
  0
LINE
  5
178D4
  8
0
  6
BYBLOCK
 10
-1514.652569532522
 20
-795.80825139954209
 30
0.0
 11
-1516.652569532522
 21
-796.34414977954214
 31
0.0
  0
LINE
  5
178D5
  8
0
  6
BYBLOCK
 10
-1514.652569532522
 20
-795.80825139954209
 30
0.0
 11
-1516.652569532522
 21
-795.80825139954209
 31
0.0
  0
TEXT
  5
178D6
  8
1DIM
 10
-1600.352569532515
 20
-861.78393021549675
 30
0.0
 40
3.5
  1
86 
 50
90.0
  0
LINE
  5
178D7
  8
0
  6
BYBLOCK
 10
-1600.1884679125151
 20
-817.80767399502724
 30
0.0
 11
-1599.6525695325149
 21
-815.80767399502724
 31
0.0
  0
LINE
  5
178D8
  8
0
  6
BYBLOCK
 10
-1599.6525695325149
 20
-815.80767399502724
 30
0.0
 11
-1599.116671152515
 21
-817.80767399502724
 31
0.0
  0
LINE
  5
178D9
  8
0
  6
BYBLOCK
 10
-1599.6525695325149
 20
-815.80767399502724
 30
0.0
 11
-1599.6525695325149
 21
-817.80767399502724
 31
0.0
  0
LINE
  5
178DA
  8
0
  6
BYBLOCK
 10
-1599.116671152515
 20
-899.92685310263255
 30
0.0
 11
-1599.6525695325149
 21
-901.92685310263255
 31
0.0
  0
LINE
  5
178DB
  8
0
  6
BYBLOCK
 10
-1599.6525695325149
 20
-901.92685310263255
 30
0.0
 11
-1600.1884679125151
 21
-899.92685310263255
 31
0.0
  0
LINE
  5
178DC
  8
0
  6
BYBLOCK
 10
-1599.6525695325149
 20
-901.92685310263255
 30
0.0
 11
-1599.6525695325149
 21
-899.92685310263255
 31
0.0
  0
LINE
  5
178DD
  8
1DIM
 10
-1647.453694570904
 20
-823.56394703939725
 30
0.0
 11
-1663.7600128450681
 21
-852.04651252596716
 31
0.0
  0
LINE
  5
178DE
  8
1DIM
 10
-1663.7600128450681
 20
-852.04651252596716
 30
0.0
 11
-1699.1266795117349
 21
-852.04651252596716
 31
0.0
  0
LINE
  5
178DF
  8
1DIM
 10
-1658.765903413024
 20
-907.19238634936369
 30
0.0
 11
-1675.0722216871891
 21
-935.67495183593383
 31
0.0
  0
LINE
  5
178E0
  8
1DIM
 10
-1675.0722216871891
 20
-935.67495183593383
 30
0.0
 11
-1723.0388883538551
 21
-935.67495183593383
 31
0.0
  0
LINE
  5
178E1
  8
1DIM
 10
-1661.339702191457
 20
-886.46111517193935
 30
0.0
 11
-1677.6460204656209
 21
-914.94368065850927
 31
0.0
  0
LINE
  5
178E2
  8
1DIM
 10
-1677.6460204656209
 20
-914.94368065850927
 30
0.0
 11
-1713.012687132288
 21
-914.94368065850927
 31
0.0
  0
VIEWPORT
  5
57
 67
     1
  8
0
 10
-12.72041844153458
 20
10.091272240667189
 30
0.0
 40
426.46079642814578
 41
282.78276224279188
 68
     1
 69
     1
1001
ACAD
1000
MVIEW
1002
{
1070
    16
1010
0.0
1020
0.0
1030
0.0
1010
0.0
1020
0.0
1030
1.0
1040
0.0
1040
282.78276224279188
1040
-12.72041844153458
1040
10.091272240667189
1040
50.0
1040
0.0
1040
0.0
1070
     0
1070
   100
1070
     1
1070
     1
1070
     0
1070
     0
1070
     0
1070
     0
1040
0.0
1040
0.0
1040
0.0
1040
10.0
1040
10.0
1040
10.0
1040
10.0
1070
     0
1002
{
1002
}
1002
}
  0
ENDSEC
  0
EOF
