  0
SECTION
  2
HEADER
  9
$ACADVER
  1
AC1012
  9
$DWGCODEPAGE
  3
ansi_932
  9
$INSBASE
 10
0.0
 20
0.0
 30
0.0
  9
$EXTMIN
 10
-294.4541265141285
 20
-1028.89221501194
 30
0.0
  9
$EXTMAX
 10
446.2789592155136
 20
-831.6934591090851
 30
0.0
  9
$LIMMIN
 10
0.0
 20
0.0
  9
$LIMMAX
 10
420.0
 20
297.0
  9
$ORTHOMODE
 70
     0
  9
$REGENMODE
 70
     1
  9
$FILLMODE
 70
     1
  9
$QTEXTMODE
 70
     0
  9
$MIRRTEXT
 70
     0
  9
$DRAGMODE
 70
     2
  9
$LTSCALE
 40
0.5
  9
$OSMODE
 70
 14463
  9
$ATTMODE
 70
     1
  9
$TEXTSIZE
 40
4.0
  9
$TRACEWID
 40
1.0
  9
$TEXTSTYLE
  7
STANDARD
  9
$CLAYER
  8
1TEXT
  9
$CELTYPE
  6
BYLAYER
  9
$CECOLOR
 62
   256
  9
$CELTSCALE
 40
1.0
  9
$DELOBJ
 70
     1
  9
$DISPSILH
 70
     0
  9
$DIMSCALE
 40
1.0
  9
$DIMASZ
 40
2.0
  9
$DIMEXO
 40
0.0
  9
$DIMDLI
 40
7.0
  9
$DIMRND
 40
0.0
  9
$DIMDLE
 40
0.0
  9
$DIMEXE
 40
1.0
  9
$DIMTP
 40
0.0
  9
$DIMTM
 40
0.0
  9
$DIMTXT
 40
3.5
  9
$DIMCEN
 40
0.0
  9
$DIMTSZ
 40
0.0
  9
$DIMTOL
 70
     0
  9
$DIMLIM
 70
     0
  9
$DIMTIH
 70
     0
  9
$DIMTOH
 70
     0
  9
$DIMSE1
 70
     0
  9
$DIMSE2
 70
     0
  9
$DIMTAD
 70
     1
  9
$DIMZIN
 70
     8
  9
$DIMBLK
  1

  9
$DIMASO
 70
     1
  9
$DIMSHO
 70
     1
  9
$DIMPOST
  1
 
  9
$DIMAPOST
  1

  9
$DIMALT
 70
     0
  9
$DIMALTD
 70
     2
  9
$DIMALTF
 40
25.4
  9
$DIMLFAC
 40
1.0
  9
$DIMTOFL
 70
     1
  9
$DIMTVP
 40
0.0
  9
$DIMTIX
 70
     0
  9
$DIMSOXD
 70
     0
  9
$DIMSAH
 70
     1
  9
$DIMBLK1
  1
OPEN30
  9
$DIMBLK2
  1
OPEN30
  9
$DIMSTYLE
  2
NEWX10
  9
$DIMCLRD
 70
   256
  9
$DIMCLRE
 70
   256
  9
$DIMCLRT
 70
   201
  9
$DIMTFAC
 40
0.7
  9
$DIMGAP
 40
0.7
  9
$DIMJUST
 70
     0
  9
$DIMSD1
 70
     0
  9
$DIMSD2
 70
     0
  9
$DIMTOLJ
 70
     1
  9
$DIMTZIN
 70
     8
  9
$DIMALTZ
 70
     0
  9
$DIMALTTZ
 70
     0
  9
$DIMFIT
 70
     2
  9
$DIMUPT
 70
     0
  9
$DIMUNIT
 70
     2
  9
$DIMDEC
 70
     2
  9
$DIMTDEC
 70
     4
  9
$DIMALTU
 70
     2
  9
$DIMALTTD
 70
     2
  9
$DIMTXSTY
  7
STANDARD
  9
$DIMAUNIT
 70
     0
  9
$LUNITS
 70
     2
  9
$LUPREC
 70
     4
  9
$SKETCHINC
 40
1.0
  9
$FILLETRAD
 40
0.0
  9
$AUNITS
 70
     0
  9
$AUPREC
 70
     2
  9
$MENU
  1
acad
  9
$ELEVATION
 40
0.0
  9
$PELEVATION
 40
0.0
  9
$THICKNESS
 40
0.0
  9
$LIMCHECK
 70
     0
  9
$CHAMFERA
 40
1.0
  9
$CHAMFERB
 40
1.0
  9
$CHAMFERC
 40
20.0
  9
$CHAMFERD
 40
0.0
  9
$SKPOLY
 70
     0
  9
$TDCREATE
 40
2453033.732663484
  9
$TDUPDATE
 40
2458101.363768623
  9
$TDINDWG
 40
2.373615625
  9
$TDUSRTIMER
 40
2.373615625
  9
$USRTIMER
 70
     1
  9
$ANGBASE
 50
0.0
  9
$ANGDIR
 70
     0
  9
$PDMODE
 70
     0
  9
$PDSIZE
 40
0.0
  9
$PLINEWID
 40
0.0
  9
$COORDS
 70
     2
  9
$SPLFRAME
 70
     0
  9
$SPLINETYPE
 70
     6
  9
$SPLINESEGS
 70
     8
  9
$ATTDIA
 70
     0
  9
$ATTREQ
 70
     1
  9
$HANDLING
 70
     1
  9
$HANDSEED
  5
22226
  9
$SURFTAB1
 70
     6
  9
$SURFTAB2
 70
     6
  9
$SURFTYPE
 70
     6
  9
$SURFU
 70
     6
  9
$SURFV
 70
     6
  9
$UCSNAME
  2

  9
$UCSORG
 10
0.0
 20
0.0
 30
0.0
  9
$UCSXDIR
 10
1.0
 20
0.0
 30
0.0
  9
$UCSYDIR
 10
0.0
 20
1.0
 30
0.0
  9
$PUCSNAME
  2

  9
$PUCSORG
 10
0.0
 20
0.0
 30
0.0
  9
$PUCSXDIR
 10
1.0
 20
0.0
 30
0.0
  9
$PUCSYDIR
 10
0.0
 20
1.0
 30
0.0
  9
$USERI1
 70
     0
  9
$USERI2
 70
     0
  9
$USERI3
 70
     0
  9
$USERI4
 70
     0
  9
$USERI5
 70
     0
  9
$USERR1
 40
0.0
  9
$USERR2
 40
0.0
  9
$USERR3
 40
0.0
  9
$USERR4
 40
0.0
  9
$USERR5
 40
0.0
  9
$WORLDVIEW
 70
     1
  9
$SHADEDGE
 70
     3
  9
$SHADEDIF
 70
    70
  9
$TILEMODE
 70
     1
  9
$MAXACTVP
 70
    48
  9
$PINSBASE
 10
0.0
 20
0.0
 30
0.0
  9
$PLIMCHECK
 70
     0
  9
$PEXTMIN
 10
1.000000000000000E+20
 20
1.000000000000000E+20
 30
1.000000000000000E+20
  9
$PEXTMAX
 10
-1.000000000000000E+20
 20
-1.000000000000000E+20
 30
-1.000000000000000E+20
  9
$PLIMMIN
 10
0.0
 20
0.0
  9
$PLIMMAX
 10
420.0
 20
297.0
  9
$UNITMODE
 70
     0
  9
$VISRETAIN
 70
     1
  9
$PLINEGEN
 70
     0
  9
$PSLTSCALE
 70
     1
  9
$TREEDEPTH
 70
  3020
  9
$PICKSTYLE
 70
     0
  9
$CMLSTYLE
  2
STANDARD
  9
$CMLJUST
 70
     0
  9
$CMLSCALE
 40
20.0
  9
$SAVEIMAGES
 70
     1
  0
ENDSEC
  0
SECTION
  2
CLASSES
  0
CLASS
  1
DICTIONARYVAR
  2
AcDbDictionaryVar
  3
ObjectDBX Classes
 90
        0
280
     0
281
     0
  0
CLASS
  1
IDBUFFER
  2
AcDbIdBuffer
  3
ObjectDBX Classes
 90
    32768
280
     0
281
     0
  0
CLASS
  1
LWPOLYLINE
  2
AcDbPolyline
  3
ObjectDBX Classes
 90
    32768
280
     0
281
     1
  0
CLASS
  1
ACDBDICTIONARYWDFLT
  2
AcDbDictionaryWithDefault
  3
ObjectDBX Classes
 90
    32768
280
     0
281
     0
  0
CLASS
  1
ACDBPLACEHOLDER
  2
AcDbPlaceHolder
  3
ObjectDBX Classes
 90
        0
280
     0
281
     0
  0
CLASS
  1
LAYOUT
  2
AcDbLayout
  3
ObjectDBX Classes
 90
        0
280
     0
281
     0
  0
CLASS
  1
TABLESTYLE
  2
AcDbTableStyle
  3
ObjectDBX Classes
 90
     4095
280
     0
281
     0
  0
CLASS
  1
SORTENTSTABLE
  2
AcDbSortentsTable
  3
ObjectDBX Classes
 90
    32768
280
     0
281
     0
  0
CLASS
  1
DIMASSOC
  2
AcDbDimAssoc
  3
"AcDbDimAssoc|Product Desc:     AcDim ARX App For Dimension|Company:          Autodesk, Inc.|WEB Address:      www.autodesk.com"
 90
        0
280
     0
281
     0
  0
CLASS
  1
MATERIAL
  2
AcDbMaterial
  3
ObjectDBX Classes
 90
     1153
280
     0
281
     0
  0
CLASS
  1
VISUALSTYLE
  2
AcDbVisualStyle
  3
ObjectDBX Classes
 90
     4095
280
     0
281
     0
  0
CLASS
  1
SCALE
  2
AcDbScale
  3
ObjectDBX Classes
 90
     1153
280
     0
281
     0
  0
CLASS
  1
MLEADERSTYLE
  2
AcDbMLeaderStyle
  3
ACDB_MLEADERSTYLE_CLASS
 90
     4095
280
     0
281
     0
  0
CLASS
  1
CELLSTYLEMAP
  2
AcDbCellStyleMap
  3
ObjectDBX Classes
 90
     1152
280
     0
281
     0
  0
CLASS
  1
EXACXREFPANELOBJECT
  2
ExAcXREFPanelObject
  3
EXAC_ESW
 90
     1025
280
     1
281
     0
  0
CLASS
  1
NPOCOLLECTION
  2
AcDbImpNonPersistentObjectsCollection
  3
ObjectDBX Classes
 90
     1153
280
     1
281
     0
  0
CLASS
  1
SUN
  2
AcDbSun
  3
SCENEOE
 90
     1153
280
     0
281
     0
  0
CLASS
  1
XRECORD
  2
AcDbXrecord
  3
ObjectDBX Classes
 90
    32768
280
     0
281
     0
  0
CLASS
  1
HATCH
  2
AcDbHatch
  3
ObjectDBX Classes
 90
    32768
280
     0
281
     1
  0
ENDSEC
  0
SECTION
  2
TABLES
  0
TABLE
  2
VPORT
  5
8
330
0
100
AcDbSymbolTable
 70
     1
  0
VPORT
  5
19DC2
330
8
100
AcDbSymbolTableRecord
100
AcDbViewportTableRecord
  2
*ACTIVE
 70
     0
 10
0.0
 20
0.0
 11
1.0
 21
1.0
 12
75.91241635069258
 22
-930.2928370605125
 13
0.0
 23
0.0
 14
10.0
 24
10.0
 15
10.0
 25
10.0
 16
0.0
 26
0.0
 36
1.0
 17
0.0
 27
0.0
 37
0.0
 40
424.9647238731472
 41
1.871481028151775
 42
50.0
 43
0.0
 44
0.0
 50
0.0
 51
0.0
 71
    16
 72
   100
 73
     1
 74
     1
 75
     0
 76
     0
 77
     0
 78
     0
  0
ENDTAB
  0
TABLE
  2
LTYPE
  5
5
330
0
100
AcDbSymbolTable
 70
     3
  0
LTYPE
  5
12
330
5
100
AcDbSymbolTableRecord
100
AcDbLinetypeTableRecord
  2
BYBLOCK
 70
     0
  3

 72
    65
 73
     0
 40
0.0
  0
LTYPE
  5
13
330
5
100
AcDbSymbolTableRecord
100
AcDbLinetypeTableRecord
  2
BYLAYER
 70
     0
  3

 72
    65
 73
     0
 40
0.0
  0
LTYPE
  5
14
330
5
100
AcDbSymbolTableRecord
100
AcDbLinetypeTableRecord
  2
CONTINUOUS
 70
     0
  3
Solid line
 72
    65
 73
     0
 40
0.0
  0
LTYPE
  5
26
330
5
100
AcDbSymbolTableRecord
100
AcDbLinetypeTableRecord
  2
CENTER2
 70
     0
  3
Center (.5x) ___ _ ___ _ ___ _ ___ _ ___ _ ___
 72
    65
 73
     4
 40
28.575
 49
19.05
 74
     0
 49
-3.175
 74
     0
 49
3.175
 74
     0
 49
-3.175
 74
     0
  0
LTYPE
  5
100
330
5
100
AcDbSymbolTableRecord
100
AcDbLinetypeTableRecord
  2
PHANTOM2
 70
     0
  3
Phantom (0.5x) ___ _ _ ___ _ _ ___ _ _ ___ _ _
 72
    65
 73
     6
 40
31.75
 49
15.875
 74
     0
 49
-3.175
 74
     0
 49
3.175
 74
     0
 49
-3.175
 74
     0
 49
3.175
 74
     0
 49
-3.175
 74
     0
  0
ENDTAB
  0
TABLE
  2
LAYER
  5
2
102
{ACAD_XDICTIONARY
360
18FE8
102
}
330
0
100
AcDbSymbolTable
 70
     8
  0
LAYER
  5
E
102
{ACAD_XDICTIONARY
360
1A20A
102
}
330
2
100
AcDbSymbolTableRecord
100
AcDbLayerTableRecord
  2
0
 70
     0
 62
     7
  6
CONTINUOUS
  0
LAYER
  5
29
102
{ACAD_XDICTIONARY
360
1A20C
102
}
330
2
100
AcDbSymbolTableRecord
100
AcDbLayerTableRecord
  2
1CENTER
 70
     0
 62
     7
  6
CENTER2
  0
LAYER
  5
31
102
{ACAD_XDICTIONARY
360
1A20E
102
}
330
2
100
AcDbSymbolTableRecord
100
AcDbLayerTableRecord
  2
1TEXT
 70
     0
 62
     7
  6
CONTINUOUS
  0
LAYER
  5
101
102
{ACAD_XDICTIONARY
360
1A218
102
}
330
2
100
AcDbSymbolTableRecord
100
AcDbLayerTableRecord
  2
1DIM
 70
     0
 62
     7
  6
CONTINUOUS
  0
LAYER
  5
103
102
{ACAD_XDICTIONARY
360
1A21C
102
}
330
2
100
AcDbSymbolTableRecord
100
AcDbLayerTableRecord
  2
1PHANTOM
 70
     0
 62
     7
  6
PHANTOM2
  0
LAYER
  5
25F
102
{ACAD_XDICTIONARY
360
1A220
102
}
330
2
100
AcDbSymbolTableRecord
100
AcDbLayerTableRecord
  2
01
 70
     0
 62
     1
  6
CONTINUOUS
  0
LAYER
  5
26A
102
{ACAD_XDICTIONARY
360
1A236
102
}
330
2
100
AcDbSymbolTableRecord
100
AcDbLayerTableRecord
  2
1DIM1
 70
     0
 62
     7
  6
CONTINUOUS
  0
LAYER
  5
26D
102
{ACAD_XDICTIONARY
360
1A23C
102
}
330
2
100
AcDbSymbolTableRecord
100
AcDbLayerTableRecord
  2
1HATCH
 70
     0
 62
     7
  6
CONTINUOUS
  0
ENDTAB
  0
TABLE
  2
STYLE
  5
3
330
0
100
AcDbSymbolTable
 70
     1
  0
STYLE
  5
F
330
3
100
AcDbSymbolTableRecord
100
AcDbTextStyleTableRecord
  2
STANDARD
 70
     0
 40
0.0
 41
1.0
 50
0.0
 71
     0
 42
4.0
  3
txt.shx
  4
extfont.shx
  0
ENDTAB
  0
TABLE
  2
VIEW
  5
6
330
0
100
AcDbSymbolTable
 70
     0
  0
ENDTAB
  0
TABLE
  2
UCS
  5
7
330
0
100
AcDbSymbolTable
 70
     0
  0
ENDTAB
  0
TABLE
  2
APPID
  5
9
330
0
100
AcDbSymbolTable
 70
    16
  0
APPID
  5
10
330
9
100
AcDbSymbolTableRecord
100
AcDbRegAppTableRecord
  2
ACAD
 70
     0
  0
APPID
  5
21
330
9
100
AcDbSymbolTableRecord
100
AcDbRegAppTableRecord
  2
DRAWINGVARIABLESXDATA
 70
     0
  0
APPID
  5
64
330
9
100
AcDbSymbolTableRecord
100
AcDbRegAppTableRecord
  2
CONTENTTABDATA
 70
     0
  0
APPID
  5
65
330
9
100
AcDbSymbolTableRecord
100
AcDbRegAppTableRecord
  2
CONTENTCURRENTTAB
 70
     0
  0
APPID
  5
66
330
9
100
AcDbSymbolTableRecord
100
AcDbRegAppTableRecord
  2
CONTENTBLOCKDESCRIPTION
 70
     0
  0
APPID
  5
67
330
9
100
AcDbSymbolTableRecord
100
AcDbRegAppTableRecord
  2
CONTENTBLOCKICON
 70
     0
  0
APPID
  5
68
330
9
100
AcDbSymbolTableRecord
100
AcDbRegAppTableRecord
  2
CONTENTLONGBLOCKNAME
 70
     0
  0
APPID
  5
5A9
330
9
100
AcDbSymbolTableRecord
100
AcDbRegAppTableRecord
  2
ACAD_PSEXT
 70
     0
  0
APPID
  5
18AC
330
9
100
AcDbSymbolTableRecord
100
AcDbRegAppTableRecord
  2
ACAD_DSTYLE_DIMTEXT_FILL
 70
     0
  0
APPID
  5
19E1A
330
9
100
AcDbSymbolTableRecord
100
AcDbRegAppTableRecord
  2
ACAD_MLEADERVER
 70
     0
  0
APPID
  5
1A2FA
330
9
100
AcDbSymbolTableRecord
100
AcDbRegAppTableRecord
  2
ACAD_DSTYLE_DIMRADIAL_EXTE
 70
     0
  0
APPID
  5
1DBC1
330
9
100
AcDbSymbolTableRecord
100
AcDbRegAppTableRecord
  2
ACADANNOTATIVE
 70
     0
  0
APPID
  5
1E991
330
9
100
AcDbSymbolTableRecord
100
AcDbRegAppTableRecord
  2
ACAD_EXEMPT_FROM_CAD_STAND
 70
     0
  0
APPID
  5
202C7
330
9
100
AcDbSymbolTableRecord
100
AcDbRegAppTableRecord
  2
ACDBBLOCKREPETAG
 70
     0
  0
APPID
  5
20AA7
330
9
100
AcDbSymbolTableRecord
100
AcDbRegAppTableRecord
  2
ACAD_OBJECT_CHANGE_GUID
 70
     0
  0
APPID
  5
20B2F
330
9
100
AcDbSymbolTableRecord
100
AcDbRegAppTableRecord
  2
ACAD_NAV_VCDISPLAY
 70
     0
  0
ENDTAB
  0
TABLE
  2
DIMSTYLE
  5
A
330
0
100
AcDbSymbolTable
 70
     1
  0
DIMSTYLE
105
48
330
A
100
AcDbSymbolTableRecord
100
AcDbDimStyleTableRecord
  2
NEWX10
 70
     0
  3
 
  4

  5

  6
OPEN30
  7
OPEN30
 40
1.0
 41
2.0
 42
0.0
 43
7.0
 44
1.0
 45
0.0
 46
0.0
 47
0.0
 48
0.0
140
3.5
141
0.0
142
0.0
143
25.4
144
1.0
145
0.0
146
0.7
147
0.7
 71
     0
 72
     0
 73
     0
 74
     0
 75
     0
 76
     0
 77
     1
 78
     8
170
     0
171
     2
172
     1
173
     1
174
     0
175
     0
176
   256
177
   256
178
   201
179
     2
270
     2
271
     2
272
     4
273
     2
274
     2
340
F
275
     0
280
     0
281
     0
282
     0
283
     1
284
     8
285
     0
286
     0
287
     2
288
     0
  0
ENDTAB
  0
TABLE
  2
BLOCK_RECORD
  5
1
330
0
100
AcDbSymbolTable
 70
     8
  0
BLOCK_RECORD
  5
18
102
{ACAD_XDICTIONARY
360
6E9
102
}
330
1
100
AcDbSymbolTableRecord
100
AcDbBlockTableRecord
  2
*MODEL_SPACE
  0
BLOCK_RECORD
  5
15
102
{ACAD_XDICTIONARY
360
59B
102
}
330
1
100
AcDbSymbolTableRecord
100
AcDbBlockTableRecord
  2
*PAPER_SPACE
  0
BLOCK_RECORD
  5
42
330
1
100
AcDbSymbolTableRecord
100
AcDbBlockTableRecord
  2
_OPEN30
  0
BLOCK_RECORD
  5
20316
330
1
100
AcDbSymbolTableRecord
100
AcDbBlockTableRecord
  2
A3WAKUKAWAJUN2017_HYOUDAI_
  0
BLOCK_RECORD
  5
22086
330
1
100
AcDbSymbolTableRecord
100
AcDbBlockTableRecord
  2
*X145
  0
BLOCK_RECORD
  5
220D4
330
1
100
AcDbSymbolTableRecord
100
AcDbBlockTableRecord
  2
*X146
  0
BLOCK_RECORD
  5
22126
330
1
100
AcDbSymbolTableRecord
100
AcDbBlockTableRecord
  2
*X147
  0
BLOCK_RECORD
  5
22177
330
1
100
AcDbSymbolTableRecord
100
AcDbBlockTableRecord
  2
*X148
  0
BLOCK_RECORD
  5
221B4
330
1
100
AcDbSymbolTableRecord
100
AcDbBlockTableRecord
  2
*X149
  0
BLOCK_RECORD
  5
221F4
330
1
100
AcDbSymbolTableRecord
100
AcDbBlockTableRecord
  2
*X150
  0
ENDTAB
  0
ENDSEC
  0
SECTION
  2
BLOCKS
  0
BLOCK
  5
19
330
18
100
AcDbEntity
  8
0
100
AcDbBlockBegin
  2
*MODEL_SPACE
 70
     0
 10
0.0
 20
0.0
 30
0.0
  3
*MODEL_SPACE
  1

  0
ENDBLK
  5
1A
330
18
100
AcDbEntity
  8
0
100
AcDbBlockEnd
  0
BLOCK
  5
16
330
15
100
AcDbEntity
 67
     1
  8
0
100
AcDbBlockBegin
  2
*PAPER_SPACE
 70
     0
 10
0.0
 20
0.0
 30
0.0
  3
*PAPER_SPACE
  1

  0
ENDBLK
  5
17
330
15
100
AcDbEntity
 67
     1
  8
0
100
AcDbBlockEnd
  0
BLOCK
  5
43
330
42
100
AcDbEntity
  8
0
100
AcDbBlockBegin
  2
_OPEN30
 70
     0
 10
0.0
 20
0.0
 30
0.0
  3
_OPEN30
  1

  0
LINE
  5
44
330
42
100
AcDbEntity
  8
0
  6
BYBLOCK
 62
     0
100
AcDbLine
 10
-1.0
 20
0.26794919
 30
0.0
 11
0.0
 21
0.0
 31
0.0
  0
LINE
  5
45
330
42
100
AcDbEntity
  8
0
  6
BYBLOCK
 62
     0
100
AcDbLine
 10
0.0
 20
0.0
 30
0.0
 11
-1.0
 21
-0.26794919
 31
0.0
  0
LINE
  5
46
330
42
100
AcDbEntity
  8
0
  6
BYBLOCK
 62
     0
100
AcDbLine
 10
0.0
 20
0.0
 30
0.0
 11
-1.0
 21
0.0
 31
0.0
  0
ENDBLK
  5
47
330
42
100
AcDbEntity
  8
0
100
AcDbBlockEnd
  0
BLOCK
  5
20A15
330
20316
100
AcDbEntity
  8
0
100
AcDbBlockBegin
  2
A3WAKUKAWAJUN2017_HYOUDAI_
 70
     0
 10
0.0
 20
0.0
 30
0.0
  3
A3WAKUKAWAJUN2017_HYOUDAI_
  1

  0
LINE
  5
20318
330
20316
100
AcDbEntity
  8
0
100
AcDbLine
 10
13.26299999998673
 20
-0.0001000000000317
 30
0.0
 11
9.236999999990758
 21
8.999899999990987
 31
0.0
1001
ACAD
1000
ASC_BOUNDS
1002
{
1070
    19
1005
20359
1002
}
  0
LINE
  5
20319
330
20316
100
AcDbEntity
  8
0
100
AcDbLine
 10
5.657999999994331
 20
0.9999999999989768
 30
0.0
 11
9.236999999990758
 21
8.999999999991019
 31
0.0
1001
ACAD
1000
ASC_BOUNDS
1002
{
1070
    19
1005
20359
1002
}
  0
LINE
  5
2031A
330
20316
100
AcDbEntity
  8
0
100
AcDbLine
 10
18.59199999998134
 20
-0.2368999999997641
 30
0.0
 11
16.46099999998353
 21
5.432899999994561
 31
0.0
1001
ACAD
1000
ASC_BOUNDS
1002
{
1070
    19
1005
2035A
1002
}
  0
LINE
  5
2031B
330
20316
100
AcDbEntity
  8
0
100
AcDbLine
 10
18.59199999998134
 20
-0.2368999999997641
 30
0.0
 11
22.38199999997767
 21
8.763099999991255
 31
0.0
1001
ACAD
1000
ASC_BOUNDS
1002
{
1070
    19
1005
2035A
1002
}
  0
LINE
  5
2031C
330
20316
100
AcDbEntity
  8
0
100
AcDbLine
 10
14.32899999998563
 20
-0.2368999999997641
 30
0.0
 11
16.46099999998353
 21
5.432899999994561
 31
0.0
1001
ACAD
1000
ASC_BOUNDS
1002
{
1070
    19
1005
2035A
1002
}
  0
LINE
  5
2031D
330
20316
100
AcDbEntity
  8
0
100
AcDbLine
 10
14.32899999998563
 20
-0.2368999999997641
 30
0.0
 11
10.53899999998941
 21
8.763099999991255
 31
0.0
1001
ACAD
1000
ASC_BOUNDS
1002
{
1070
    19
1005
2035A
1002
}
  0
LINE
  5
2031E
330
20316
100
AcDbEntity
  8
0
100
AcDbLine
 10
19.53899999998043
 20
-0.0001000000000317
 30
0.0
 11
23.56599999997638
 21
8.999899999990987
 31
0.0
1001
ACAD
1000
ASC_BOUNDS
1002
{
1070
    19
1005
2035B
1002
}
  0
LINE
  5
2031F
330
20316
100
AcDbEntity
  8
0
100
AcDbLine
 10
26.97358892824991
 20
1.383099999991202
 30
0.0
 11
23.56599999997638
 21
8.999899999990987
 31
0.0
1001
ACAD
1000
ASC_BOUNDS
1002
{
1070
    19
1005
2035B
1002
}
  0
LINE
  5
20320
330
20316
100
AcDbEntity
  8
0
100
AcDbLine
 10
5.657999999994331
 20
0.9999999999989768
 30
0.0
 11
3.181999999996833
 21
4.668599999995308
 31
0.0
1001
ACAD
1000
ASC_BOUNDS
1002
{
1070
    19
1005
20359
1002
}
  0
LINE
  5
20321
330
20316
100
AcDbEntity
  8
0
100
AcDbLine
 10
4.617999999995391
 20
-0.0001000000000317
 30
0.0
 11
1.420999999998571
 21
4.736799999995242
 31
0.0
1001
ACAD
1000
ASC_BOUNDS
1002
{
1070
    19
1005
20359
1002
}
  0
LINE
  5
20322
330
20316
100
AcDbEntity
  8
0
100
AcDbLine
 10
1.420999999998571
 20
8.763099999991255
 30
0.0
 11
1.420999999998571
 21
0.0
 31
0.0
1001
ACAD
1000
ASC_BOUNDS
1002
{
1070
    19
1005
2035E
1002
}
  0
LINE
  5
20323
330
20316
100
AcDbEntity
  8
0
100
AcDbLine
 10
0.0
 20
8.763099999991255
 30
0.0
 11
0.0
 21
0.0
 31
0.0
1001
ACAD
1000
ASC_BOUNDS
1002
{
1070
    19
1005
2035E
1002
}
  0
LINE
  5
20324
330
20316
100
AcDbEntity
  8
0
100
AcDbLine
 10
6.766999999993232
 20
-0.0001000000000317
 30
0.0
 11
7.826999999992154
 21
2.368399999997621
 31
0.0
1001
ACAD
1000
ASC_BOUNDS
1002
{
1070
    19
1005
20359
1002
}
  0
LINE
  5
20325
330
20316
100
AcDbEntity
  8
0
100
AcDbLine
 10
0.0
 20
0.0
 30
0.0
 11
1.420999999998571
 21
0.0
 31
0.0
1001
ACAD
1000
ASC_BOUNDS
1002
{
1070
    19
1005
2035E
1002
}
  0
LINE
  5
20326
330
20316
100
AcDbEntity
  8
0
100
AcDbLine
 10
4.617999999995391
 20
0.0
 30
0.0
 11
6.766999999993232
 21
0.0
 31
0.0
1001
ACAD
1000
ASC_BOUNDS
1002
{
1070
    19
1005
20359
1002
}
  0
LINE
  5
20327
330
20316
100
AcDbEntity
  8
0
100
AcDbLine
 10
11.70599999998831
 20
-0.0001000000000317
 30
0.0
 11
10.64699999998936
 21
2.368399999997621
 31
0.0
1001
ACAD
1000
ASC_BOUNDS
1002
{
1070
    19
1005
20359
1002
}
  0
LINE
  5
20328
330
20316
100
AcDbEntity
  8
0
100
AcDbLine
 10
7.826999999992154
 20
2.368399999997621
 30
0.0
 11
10.64699999998936
 21
2.368399999997621
 31
0.0
1001
ACAD
1000
ASC_BOUNDS
1002
{
1070
    19
1005
20359
1002
}
  0
LINE
  5
20329
330
20316
100
AcDbEntity
  8
0
100
AcDbLine
 10
11.70599999998831
 20
0.0
 30
0.0
 11
13.26299999998673
 21
0.0
 31
0.0
1001
ACAD
1000
ASC_BOUNDS
1002
{
1070
    19
1005
20359
1002
}
  0
LINE
  5
2032A
330
20316
100
AcDbEntity
  8
0
100
AcDbLine
 10
22.15599999997789
 20
2.368399999997621
 30
0.0
 11
24.97599999997499
 21
2.368399999997621
 31
0.0
1001
ACAD
1000
ASC_BOUNDS
1002
{
1070
    19
1005
2035B
1002
}
  0
LINE
  5
2032B
330
20316
100
AcDbEntity
  8
0
100
AcDbLine
 10
19.53899999998043
 20
0.0
 30
0.0
 11
21.09599999997886
 21
0.0
 31
0.0
1001
ACAD
1000
ASC_BOUNDS
1002
{
1070
    19
1005
2035B
1002
}
  0
LINE
  5
2032C
330
20316
100
AcDbEntity
  8
0
100
AcDbLine
 10
21.09599999997886
 20
-0.0001000000000317
 30
0.0
 11
22.15599999997789
 21
2.368399999997621
 31
0.0
1001
ACAD
1000
ASC_BOUNDS
1002
{
1070
    19
1005
2035B
1002
}
  0
LINE
  5
2032D
330
20316
100
AcDbEntity
  8
0
100
AcDbLine
 10
26.02015566812236
 20
0.0330999999912365
 30
0.0
 11
24.97599999997499
 21
2.368399999997621
 31
0.0
1001
ACAD
1000
ASC_BOUNDS
1002
{
1070
    19
1005
2035B
1002
}
  0
LINE
  5
2032E
330
20316
100
AcDbEntity
  8
0
100
AcDbLine
 10
14.32399999998563
 20
3.315799999996671
 30
0.0
 11
16.46099999998353
 21
8.999899999990987
 31
0.0
1001
ACAD
1000
ASC_BOUNDS
1002
{
1070
    19
1005
2035A
1002
}
  0
LINE
  5
2032F
330
20316
100
AcDbEntity
  8
0
100
AcDbLine
 10
6.432999999993513
 20
8.763099999991255
 30
0.0
 11
3.181999999996833
 21
4.668599999995308
 31
0.0
1001
ACAD
1000
ASC_BOUNDS
1002
{
1070
    19
1005
20359
1002
}
  0
LINE
  5
20330
330
20316
100
AcDbEntity
  8
0
100
AcDbLine
 10
4.617999999995391
 20
8.763099999991255
 30
0.0
 11
1.420999999998571
 21
4.736799999995242
 31
0.0
1001
ACAD
1000
ASC_BOUNDS
1002
{
1070
    19
1005
20359
1002
}
  0
LINE
  5
20331
330
20316
100
AcDbEntity
  8
0
100
AcDbLine
 10
0.0
 20
8.763099999991255
 30
0.0
 11
1.420999999998571
 21
8.763099999991255
 31
0.0
1001
ACAD
1000
ASC_BOUNDS
1002
{
1070
    19
1005
2035E
1002
}
  0
LINE
  5
20332
330
20316
100
AcDbEntity
  8
0
100
AcDbLine
 10
4.617999999995391
 20
8.763099999991255
 30
0.0
 11
6.432999999993513
 21
8.763099999991255
 31
0.0
1001
ACAD
1000
ASC_BOUNDS
1002
{
1070
    19
1005
20359
1002
}
  0
LINE
  5
20333
330
20316
100
AcDbEntity
  8
0
100
AcDbLine
 10
14.32399999998563
 20
3.315799999996671
 30
0.0
 11
12.02999999998792
 21
8.763099999991255
 31
0.0
1001
ACAD
1000
ASC_BOUNDS
1002
{
1070
    19
1005
2035A
1002
}
  0
LINE
  5
20334
330
20316
100
AcDbEntity
  8
0
100
AcDbLine
 10
10.06399999998996
 20
3.670999999996297
 30
0.0
 11
9.236999999990758
 21
5.5200999999945
 31
0.0
1001
ACAD
1000
ASC_BOUNDS
1002
{
1070
    19
1005
20359
1002
}
  0
LINE
  5
20335
330
20316
100
AcDbEntity
  8
0
100
AcDbLine
 10
8.409999999991555
 20
3.670999999996297
 30
0.0
 11
9.236999999990758
 21
5.5200999999945
 31
0.0
1001
ACAD
1000
ASC_BOUNDS
1002
{
1070
    19
1005
20359
1002
}
  0
LINE
  5
20336
330
20316
100
AcDbEntity
  8
0
100
AcDbLine
 10
8.409999999991555
 20
3.670999999996297
 30
0.0
 11
10.06399999998996
 21
3.670999999996297
 31
0.0
1001
ACAD
1000
ASC_BOUNDS
1002
{
1070
    19
1005
20359
1002
}
  0
LINE
  5
20337
330
20316
100
AcDbEntity
  8
0
100
AcDbLine
 10
10.53899999998941
 20
8.763099999991255
 30
0.0
 11
12.02999999998792
 21
8.763099999991255
 31
0.0
1001
ACAD
1000
ASC_BOUNDS
1002
{
1070
    19
1005
2035A
1002
}
  0
LINE
  5
20338
330
20316
100
AcDbEntity
  8
0
100
AcDbLine
 10
22.7389999999773
 20
3.670999999996297
 30
0.0
 11
23.56599999997638
 21
5.5200999999945
 31
0.0
1001
ACAD
1000
ASC_BOUNDS
1002
{
1070
    19
1005
2035B
1002
}
  0
LINE
  5
20339
330
20316
100
AcDbEntity
  8
0
100
AcDbLine
 10
22.7389999999773
 20
3.670999999996297
 30
0.0
 11
24.39299999997559
 21
3.670999999996297
 31
0.0
1001
ACAD
1000
ASC_BOUNDS
1002
{
1070
    19
1005
2035B
1002
}
  0
LINE
  5
2033A
330
20316
100
AcDbEntity
  8
0
100
AcDbLine
 10
18.59799999998143
 20
3.315799999996671
 30
0.0
 11
20.89099999997916
 21
8.763099999991255
 31
0.0
1001
ACAD
1000
ASC_BOUNDS
1002
{
1070
    19
1005
2035A
1002
}
  0
LINE
  5
2033B
330
20316
100
AcDbEntity
  8
0
100
AcDbLine
 10
18.59799999998143
 20
3.315799999996671
 30
0.0
 11
16.46099999998353
 21
8.999899999990987
 31
0.0
1001
ACAD
1000
ASC_BOUNDS
1002
{
1070
    19
1005
2035A
1002
}
  0
LINE
  5
2033C
330
20316
100
AcDbEntity
  8
0
100
AcDbLine
 10
20.89099999997916
 20
8.763099999991255
 30
0.0
 11
22.38199999997767
 21
8.763099999991255
 31
0.0
1001
ACAD
1000
ASC_BOUNDS
1002
{
1070
    19
1005
2035A
1002
}
  0
LINE
  5
2033D
330
20316
100
AcDbEntity
  8
0
100
AcDbLine
 10
24.39299999997559
 20
3.670999999996297
 30
0.0
 11
23.56599999997638
 21
5.5200999999945
 31
0.0
1001
ACAD
1000
ASC_BOUNDS
1002
{
1070
    19
1005
2035B
1002
}
  0
LINE
  5
2033E
330
20316
100
AcDbEntity
  8
0
100
AcDbLine
 10
44.99999999995498
 20
-0.2368999999997641
 30
0.0
 11
40.02599999995994
 21
5.341799999994635
 31
0.0
1001
ACAD
1000
ASC_BOUNDS
1002
{
1070
    19
1005
2035D
1002
}
  0
LINE
  5
2033F
330
20316
100
AcDbEntity
  8
0
100
AcDbLine
 10
40.02599999995994
 20
5.341799999994635
 30
0.0
 11
40.02599999995994
 21
0.0
 31
0.0
1001
ACAD
1000
ASC_BOUNDS
1002
{
1070
    19
1005
2035D
1002
}
  0
LINE
  5
20340
330
20316
100
AcDbEntity
  8
0
100
AcDbLine
 10
38.60499999996136
 20
8.999999999991019
 30
0.0
 11
38.60499999996136
 21
0.0
 31
0.0
1001
ACAD
1000
ASC_BOUNDS
1002
{
1070
    19
1005
2035D
1002
}
  0
LINE
  5
20341
330
20316
100
AcDbEntity
  8
0
100
AcDbLine
 10
44.99999999995498
 20
8.763099999991255
 30
0.0
 11
44.99999999995498
 21
-0.2368999999997641
 31
0.0
1001
ACAD
1000
ASC_BOUNDS
1002
{
1070
    19
1005
2035D
1002
}
  0
LINE
  5
20342
330
20316
100
AcDbEntity
  8
0
100
AcDbLine
 10
38.60499999996136
 20
0.0
 30
0.0
 11
40.02599999995994
 21
0.0
 31
0.0
1001
ACAD
1000
ASC_BOUNDS
1002
{
1070
    19
1005
2035D
1002
}
  0
LINE
  5
20343
330
20316
100
AcDbEntity
  8
0
100
AcDbLine
 10
43.57899999995641
 20
3.421199999996588
 30
0.0
 11
38.60499999996136
 21
8.999899999990987
 31
0.0
1001
ACAD
1000
ASC_BOUNDS
1002
{
1070
    19
1005
2035D
1002
}
  0
LINE
  5
20344
330
20316
100
AcDbEntity
  8
0
100
AcDbLine
 10
43.57899999995641
 20
8.763099999991255
 30
0.0
 11
43.57899999995641
 21
3.421199999996588
 31
0.0
1001
ACAD
1000
ASC_BOUNDS
1002
{
1070
    19
1005
2035D
1002
}
  0
LINE
  5
20345
330
20316
100
AcDbEntity
  8
0
100
AcDbLine
 10
43.57899999995641
 20
8.763099999991255
 30
0.0
 11
44.99999999995498
 21
8.763099999991255
 31
0.0
1001
ACAD
1000
ASC_BOUNDS
1002
{
1070
    19
1005
2035D
1002
}
  0
LINE
  5
20346
330
20316
100
AcDbEntity
  8
0
100
AcDbLine
 10
37.67199999996831
 20
8.763099999991255
 30
0.0
 11
36.23199999996837
 21
8.763099999991255
 31
0.0
  0
LINE
  5
20347
330
20316
100
AcDbEntity
  8
0
100
AcDbLine
 10
31.64199999996833
 20
8.763099999991255
 30
0.0
 11
31.64199999996833
 21
2.481619422925121
 31
0.0
  0
LINE
  5
20348
330
20316
100
AcDbEntity
  8
0
100
AcDbLine
 10
37.67199999996831
 20
8.763099999991255
 30
0.0
 11
37.67199999996831
 21
2.481619422925121
 31
0.0
  0
LINE
  5
20349
330
20316
100
AcDbEntity
  8
0
100
AcDbLine
 10
36.23199999996837
 20
8.763099999991255
 30
0.0
 11
36.23199999996837
 21
2.481619422925064
 31
0.0
  0
LINE
  5
2034A
330
20316
100
AcDbEntity
  8
0
100
AcDbLine
 10
33.08199999996839
 20
8.763099999991255
 30
0.0
 11
33.08199999996839
 21
2.481619422925121
 31
0.0
  0
ARC
  5
2034B
330
20316
100
AcDbEntity
  8
0
100
AcDbCircle
 10
34.65699999996832
 20
3.183099999991214
 30
0.0
 40
3.420000000000007
100
AcDbArc
 50
240.0000000000255
 51
299.9999999999766
  0
ARC
  5
2034C
330
20316
100
AcDbEntity
  8
0
100
AcDbCircle
 10
34.65699999996832
 20
3.183099999991214
 30
0.0
 40
1.97999999999999
100
AcDbArc
 50
240.000000000026
 51
299.9999999999703
  0
LINE
  5
2034D
330
20316
100
AcDbEntity
  8
0
100
AcDbLine
 10
33.08199999996828
 20
8.763099999991255
 30
0.0
 11
31.64199999996833
 21
8.763099999991255
 31
0.0
  0
ARC
  5
2034E
330
20316
100
AcDbEntity
  8
0
100
AcDbCircle
 10
35.06199999996829
 20
2.481619422925064
 30
0.0
 40
1.17
100
AcDbArc
 50
299.9999999999699
 51
0.0
  0
ARC
  5
2034F
330
20316
100
AcDbEntity
  8
0
100
AcDbCircle
 10
34.25199999996835
 20
2.481619422925121
 30
0.0
 40
1.17
100
AcDbArc
 50
180.0
 51
240.0000000000238
  0
ARC
  5
20350
330
20316
100
AcDbEntity
  8
0
100
AcDbCircle
 10
35.06199999996841
 20
2.481619422925121
 30
0.0
 40
2.61
100
AcDbArc
 50
299.9999999999756
 51
0.0
  0
ARC
  5
20351
330
20316
100
AcDbEntity
  8
0
100
AcDbCircle
 10
34.25199999996835
 20
2.481619422925121
 30
0.0
 40
2.61
100
AcDbArc
 50
180.0
 51
240.0000000000244
  0
LINE
  5
20352
330
20316
100
AcDbEntity
  8
0
100
AcDbLine
 10
29.30199999996933
 20
8.763099999991255
 30
0.0
 11
30.74199999996927
 21
8.763099999991255
 31
0.0
1001
ACAD
1000
ASC_BOUNDS
1002
{
1070
    19
1005
2035B
1002
}
  0
LINE
  5
20353
330
20316
100
AcDbEntity
  8
0
100
AcDbLine
 10
30.74199999996927
 20
8.763099999991255
 30
0.0
 11
30.74199999996927
 21
2.373099999991211
 31
0.0
1001
ACAD
1000
ASC_BOUNDS
1002
{
1070
    19
1005
2035B
1002
}
  0
LINE
  5
20354
330
20316
100
AcDbEntity
  8
0
100
AcDbLine
 10
26.02015566812236
 20
0.0330999999912365
 30
0.0
 11
28.40199999996923
 21
0.0330999999912365
 31
0.0
1001
ACAD
1000
ASC_BOUNDS
1002
{
1070
    19
1005
2035B
1002
}
  0
LINE
  5
20355
330
20316
100
AcDbEntity
  8
0
100
AcDbLine
 10
29.30199999996933
 20
8.763099999991255
 30
0.0
 11
29.30199999996933
 21
2.283099999991236
 31
0.0
1001
ACAD
1000
ASC_BOUNDS
1002
{
1070
    19
1005
2035B
1002
}
  0
LINE
  5
20356
330
20316
100
AcDbEntity
  8
0
100
AcDbLine
 10
26.97358892824991
 20
1.383099999991202
 30
0.0
 11
28.40199999996923
 21
1.383099999991202
 31
0.0
1001
ACAD
1000
ASC_BOUNDS
1002
{
1070
    19
1005
2035B
1002
}
  0
ARC
  5
20357
330
20316
100
AcDbEntity
  8
0
100
AcDbCircle
 10
28.40199999996923
 20
2.283099999991236
 30
0.0
 40
0.9
100
AcDbArc
 50
270.0
 51
0.0
1001
ACAD
1000
ASC_BOUNDS
1002
{
1070
    19
1005
2035B
1002
}
  0
ARC
  5
20358
330
20316
100
AcDbEntity
  8
0
100
AcDbCircle
 10
28.40199999996923
 20
2.373099999991211
 30
0.0
 40
2.34
100
AcDbArc
 50
270.0
 51
0.0
1001
ACAD
1000
ASC_BOUNDS
1002
{
1070
    19
1005
2035B
1002
}
  0
INSERT
  5
20359
330
20316
100
AcDbEntity
  8
0
100
AcDbBlockReference
  2
*X145
 10
0.0
 20
0.0
 30
0.0
1001
ACAD
1000
HATCH
1002
{
1070
    19
1000
ANSI37
1040
0.15
1040
0.0
1000
ASC_BOUNDS
1070
     2
1070
     2
1070
    12
1005
20318
1005
20319
1005
20320
1005
2032F
1005
20332
1005
20330
1005
20321
1005
20326
1005
20324
1005
20328
1005
20327
1005
20329
1070
     2
1070
     3
1005
20334
1005
20336
1005
20335
1000
ASC_SEEDPOINT
1011
3.614004224891801
1021
2.996669441146025
1031
0.0
1000
R14_HATCH_DATA
1000
20359
1011
1.0
1021
0.0
1031
0.0
1011
0.0
1021
1.0
1031
0.0
1011
0.0
1021
0.0
1031
1.0
1040
0.0
1010
0.0
1020
0.0
1030
1.0
1000
ANSI37
1070
     0
1070
     1
1071
        2
1071
        7
1070
     0
1070
     1
1071
       17
1040
13.26299999998673
1040
-0.0001000000000317
1040
9.236999999990758
1040
8.999899999990987
1040
9.236999999990758
1040
8.999999999991019
1040
5.657999999994331
1040
0.9999999999989768
1040
3.181999999996833
1040
4.668599999995308
1040
6.432999999993513
1040
8.763099999991255
1040
4.617999999995391
1040
8.763099999991255
1040
1.420999999998571
1040
4.736799999995242
1040
4.617999999995391
1040
-0.0001000000000317
1040
4.617999999995391
1040
0.0
1040
6.766999999993232
1040
0.0
1040
6.766999999993232
1040
-0.0001000000000317
1040
7.826999999992154
1040
2.368399999997621
1040
10.64699999998936
1040
2.368399999997621
1040
11.70599999998831
1040
-0.0001000000000317
1040
11.70599999998831
1040
0.0
1040
13.26299999998673
1040
0.0
1071
       12
1005
20318
1005
20319
1005
20320
1005
2032F
1005
20332
1005
20330
1005
20321
1005
20326
1005
20324
1005
20328
1005
20327
1005
20329
1071
       22
1070
     0
1070
     1
1071
        3
1040
9.236999999990758
1040
5.5200999999945
1040
10.06399999998996
1040
3.670999999996297
1040
8.409999999991555
1040
3.670999999996297
1071
        3
1005
20334
1005
20336
1005
20335
1070
     0
1070
     1
1040
0.0
1040
0.15
1070
     0
1070
     2
1040
0.7853981633974483
1040
49.29960901727088
1040
-10.17736998311392
1040
-0.3367596045400932
1040
0.3367596045400932
1070
     0
1040
2.356194490192345
1040
49.29960901727088
1040
-10.17736998311392
1040
-0.3367596045400932
1040
-0.3367596045400932
1070
     0
1040
0.0110235143455945
1071
        2
1040
3.614004224891801
1040
2.996669441146025
1040
0.0
1040
3.614004224891801
1040
2.996669441146025
1040
0.0
1002
}
  0
INSERT
  5
2035A
330
20316
100
AcDbEntity
  8
0
100
AcDbBlockReference
  2
*X146
 10
0.0
 20
0.0
 30
0.0
1001
ACAD
1000
HATCH
1002
{
1070
    19
1000
ANSI37
1040
0.15
1040
0.0
1000
ASC_BOUNDS
1070
     1
1070
     2
1070
    10
1005
2031A
1005
2031B
1005
2033C
1005
2033A
1005
2033B
1005
2032E
1005
20333
1005
20337
1005
2031D
1005
2031C
1000
ASC_SEEDPOINT
1011
14.73245321214324
1021
2.798246178283421
1031
0.0
1000
R14_HATCH_DATA
1000
2035A
1011
1.0
1021
0.0
1031
0.0
1011
0.0
1021
1.0
1031
0.0
1011
0.0
1021
0.0
1031
1.0
1040
0.0
1010
0.0
1020
0.0
1030
1.0
1000
ANSI37
1070
     0
1070
     1
1071
        1
1071
        7
1070
     0
1070
     1
1071
       10
1040
16.46099999998353
1040
5.432899999994561
1040
18.59199999998134
1040
-0.2368999999997641
1040
22.38199999997767
1040
8.763099999991255
1040
20.89099999997916
1040
8.763099999991255
1040
18.59799999998143
1040
3.315799999996671
1040
16.46099999998353
1040
8.999899999990987
1040
14.32399999998563
1040
3.315799999996671
1040
12.02999999998792
1040
8.763099999991255
1040
10.53899999998941
1040
8.763099999991255
1040
14.32899999998563
1040
-0.2368999999997641
1071
       10
1005
2031A
1005
2031B
1005
2033C
1005
2033A
1005
2033B
1005
2032E
1005
20333
1005
20337
1005
2031D
1005
2031C
1070
     0
1070
     1
1040
0.0
1040
0.15
1070
     0
1070
     2
1040
0.7853981633974483
1040
49.29960901727088
1040
-10.17736998311392
1040
-0.3367596045400932
1040
0.3367596045400932
1070
     0
1040
2.356194490192345
1040
49.29960901727088
1040
-10.17736998311392
1040
-0.3367596045400932
1040
-0.3367596045400932
1070
     0
1040
0.0110235143455945
1071
        1
1040
14.73245321214324
1040
2.798246178283421
1040
0.0
1002
}
  0
INSERT
  5
2035B
330
20316
100
AcDbEntity
  8
0
100
AcDbBlockReference
  2
*X147
 10
0.0
 20
0.0
 30
0.0
1001
ACAD
1000
HATCH
1002
{
1070
    19
1000
ANSI37
1040
0.15
1040
0.0
1000
ASC_BOUNDS
1070
     2
1070
     2
1070
    13
1005
2031E
1005
2032B
1005
2032C
1005
2032A
1005
2032D
1005
20354
1005
20358
1005
20353
1005
20352
1005
20355
1005
20357
1005
20356
1005
2031F
1070
     2
1070
     3
1005
20338
1005
2033D
1005
20339
1000
ASC_SEEDPOINT
1011
21.97929957367762
1021
3.294304244259308
1031
0.0
1000
R14_HATCH_DATA
1000
2035B
1011
1.0
1021
0.0
1031
0.0
1011
0.0
1021
1.0
1031
0.0
1011
0.0
1021
0.0
1031
1.0
1040
0.0
1010
0.0
1020
0.0
1030
1.0
1000
ANSI37
1070
     0
1070
     1
1071
        2
1071
        7
1070
     1
1070
     1
1071
       15
1040
23.56599999997638
1040
8.999899999990987
1040
0.0
1040
19.53899999998043
1040
-0.0001000000000317
1040
0.0
1040
19.53899999998043
1040
0.0
1040
0.0
1040
21.09599999997886
1040
0.0
1040
0.0
1040
21.09599999997886
1040
-0.0001000000000317
1040
0.0
1040
22.15599999997789
1040
2.368399999997621
1040
0.0
1040
24.97599999997499
1040
2.368399999997621
1040
0.0
1040
26.02015566812236
1040
0.0330999999912365
1040
0.0
1040
28.40199999996923
1040
0.0330999999912365
1040
0.414213562373095
1040
30.74199999996923
1040
2.373099999991211
1040
0.0
1040
30.74199999996927
1040
8.763099999991255
1040
0.0
1040
29.30199999996933
1040
8.763099999991255
1040
0.0
1040
29.30199999996933
1040
2.283099999991236
1040
-0.414213562373095
1040
28.40199999996923
1040
1.383099999991237
1040
0.0
1040
26.97358892824991
1040
1.383099999991202
1040
0.0
1071
       13
1005
2031E
1005
2032B
1005
2032C
1005
2032A
1005
2032D
1005
20354
1005
20358
1005
20353
1005
20352
1005
20355
1005
20357
1005
20356
1005
2031F
1071
       22
1070
     0
1070
     1
1071
        3
1040
22.7389999999773
1040
3.670999999996297
1040
23.56599999997638
1040
5.5200999999945
1040
24.39299999997559
1040
3.670999999996297
1071
        3
1005
20338
1005
2033D
1005
20339
1070
     0
1070
     1
1040
0.0
1040
0.15
1070
     0
1070
     2
1040
0.7853981633974483
1040
49.29960901727088
1040
-10.17736998311392
1040
-0.3367596045400932
1040
0.3367596045400932
1070
     0
1040
2.356194490192345
1040
49.29960901727088
1040
-10.17736998311392
1040
-0.3367596045400932
1040
-0.3367596045400932
1070
     0
1040
0.0110235143455945
1071
        2
1040
21.97929957367762
1040
3.294304244259308
1040
0.0
1040
21.97929957367762
1040
3.294304244259308
1040
0.0
1002
}
  0
INSERT
  5
2035C
330
20316
100
AcDbEntity
  8
0
100
AcDbBlockReference
  2
*X148
 10
0.0
 20
0.0
 30
0.0
1001
ACAD
1000
HATCH
1002
{
1070
    19
1000
ANSI37
1040
0.15
1040
0.0
1000
R14_HATCH_DATA
1000
2035C
1011
1.0
1021
0.0
1031
0.0
1011
0.0
1021
1.0
1031
0.0
1011
0.0
1021
0.0
1031
1.0
1040
0.0
1010
0.0
1020
0.0
1030
1.0
1000
ANSI37
1070
     0
1070
     1
1071
        1
1071
        7
1070
     1
1070
     1
1071
       12
1040
31.64199999996833
1040
2.481619422925121
1040
0.2679491924310942
1040
32.94699999997067
1040
0.2212931190493919
1040
0.2679491924301353
1040
36.36699999995983
1040
0.2212931190459813
1040
0.2679491924321411
1040
37.67199999996831
1040
2.481619422928361
1040
0.0
1040
37.67199999996831
1040
8.763099999991255
1040
0.0
1040
36.23199999996837
1040
8.763099999991255
1040
0.0
1040
36.23199999996837
1040
2.481619422925064
1040
-0.2679491924310291
1040
35.64699999996708
1040
1.468369700498386
1040
-0.267949192430519
1040
33.66699999997093
1040
1.468369700497703
1040
-0.267949192431809
1040
33.08199999996839
1040
2.481619422926997
1040
0.0
1040
33.08199999996839
1040
8.763099999991255
1040
0.0
1040
31.64199999996833
1040
8.763099999991255
1040
0.0
1071
        0
1070
     0
1070
     1
1040
0.0
1040
0.15
1070
     0
1070
     2
1040
0.7853981633974483
1040
49.29960901727088
1040
-10.17736998311392
1040
-0.3367596045400932
1040
0.3367596045400932
1070
     0
1040
2.356194490192345
1040
49.29960901727088
1040
-10.17736998311392
1040
-0.3367596045400932
1040
-0.3367596045400932
1070
     0
1040
0.0110235143455945
1071
        1
1040
32.30357378967278
1040
3.988785755459219
1040
0.0
1002
}
  0
INSERT
  5
2035D
330
20316
100
AcDbEntity
  8
0
100
AcDbBlockReference
  2
*X149
 10
0.0
 20
0.0
 30
0.0
1001
ACAD
1000
HATCH
1002
{
1070
    19
1000
ANSI37
1040
0.15
1040
0.0
1000
ASC_BOUNDS
1070
     1
1070
     2
1070
     8
1005
2033E
1005
20341
1005
20345
1005
20344
1005
20343
1005
20340
1005
20342
1005
2033F
1000
ASC_SEEDPOINT
1011
39.74896370716704
1021
4.484843821435049
1031
0.0
1000
R14_HATCH_DATA
1000
2035D
1011
1.0
1021
0.0
1031
0.0
1011
0.0
1021
1.0
1031
0.0
1011
0.0
1021
0.0
1031
1.0
1040
0.0
1010
0.0
1020
0.0
1030
1.0
1000
ANSI37
1070
     0
1070
     1
1071
        1
1071
        7
1070
     0
1070
     1
1071
        9
1040
40.02599999995994
1040
5.341799999994635
1040
44.99999999995498
1040
-0.2368999999997641
1040
44.99999999995498
1040
8.763099999991255
1040
43.57899999995641
1040
8.763099999991255
1040
43.57899999995641
1040
3.421199999996588
1040
38.60499999996136
1040
8.999899999990987
1040
38.60499999996136
1040
8.999999999991019
1040
38.60499999996136
1040
0.0
1040
40.02599999995994
1040
0.0
1071
        8
1005
2033E
1005
20341
1005
20345
1005
20344
1005
20343
1005
20340
1005
20342
1005
2033F
1070
     0
1070
     1
1040
0.0
1040
0.15
1070
     0
1070
     2
1040
0.7853981633974483
1040
49.29960901727088
1040
-10.17736998311392
1040
-0.3367596045400932
1040
0.3367596045400932
1070
     0
1040
2.356194490192345
1040
49.29960901727088
1040
-10.17736998311392
1040
-0.3367596045400932
1040
-0.3367596045400932
1070
     0
1040
0.0110235143455945
1071
        1
1040
39.74896370716704
1040
4.484843821435049
1040
0.0
1002
}
  0
INSERT
  5
2035E
330
20316
100
AcDbEntity
  8
0
100
AcDbBlockReference
  2
*X150
 10
0.0
 20
0.0
 30
0.0
1001
ACAD
1000
HATCH
1002
{
1070
    19
1000
ANSI37
1040
0.15
1040
0.0
1000
ASC_BOUNDS
1070
     1
1070
     2
1070
     4
1005
20322
1005
20331
1005
20323
1005
20325
1000
ASC_SEEDPOINT
1011
1.079051535452663
1021
4.148538732891836
1031
0.0
1000
R14_HATCH_DATA
1000
2035E
1011
1.0
1021
0.0
1031
0.0
1011
0.0
1021
1.0
1031
0.0
1011
0.0
1021
0.0
1031
1.0
1040
0.0
1010
0.0
1020
0.0
1030
1.0
1000
ANSI37
1070
     0
1070
     1
1071
        1
1071
        7
1070
     0
1070
     1
1071
        4
1040
1.420999999998571
1040
0.0
1040
1.420999999998571
1040
8.763099999991255
1040
0.0
1040
8.763099999991255
1040
0.0
1040
0.0
1071
        4
1005
20322
1005
20331
1005
20323
1005
20325
1070
     0
1070
     1
1040
0.0
1040
0.15
1070
     0
1070
     2
1040
0.7853981633974483
1040
49.29960901727088
1040
-10.17736998311392
1040
-0.3367596045400932
1040
0.3367596045400932
1070
     0
1040
2.356194490192345
1040
49.29960901727088
1040
-10.17736998311392
1040
-0.3367596045400932
1040
-0.3367596045400932
1070
     0
1040
0.0053004257112761
1071
        1
1040
1.079051535452663
1040
4.148538732891836
1040
0.0
1002
}
  0
ENDBLK
  5
20A16
330
20316
100
AcDbEntity
  8
0
100
AcDbBlockEnd
  0
BLOCK
  5
22214
330
22086
100
AcDbEntity
  8
0
100
AcDbBlockBegin
  2
*X145
 70
     1
 10
0.0
 20
0.0
 30
0.0
  3
*X145
  1

  0
LINE
  5
22087
330
22086
100
AcDbEntity
  8
0
  6
CONTINUOUS
100
AcDbLine
 10
3.418023043697893
 20
7.251849696850613
 30
0.0
 11
4.929273346838536
 21
8.763099999991255
 31
0.0
  0
LINE
  5
22088
330
22086
100
AcDbEntity
  8
0
  6
CONTINUOUS
100
AcDbLine
 10
1.483656411257782
 20
4.643963855330318
 30
0.0
 11
5.60279255591872
 21
8.763099999991255
 31
0.0
  0
LINE
  5
22089
330
22086
100
AcDbEntity
  8
0
  6
CONTINUOUS
100
AcDbLine
 10
1.755053947328235
 20
4.241842182320584
 30
0.0
 11
6.276311764998907
 21
8.763099999991255
 31
0.0
  0
LINE
  5
2208A
330
22086
100
AcDbEntity
  8
0
  6
CONTINUOUS
100
AcDbLine
 10
2.026451483398688
 20
3.839720509310849
 30
0.0
 11
4.441040904851878
 21
6.254309930764039
 31
0.0
  0
LINE
  5
2208B
330
22086
100
AcDbEntity
  8
0
  6
CONTINUOUS
100
AcDbLine
 10
2.297849019469139
 20
3.437598836301114
 30
0.0
 11
3.321765168359338
 21
4.461514985191313
 31
0.0
  0
LINE
  5
2208C
330
22086
100
AcDbEntity
  8
0
  6
CONTINUOUS
100
AcDbLine
 10
2.569246555539591
 20
3.03547716329138
 30
0.0
 11
3.593163397972743
 21
4.059394005724531
 31
0.0
  0
LINE
  5
2208D
330
22086
100
AcDbEntity
  8
0
  6
CONTINUOUS
100
AcDbLine
 10
2.840644091610043
 20
2.633355490281646
 30
0.0
 11
3.864561627586149
 21
3.657273026257751
 31
0.0
  0
LINE
  5
2208E
330
22086
100
AcDbEntity
  8
0
  6
CONTINUOUS
100
AcDbLine
 10
3.112041627680496
 20
2.231233817271911
 30
0.0
 11
4.135959857199554
 21
3.25515204679097
 31
0.0
  0
LINE
  5
2208F
330
22086
100
AcDbEntity
  8
0
  6
CONTINUOUS
100
AcDbLine
 10
3.383439163750948
 20
1.829112144262177
 30
0.0
 11
4.40735808681296
 21
2.853031067324189
 31
0.0
  0
LINE
  5
22090
330
22086
100
AcDbEntity
  8
0
  6
CONTINUOUS
100
AcDbLine
 10
3.654836699821399
 20
1.426990471252442
 30
0.0
 11
4.678756316426365
 21
2.450910087857407
 31
0.0
  0
LINE
  5
22091
330
22086
100
AcDbEntity
  8
0
  6
CONTINUOUS
100
AcDbLine
 10
3.926234235891853
 20
1.024868798242709
 30
0.0
 11
4.95015454603977
 21
2.048789108390626
 31
0.0
  0
LINE
  5
22092
330
22086
100
AcDbEntity
  8
0
  6
CONTINUOUS
100
AcDbLine
 10
4.197631771962304
 20
0.6227471252329737
 30
0.0
 11
5.221552775653176
 21
1.646668128923846
 31
0.0
  0
LINE
  5
22093
330
22086
100
AcDbEntity
  8
0
  6
CONTINUOUS
100
AcDbLine
 10
8.715877546767851
 20
7.835069736359266
 30
0.0
 11
9.435953450375058
 21
8.555145639966472
 31
0.0
  0
LINE
  5
22094
330
22086
100
AcDbEntity
  8
0
  6
CONTINUOUS
100
AcDbLine
 10
8.170620868422267
 20
6.616293848933497
 30
0.0
 11
9.644120833743461
 21
8.08979381425469
 31
0.0
  0
LINE
  5
22095
330
22086
100
AcDbEntity
  8
0
  6
CONTINUOUS
100
AcDbLine
 10
7.625364190076684
 20
5.397517961507727
 30
0.0
 11
9.852288217111864
 21
7.624441988542907
 31
0.0
  0
LINE
  5
22096
330
22086
100
AcDbEntity
  8
0
  6
CONTINUOUS
100
AcDbLine
 10
7.080107511731101
 20
4.178742074081957
 30
0.0
 11
10.06045560048027
 21
7.159090162831124
 31
0.0
  0
LINE
  5
22097
330
22086
100
AcDbEntity
  8
0
  6
CONTINUOUS
100
AcDbLine
 10
6.534850833385518
 20
2.959966186656187
 30
0.0
 11
10.26862298384867
 21
6.693738337119342
 31
0.0
  0
LINE
  5
22098
330
22086
100
AcDbEntity
  8
0
  6
CONTINUOUS
100
AcDbLine
 10
4.469029308032756
 20
0.2206254522232385
 30
0.0
 11
5.492951005266582
 21
1.244547149457064
 31
0.0
  0
LINE
  5
22099
330
22086
100
AcDbEntity
  8
0
  6
CONTINUOUS
100
AcDbLine
 10
5.989594155039935
 20
1.741190299230417
 30
0.0
 11
8.806950407233131
 21
4.558546551423613
 31
0.0
  0
LINE
  5
2209A
330
22086
100
AcDbEntity
  8
0
  6
CONTINUOUS
100
AcDbLine
 10
9.401251593263643
 20
5.152847737454126
 30
0.0
 11
10.47679036721708
 21
6.228386511407559
 31
0.0
  0
LINE
  5
2209B
330
22086
100
AcDbEntity
  8
0
  6
CONTINUOUS
100
AcDbLine
 10
4.921837203428691
 20
-0.0000858614610131
 30
0.0
 11
8.592923064886001
 21
3.670999999996297
 31
0.0
  0
LINE
  5
2209C
330
22086
100
AcDbEntity
  8
0
  6
CONTINUOUS
100
AcDbLine
 10
9.609390446785305
 20
4.6874673818956
 30
0.0
 11
10.68495775058548
 21
5.763034685695775
 31
0.0
  0
LINE
  5
2209D
330
22086
100
AcDbEntity
  8
0
  6
CONTINUOUS
100
AcDbLine
 10
5.595387755019432
 20
-0.0000545189504582
 30
0.0
 11
7.716137258923768
 21
2.120694984953879
 31
0.0
  0
LINE
  5
2209E
330
22086
100
AcDbEntity
  8
0
  6
CONTINUOUS
100
AcDbLine
 10
6.268938306610172
 20
-0.000023176439905
 30
0.0
 11
7.170485805526503
 21
0.9015243224764267
 31
0.0
  0
LINE
  5
2209F
330
22086
100
AcDbEntity
  8
0
  6
CONTINUOUS
100
AcDbLine
 10
7.963842273967511
 20
2.368399999997621
 30
0.0
 11
9.266442273966188
 21
3.670999999996297
 31
0.0
  0
LINE
  5
220A0
330
22086
100
AcDbEntity
  8
0
  6
CONTINUOUS
100
AcDbLine
 10
8.637361483047696
 20
2.368399999997621
 30
0.0
 11
9.939961483046375
 21
3.670999999996297
 31
0.0
  0
LINE
  5
220A1
330
22086
100
AcDbEntity
  8
0
  6
CONTINUOUS
100
AcDbLine
 10
9.817529300306965
 20
4.222087026337075
 30
0.0
 11
10.89312513395388
 21
5.297682859983993
 31
0.0
  0
LINE
  5
220A2
330
22086
100
AcDbEntity
  8
0
  6
CONTINUOUS
100
AcDbLine
 10
10.02566815382863
 20
3.756706670778549
 30
0.0
 11
11.10129251732229
 21
4.832331034272211
 31
0.0
  0
LINE
  5
220A3
330
22086
100
AcDbEntity
  8
0
  6
CONTINUOUS
100
AcDbLine
 10
9.310880692127883
 20
2.368399999997621
 30
0.0
 11
11.30945990069069
 21
4.366979208560428
 31
0.0
  0
LINE
  5
220A4
330
22086
100
AcDbEntity
  8
0
  6
CONTINUOUS
100
AcDbLine
 10
9.98439990120807
 20
2.36839999999762
 30
0.0
 11
11.5176272840591
 21
3.901627382848645
 31
0.0
  0
LINE
  5
220A5
330
22086
100
AcDbEntity
  8
0
  6
CONTINUOUS
100
AcDbLine
 10
10.65037369446246
 20
2.36085458417182
 30
0.0
 11
11.7257946674275
 21
3.436275557136862
 31
0.0
  0
LINE
  5
220A6
330
22086
100
AcDbEntity
  8
0
  6
CONTINUOUS
100
AcDbLine
 10
10.85847197087848
 20
1.895433651507656
 30
0.0
 11
11.9339620507959
 21
2.97092373142508
 31
0.0
  0
LINE
  5
220A7
330
22086
100
AcDbEntity
  8
0
  6
CONTINUOUS
100
AcDbLine
 10
11.0665702472945
 20
1.430012718843491
 30
0.0
 11
12.14212943416431
 21
2.505571905713296
 31
0.0
  0
LINE
  5
220A8
330
22086
100
AcDbEntity
  8
0
  6
CONTINUOUS
100
AcDbLine
 10
11.27466852371052
 20
0.9645917861793256
 30
0.0
 11
12.35029681753271
 21
2.040220080001513
 31
0.0
  0
LINE
  5
220A9
330
22086
100
AcDbEntity
  8
0
  6
CONTINUOUS
100
AcDbLine
 10
11.48276680012654
 20
0.4991708535151611
 30
0.0
 11
12.55846420090111
 21
1.57486825428973
 31
0.0
  0
LINE
  5
220AA
330
22086
100
AcDbEntity
  8
0
  6
CONTINUOUS
100
AcDbLine
 10
11.69086507654257
 20
0.0337499208509957
 30
0.0
 11
12.76663158426952
 21
1.109516428577947
 31
0.0
  0
LINE
  5
220AB
330
22086
100
AcDbEntity
  8
0
  6
CONTINUOUS
100
AcDbLine
 10
12.33057447873954
 20
-0.0000598860322123
 30
0.0
 11
12.97479896763792
 21
0.6441646028661663
 31
0.0
  0
LINE
  5
220AC
330
22086
100
AcDbEntity
  8
0
  6
CONTINUOUS
100
AcDbLine
 10
13.00413694809395
 20
-0.0000166257579952
 30
0.0
 11
13.18296635100632
 21
0.1788127771543824
 31
0.0
  0
LINE
  5
220AD
330
22086
100
AcDbEntity
  8
0
  6
CONTINUOUS
100
AcDbLine
 10
4.772852165289667
 20
-0.000092794222212
 30
0.0
 11
4.296495091028902
 21
0.4762642800385528
 31
0.0
  0
LINE
  5
220AE
330
22086
100
AcDbEntity
  8
0
  6
CONTINUOUS
100
AcDbLine
 10
5.446340034776103
 20
-0.0000614546284616
 30
0.0
 11
2.898195908335625
 21
2.548082671812017
 31
0.0
  0
LINE
  5
220AF
330
22086
100
AcDbEntity
  8
0
  6
CONTINUOUS
100
AcDbLine
 10
6.119827904262539
 20
-0.0000301150347113
 30
0.0
 11
1.499896725642348
 21
4.61990106358548
 31
0.0
  0
LINE
  5
220B0
330
22086
100
AcDbEntity
  8
0
  6
CONTINUOUS
100
AcDbLine
 10
6.775136745476159
 20
0.0181802528318542
 30
0.0
 11
5.699826040202669
 21
1.093490958105344
 31
0.0
  0
LINE
  5
220B1
330
22086
100
AcDbEntity
  8
0
  6
CONTINUOUS
100
AcDbLine
 10
6.983376846288489
 20
0.4834593610997118
 30
0.0
 11
5.908008617934405
 21
1.558827589453796
 31
0.0
  0
LINE
  5
220B2
330
22086
100
AcDbEntity
  8
0
  6
CONTINUOUS
100
AcDbLine
 10
5.377063484962296
 20
1.416253513345719
 30
0.0
 11
1.702276957014131
 21
5.091040041293883
 31
0.0
  0
LINE
  5
220B3
330
22086
100
AcDbEntity
  8
0
  6
CONTINUOUS
100
AcDbLine
 10
3.978745891735324
 20
3.488090315652877
 30
0.0
 11
2.000373521109399
 21
5.466462686278803
 31
0.0
  0
LINE
  5
220B4
330
22086
100
AcDbEntity
  8
0
  6
CONTINUOUS
100
AcDbLine
 10
7.191616947100819
 20
0.948738469367568
 30
0.0
 11
6.11619119566614
 21
2.024164220802247
 31
0.0
  0
LINE
  5
220B5
330
22086
100
AcDbEntity
  8
0
  6
CONTINUOUS
100
AcDbLine
 10
7.399857047913149
 20
1.414017577635424
 30
0.0
 11
6.324373773397875
 21
2.489500852150698
 31
0.0
  0
LINE
  5
220B6
330
22086
100
AcDbEntity
  8
0
  6
CONTINUOUS
100
AcDbLine
 10
7.608097148725479
 20
1.879296685903281
 30
0.0
 11
6.53255635112961
 21
2.95483748349915
 31
0.0
  0
LINE
  5
220B7
330
22086
100
AcDbEntity
  8
0
  6
CONTINUOUS
100
AcDbLine
 10
7.816337249537808
 20
2.344575794171138
 30
0.0
 11
6.740738928861345
 21
3.420174114847601
 31
0.0
  0
LINE
  5
220B8
330
22086
100
AcDbEntity
  8
0
  6
CONTINUOUS
100
AcDbLine
 10
3.310241080789734
 20
4.830114335678653
 30
0.0
 11
2.298470085204666
 21
5.84188533126372
 31
0.0
  0
LINE
  5
220B9
330
22086
100
AcDbEntity
  8
0
  6
CONTINUOUS
100
AcDbLine
 10
3.60832983563551
 20
5.205544789913063
 30
0.0
 11
2.596566649299935
 21
6.217307976248638
 31
0.0
  0
LINE
  5
220BA
330
22086
100
AcDbEntity
  8
0
  6
CONTINUOUS
100
AcDbLine
 10
3.906418590481286
 20
5.580975244147473
 30
0.0
 11
2.894663213395203
 21
6.592730621233557
 31
0.0
  0
LINE
  5
220BB
330
22086
100
AcDbEntity
  8
0
  6
CONTINUOUS
100
AcDbLine
 10
4.204507345327062
 20
5.956405698381884
 30
0.0
 11
3.192759777490472
 21
6.968153266218474
 31
0.0
  0
LINE
  5
220BC
330
22086
100
AcDbEntity
  8
0
  6
CONTINUOUS
100
AcDbLine
 10
8.466032252791512
 20
2.368399999997621
 30
0.0
 11
6.948921506593081
 21
3.885510746196053
 31
0.0
  0
LINE
  5
220BD
330
22086
100
AcDbEntity
  8
0
  6
CONTINUOUS
100
AcDbLine
 10
9.139551461871699
 20
2.36839999999762
 30
0.0
 11
7.157104084324816
 21
4.350847377544504
 31
0.0
  0
LINE
  5
220BE
330
22086
100
AcDbEntity
  8
0
  6
CONTINUOUS
100
AcDbLine
 10
4.502596100172839
 20
6.331836152616295
 30
0.0
 11
3.49085634158574
 21
7.343575911203393
 31
0.0
  0
LINE
  5
220BF
330
22086
100
AcDbEntity
  8
0
  6
CONTINUOUS
100
AcDbLine
 10
4.800684855018615
 20
6.707266606850705
 30
0.0
 11
3.788952905681008
 21
7.718998556188312
 31
0.0
  0
LINE
  5
220C0
330
22086
100
AcDbEntity
  8
0
  6
CONTINUOUS
100
AcDbLine
 10
12.18154012887317
 20
-0.0000694579236642
 30
0.0
 11
11.32140332908496
 21
0.8600673418645499
 31
0.0
  0
LINE
  5
220C1
330
22086
100
AcDbEntity
  8
0
  6
CONTINUOUS
100
AcDbLine
 10
12.85501608323566
 20
-0.0000262032059659
 30
0.0
 11
10.77672456435345
 21
2.078265315676246
 31
0.0
  0
LINE
  5
220C2
330
22086
100
AcDbEntity
  8
0
  6
CONTINUOUS
100
AcDbLine
 10
9.813070670951886
 20
2.36839999999762
 30
0.0
 11
8.51047067095321
 21
3.670999999996297
 31
0.0
  0
LINE
  5
220C3
330
22086
100
AcDbEntity
  8
0
  6
CONTINUOUS
100
AcDbLine
 10
10.48658988003207
 20
2.36839999999762
 30
0.0
 11
9.183989880033396
 21
3.670999999996297
 31
0.0
  0
LINE
  5
220C4
330
22086
100
AcDbEntity
  8
0
  6
CONTINUOUS
100
AcDbLine
 10
8.441048632286794
 20
3.740422038662712
 30
0.0
 11
7.365286662056551
 21
4.816184008892956
 31
0.0
  0
LINE
  5
220C5
330
22086
100
AcDbEntity
  8
0
  6
CONTINUOUS
100
AcDbLine
 10
8.649187485808454
 20
4.205802394221237
 30
0.0
 11
7.573469239788285
 21
5.281520640241407
 31
0.0
  0
LINE
  5
220C6
330
22086
100
AcDbEntity
  8
0
  6
CONTINUOUS
100
AcDbLine
 10
5.098773609864391
 20
7.082697061085115
 30
0.0
 11
4.087049469776277
 21
8.09442120117323
 31
0.0
  0
LINE
  5
220C7
330
22086
100
AcDbEntity
  8
0
  6
CONTINUOUS
100
AcDbLine
 10
5.396862364710167
 20
7.458127515319526
 30
0.0
 11
4.385146033871544
 21
8.469843846158149
 31
0.0
  0
LINE
  5
220C8
330
22086
100
AcDbEntity
  8
0
  6
CONTINUOUS
100
AcDbLine
 10
13.04801363231285
 20
0.4804954567970334
 30
0.0
 11
9.85750908911358
 21
3.670999999996297
 31
0.0
  0
LINE
  5
220C9
330
22086
100
AcDbEntity
  8
0
  6
CONTINUOUS
100
AcDbLine
 10
8.857326339330116
 20
4.671182749779763
 30
0.0
 11
7.781651817520021
 21
5.746857271589858
 31
0.0
  0
LINE
  5
220CA
330
22086
100
AcDbEntity
  8
0
  6
CONTINUOUS
100
AcDbLine
 10
5.694951119555943
 20
7.833557969553937
 30
0.0
 11
4.765409089118624
 21
8.763099999991255
 31
0.0
  0
LINE
  5
220CB
330
22086
100
AcDbEntity
  8
0
  6
CONTINUOUS
100
AcDbLine
 10
12.50286117236978
 20
1.699167125820288
 30
0.0
 11
9.68611877250287
 21
4.515909525687196
 31
0.0
  0
LINE
  5
220CC
330
22086
100
AcDbEntity
  8
0
  6
CONTINUOUS
100
AcDbLine
 10
9.065465192851777
 20
5.136563105338288
 30
0.0
 11
7.989834395251757
 21
6.21219390293831
 31
0.0
  0
LINE
  5
220CD
330
22086
100
AcDbEntity
  8
0
  6
CONTINUOUS
100
AcDbLine
 10
5.993039874401719
 20
8.208988423788346
 30
0.0
 11
5.43892829819881
 21
8.763099999991255
 31
0.0
  0
LINE
  5
220CE
330
22086
100
AcDbEntity
  8
0
  6
CONTINUOUS
100
AcDbLine
 10
11.95770871242671
 20
2.917838794843543
 30
0.0
 11
8.19801697298349
 21
6.677530534286761
 31
0.0
  0
LINE
  5
220CF
330
22086
100
AcDbEntity
  8
0
  6
CONTINUOUS
100
AcDbLine
 10
6.291128629247495
 20
8.584418878022756
 30
0.0
 11
6.112447507278997
 21
8.763099999991255
 31
0.0
  0
LINE
  5
220D0
330
22086
100
AcDbEntity
  8
0
  6
CONTINUOUS
100
AcDbLine
 10
11.41255625248364
 20
4.136510463866797
 30
0.0
 11
8.406199550715227
 21
7.142867165635211
 31
0.0
  0
LINE
  5
220D1
330
22086
100
AcDbEntity
  8
0
  6
CONTINUOUS
100
AcDbLine
 10
10.86740379254057
 20
5.355182132890051
 30
0.0
 11
8.614382128446962
 21
7.608203796983664
 31
0.0
  0
LINE
  5
220D2
330
22086
100
AcDbEntity
  8
0
  6
CONTINUOUS
100
AcDbLine
 10
10.3222513325975
 20
6.573853801913305
 30
0.0
 11
8.822564706178696
 21
8.073540428332114
 31
0.0
  0
LINE
  5
220D3
330
22086
100
AcDbEntity
  8
0
  6
CONTINUOUS
100
AcDbLine
 10
9.777098872654436
 20
7.792525470936562
 30
0.0
 11
9.030747283910433
 21
8.538877059680566
 31
0.0
  0
ENDBLK
  5
22215
330
22086
100
AcDbEntity
  8
0
100
AcDbBlockEnd
  0
BLOCK
  5
22216
330
220D4
100
AcDbEntity
  8
0
100
AcDbBlockBegin
  2
*X146
 70
     1
 10
0.0
 20
0.0
 30
0.0
  3
*X146
  1

  0
LINE
  5
220D5
330
220D4
100
AcDbEntity
  8
0
  6
CONTINUOUS
100
AcDbLine
 10
10.67292308101235
 20
8.445076852443387
 30
0.0
 11
10.99094622856022
 21
8.763099999991255
 31
0.0
  0
LINE
  5
220D6
330
220D4
100
AcDbEntity
  8
0
  6
CONTINUOUS
100
AcDbLine
 10
10.87250383178748
 20
7.971138394138331
 30
0.0
 11
11.6644654376404
 21
8.763099999991255
 31
0.0
  0
LINE
  5
220D7
330
220D4
100
AcDbEntity
  8
0
  6
CONTINUOUS
100
AcDbLine
 10
11.07208458256261
 20
7.497199935833273
 30
0.0
 11
12.12126590876355
 21
8.546381262034211
 31
0.0
  0
LINE
  5
220D8
330
220D4
100
AcDbEntity
  8
0
  6
CONTINUOUS
100
AcDbLine
 10
11.27166533333774
 20
7.023261477528216
 30
0.0
 11
12.32085164573666
 21
8.072447789927136
 31
0.0
  0
LINE
  5
220D9
330
220D4
100
AcDbEntity
  8
0
  6
CONTINUOUS
100
AcDbLine
 10
11.47124608411287
 20
6.549323019223158
 30
0.0
 11
12.52043738270977
 21
7.59851431782006
 31
0.0
  0
LINE
  5
220DA
330
220D4
100
AcDbEntity
  8
0
  6
CONTINUOUS
100
AcDbLine
 10
11.670826834888
 20
6.075384560918101
 30
0.0
 11
12.72002311968288
 21
7.124580845712984
 31
0.0
  0
LINE
  5
220DB
330
220D4
100
AcDbEntity
  8
0
  6
CONTINUOUS
100
AcDbLine
 10
11.87040758566313
 20
5.601446102613043
 30
0.0
 11
12.91960885665599
 21
6.650647373605907
 31
0.0
  0
LINE
  5
220DC
330
220D4
100
AcDbEntity
  8
0
  6
CONTINUOUS
100
AcDbLine
 10
12.06998833643825
 20
5.127507644307986
 30
0.0
 11
13.1191945936291
 21
6.176713901498832
 31
0.0
  0
LINE
  5
220DD
330
220D4
100
AcDbEntity
  8
0
  6
CONTINUOUS
100
AcDbLine
 10
12.26956908721338
 20
4.65356918600293
 30
0.0
 11
13.31878033060221
 21
5.702780429391757
 31
0.0
  0
LINE
  5
220DE
330
220D4
100
AcDbEntity
  8
0
  6
CONTINUOUS
100
AcDbLine
 10
12.46914983798851
 20
4.179630727697873
 30
0.0
 11
13.51836606757532
 21
5.228846957284683
 31
0.0
  0
LINE
  5
220DF
330
220D4
100
AcDbEntity
  8
0
  6
CONTINUOUS
100
AcDbLine
 10
12.66873058876364
 20
3.705692269392816
 30
0.0
 11
13.71795180454843
 21
4.754913485177607
 31
0.0
  0
LINE
  5
220E0
330
220D4
100
AcDbEntity
  8
0
  6
CONTINUOUS
100
AcDbLine
 10
12.86831133953877
 20
3.231753811087759
 30
0.0
 11
13.91753754152154
 21
4.280980013070531
 31
0.0
  0
LINE
  5
220E1
330
220D4
100
AcDbEntity
  8
0
  6
CONTINUOUS
100
AcDbLine
 10
13.0678920903139
 20
2.757815352782702
 30
0.0
 11
14.11712327849465
 21
3.807046540963456
 31
0.0
  0
LINE
  5
220E2
330
220D4
100
AcDbEntity
  8
0
  6
CONTINUOUS
100
AcDbLine
 10
13.26747284108903
 20
2.283876894477644
 30
0.0
 11
14.31670901546777
 21
3.333113068856379
 31
0.0
  0
LINE
  5
220E3
330
220D4
100
AcDbEntity
  8
0
  6
CONTINUOUS
100
AcDbLine
 10
16.36767838827179
 20
8.751678487061342
 30
0.0
 11
16.50332410898388
 21
8.887324207773432
 31
0.0
  0
LINE
  5
220E4
330
220D4
100
AcDbEntity
  8
0
  6
CONTINUOUS
100
AcDbLine
 10
15.96190732182191
 20
7.67238821153127
 30
0.0
 11
16.68735328004734
 21
8.397834169756699
 31
0.0
  0
LINE
  5
220E5
330
220D4
100
AcDbEntity
  8
0
  6
CONTINUOUS
100
AcDbLine
 10
15.55613625537202
 20
6.593097936001196
 30
0.0
 11
16.87138245111079
 21
7.908344131739965
 31
0.0
  0
LINE
  5
220E6
330
220D4
100
AcDbEntity
  8
0
  6
CONTINUOUS
100
AcDbLine
 10
15.15036518892213
 20
5.513807660471122
 30
0.0
 11
17.05541162217424
 21
7.418854093723231
 31
0.0
  0
LINE
  5
220E7
330
220D4
100
AcDbEntity
  8
0
  6
CONTINUOUS
100
AcDbLine
 10
14.74459412247225
 20
4.434517384941048
 30
0.0
 11
17.2394407932377
 21
6.929364055706499
 31
0.0
  0
LINE
  5
220E8
330
220D4
100
AcDbEntity
  8
0
  6
CONTINUOUS
100
AcDbLine
 10
14.33882305602236
 20
3.355227109410975
 30
0.0
 11
17.42346996430115
 21
6.439874017689766
 31
0.0
  0
LINE
  5
220E9
330
220D4
100
AcDbEntity
  8
0
  6
CONTINUOUS
100
AcDbLine
 10
13.46705359186416
 20
1.809938436172586
 30
0.0
 11
16.0819338255367
 21
4.424818669845129
 31
0.0
  0
LINE
  5
220EA
330
220D4
100
AcDbEntity
  8
0
  6
CONTINUOUS
100
AcDbLine
 10
16.63283254238972
 20
4.975717386698149
 30
0.0
 11
17.60749913536461
 21
5.950383979673033
 31
0.0
  0
LINE
  5
220EB
330
220D4
100
AcDbEntity
  8
0
  6
CONTINUOUS
100
AcDbLine
 10
13.66663434263929
 20
1.335999977867529
 30
0.0
 11
15.67604797733754
 21
3.345413612565779
 31
0.0
  0
LINE
  5
220EC
330
220D4
100
AcDbEntity
  8
0
  6
CONTINUOUS
100
AcDbLine
 10
13.86621509341442
 20
0.8620615195624723
 30
0.0
 11
15.27016212913838
 21
2.26600855528643
 31
0.0
  0
LINE
  5
220ED
330
220D4
100
AcDbEntity
  8
0
  6
CONTINUOUS
100
AcDbLine
 10
16.81682257348267
 20
4.486188208710908
 30
0.0
 11
17.79152830642806
 21
5.460893941656299
 31
0.0
  0
LINE
  5
220EE
330
220D4
100
AcDbEntity
  8
0
  6
CONTINUOUS
100
AcDbLine
 10
17.00081260457561
 20
3.996659030723667
 30
0.0
 11
17.97555747749151
 21
4.971403903639565
 31
0.0
  0
LINE
  5
220EF
330
220D4
100
AcDbEntity
  8
0
  6
CONTINUOUS
100
AcDbLine
 10
20.74362343514722
 20
8.412989070375462
 30
0.0
 11
21.09373436476302
 21
8.763099999991256
 31
0.0
  0
LINE
  5
220F0
330
220D4
100
AcDbEntity
  8
0
  6
CONTINUOUS
100
AcDbLine
 10
20.25401257174777
 20
7.249858997895826
 30
0.0
 11
21.7672535738432
 21
8.763099999991255
 31
0.0
  0
LINE
  5
220F1
330
220D4
100
AcDbEntity
  8
0
  6
CONTINUOUS
100
AcDbLine
 10
14.06579584418955
 20
0.3881230612574149
 30
0.0
 11
14.86427628093921
 21
1.186603498007082
 31
0.0
  0
LINE
  5
220F2
330
220D4
100
AcDbEntity
  8
0
  6
CONTINUOUS
100
AcDbLine
 10
14.26537659496467
 20
-0.0858153970476412
 30
0.0
 11
14.45839043274005
 21
0.1071984407277329
 31
0.0
  0
LINE
  5
220F3
330
220D4
100
AcDbEntity
  8
0
  6
CONTINUOUS
100
AcDbLine
 10
17.18480263566856
 20
3.507129852736426
 30
0.0
 11
18.15958664855496
 21
4.481913865622833
 31
0.0
  0
LINE
  5
220F4
330
220D4
100
AcDbEntity
  8
0
  6
CONTINUOUS
100
AcDbLine
 10
17.3687926667615
 20
3.017600674749186
 30
0.0
 11
18.34361581961842
 21
3.9924238276061
 31
0.0
  0
LINE
  5
220F5
330
220D4
100
AcDbEntity
  8
0
  6
CONTINUOUS
100
AcDbLine
 10
19.76440170834832
 20
6.086728925416191
 30
0.0
 11
22.33924590259489
 21
8.661573119662755
 31
0.0
  0
LINE
  5
220F6
330
220D4
100
AcDbEntity
  8
0
  6
CONTINUOUS
100
AcDbLine
 10
19.27479084494887
 20
4.923598852936555
 30
0.0
 11
21.84929622842713
 21
7.498104236414807
 31
0.0
  0
LINE
  5
220F7
330
220D4
100
AcDbEntity
  8
0
  6
CONTINUOUS
100
AcDbLine
 10
17.55278269785445
 20
2.528071496761945
 30
0.0
 11
18.52764499068187
 21
3.502933789589366
 31
0.0
  0
LINE
  5
220F8
330
220D4
100
AcDbEntity
  8
0
  6
CONTINUOUS
100
AcDbLine
 10
18.78517998154942
 20
3.760468780456919
 30
0.0
 11
21.35934655425936
 21
6.33463535316686
 31
0.0
  0
LINE
  5
220F9
330
220D4
100
AcDbEntity
  8
0
  6
CONTINUOUS
100
AcDbLine
 10
17.73677272894739
 20
2.038542318774704
 30
0.0
 11
20.8693968800916
 21
5.171166469918914
 31
0.0
  0
LINE
  5
220FA
330
220D4
100
AcDbEntity
  8
0
  6
CONTINUOUS
100
AcDbLine
 10
17.92076276004034
 20
1.549013140787464
 30
0.0
 11
20.37944720592384
 21
4.007697586670968
 31
0.0
  0
LINE
  5
220FB
330
220D4
100
AcDbEntity
  8
0
  6
CONTINUOUS
100
AcDbLine
 10
18.10475279113329
 20
1.059483962800223
 30
0.0
 11
19.88949753175608
 21
2.84422870342302
 31
0.0
  0
LINE
  5
220FC
330
220D4
100
AcDbEntity
  8
0
  6
CONTINUOUS
100
AcDbLine
 10
18.28874282222623
 20
0.5699547848129822
 30
0.0
 11
19.39954785758832
 21
1.680759820175074
 31
0.0
  0
LINE
  5
220FD
330
220D4
100
AcDbEntity
  8
0
  6
CONTINUOUS
100
AcDbLine
 10
18.47273285331918
 20
0.0804256068257416
 30
0.0
 11
18.90959818342056
 21
0.517290936927127
 31
0.0
  0
LINE
  5
220FE
330
220D4
100
AcDbEntity
  8
0
  6
CONTINUOUS
100
AcDbLine
 10
14.3590401358224
 20
-0.1570118376323384
 30
0.0
 11
14.24903296539946
 21
-0.0470046672093929
 31
0.0
  0
LINE
  5
220FF
330
220D4
100
AcDbEntity
  8
0
  6
CONTINUOUS
100
AcDbLine
 10
14.54309291258661
 20
0.332454594683643
 30
0.0
 11
13.75908329123172
 21
1.116464216038529
 31
0.0
  0
LINE
  5
22100
330
220D4
100
AcDbEntity
  8
0
  6
CONTINUOUS
100
AcDbLine
 10
14.72714568935081
 20
0.8219210269996244
 30
0.0
 11
13.26913361706399
 21
2.27993309928645
 31
0.0
  0
LINE
  5
22101
330
220D4
100
AcDbEntity
  8
0
  6
CONTINUOUS
100
AcDbLine
 10
14.91119846611502
 20
1.311387459315606
 30
0.0
 11
12.77918394289625
 21
3.443401982534371
 31
0.0
  0
LINE
  5
22102
330
220D4
100
AcDbEntity
  8
0
  6
CONTINUOUS
100
AcDbLine
 10
15.09525124287922
 20
1.800853891631587
 30
0.0
 11
12.28923426872852
 21
4.606870865782293
 31
0.0
  0
LINE
  5
22103
330
220D4
100
AcDbEntity
  8
0
  6
CONTINUOUS
100
AcDbLine
 10
15.27930401964343
 20
2.290320323947569
 30
0.0
 11
11.79928459456078
 21
5.770339749030213
 31
0.0
  0
LINE
  5
22104
330
220D4
100
AcDbEntity
  8
0
  6
CONTINUOUS
100
AcDbLine
 10
15.46335679640763
 20
2.77978675626355
 30
0.0
 11
14.48885470994921
 21
3.754288842721972
 31
0.0
  0
LINE
  5
22105
330
220D4
100
AcDbEntity
  8
0
  6
CONTINUOUS
100
AcDbLine
 10
13.88507249233704
 20
4.358071060334137
 30
0.0
 11
11.30933492039305
 21
6.933808632278135
 31
0.0
  0
LINE
  5
22106
330
220D4
100
AcDbEntity
  8
0
  6
CONTINUOUS
100
AcDbLine
 10
18.75840522805855
 20
0.1582575336928151
 30
0.0
 11
18.25383727664818
 21
0.6628254851031863
 31
0.0
  0
LINE
  5
22107
330
220D4
100
AcDbEntity
  8
0
  6
CONTINUOUS
100
AcDbLine
 10
15.64740957317184
 20
3.269253188579531
 30
0.0
 11
14.67288388101266
 21
4.243778880738705
 31
0.0
  0
LINE
  5
22108
330
220D4
100
AcDbEntity
  8
0
  6
CONTINUOUS
100
AcDbLine
 10
13.39509276772158
 20
5.521569994029786
 30
0.0
 11
10.81938524622531
 21
8.097277515526056
 31
0.0
  0
LINE
  5
22109
330
220D4
100
AcDbEntity
  8
0
  6
CONTINUOUS
100
AcDbLine
 10
18.95798597883369
 20
0.6321959919978686
 30
0.0
 11
17.84825644852853
 21
1.741925522303024
 31
0.0
  0
LINE
  5
2210A
330
220D4
100
AcDbEntity
  8
0
  6
CONTINUOUS
100
AcDbLine
 10
19.15756672960882
 20
1.106134450302922
 30
0.0
 11
17.44267562040888
 21
2.821025559502861
 31
0.0
  0
LINE
  5
2210B
330
220D4
100
AcDbEntity
  8
0
  6
CONTINUOUS
100
AcDbLine
 10
15.83146234993604
 20
3.758719620895513
 30
0.0
 11
14.85691305207612
 21
4.733268918755439
 31
0.0
  0
LINE
  5
2210C
330
220D4
100
AcDbEntity
  8
0
  6
CONTINUOUS
100
AcDbLine
 10
16.01551512670025
 20
4.248186053211494
 30
0.0
 11
15.04094222313957
 21
5.222758956772172
 31
0.0
  0
LINE
  5
2210D
330
220D4
100
AcDbEntity
  8
0
  6
CONTINUOUS
100
AcDbLine
 10
12.90511304310612
 20
6.685068927725435
 30
0.0
 11
10.8270819708403
 21
8.763099999991255
 31
0.0
  0
LINE
  5
2210E
330
220D4
100
AcDbEntity
  8
0
  6
CONTINUOUS
100
AcDbLine
 10
12.41513331849066
 20
7.848567861421083
 30
0.0
 11
11.50060117992049
 21
8.763099999991255
 31
0.0
  0
LINE
  5
2210F
330
220D4
100
AcDbEntity
  8
0
  6
CONTINUOUS
100
AcDbLine
 10
19.35714748038395
 20
1.580072908607975
 30
0.0
 11
17.03709479228923
 21
3.900125596702697
 31
0.0
  0
LINE
  5
22110
330
220D4
100
AcDbEntity
  8
0
  6
CONTINUOUS
100
AcDbLine
 10
19.55672823115909
 20
2.054011366913028
 30
0.0
 11
16.63151396416958
 21
4.979225633902534
 31
0.0
  0
LINE
  5
22111
330
220D4
100
AcDbEntity
  8
0
  6
CONTINUOUS
100
AcDbLine
 10
16.19956790346445
 20
4.737652485527476
 30
0.0
 11
15.22497139420302
 21
5.712248994788904
 31
0.0
  0
LINE
  5
22112
330
220D4
100
AcDbEntity
  8
0
  6
CONTINUOUS
100
AcDbLine
 10
16.38362068022866
 20
5.227118917843457
 30
0.0
 11
15.40900056526648
 21
6.201739032805637
 31
0.0
  0
LINE
  5
22113
330
220D4
100
AcDbEntity
  8
0
  6
CONTINUOUS
100
AcDbLine
 10
19.75630898193422
 20
2.527949825218081
 30
0.0
 11
18.70774536448286
 21
3.576513442669441
 31
0.0
  0
LINE
  5
22114
330
220D4
100
AcDbEntity
  8
0
  6
CONTINUOUS
100
AcDbLine
 10
19.95588973270936
 20
3.001888283523134
 30
0.0
 11
18.90726987211446
 21
4.050508144118028
 31
0.0
  0
LINE
  5
22115
330
220D4
100
AcDbEntity
  8
0
  6
CONTINUOUS
100
AcDbLine
 10
20.15547048348449
 20
3.475826741828186
 30
0.0
 11
19.10679437974606
 21
4.524502845566614
 31
0.0
  0
LINE
  5
22116
330
220D4
100
AcDbEntity
  8
0
  6
CONTINUOUS
100
AcDbLine
 10
20.35505123425962
 20
3.94976520013324
 30
0.0
 11
19.30631888737766
 21
4.998497547015201
 31
0.0
  0
LINE
  5
22117
330
220D4
100
AcDbEntity
  8
0
  6
CONTINUOUS
100
AcDbLine
 10
20.55463198503475
 20
4.423703658438292
 30
0.0
 11
19.50584339500926
 21
5.472492248463787
 31
0.0
  0
LINE
  5
22118
330
220D4
100
AcDbEntity
  8
0
  6
CONTINUOUS
100
AcDbLine
 10
18.37481191085755
 20
3.909446896294752
 30
0.0
 11
15.59302973632993
 21
6.691229070822371
 31
0.0
  0
LINE
  5
22119
330
220D4
100
AcDbEntity
  8
0
  6
CONTINUOUS
100
AcDbLine
 10
17.96904084440766
 20
4.988737171824825
 30
0.0
 11
15.77705890739338
 21
7.180719108839104
 31
0.0
  0
LINE
  5
2211A
330
220D4
100
AcDbEntity
  8
0
  6
CONTINUOUS
100
AcDbLine
 10
17.56326977795777
 20
6.068027447354899
 30
0.0
 11
15.96108807845684
 21
7.670209146855838
 31
0.0
  0
LINE
  5
2211B
330
220D4
100
AcDbEntity
  8
0
  6
CONTINUOUS
100
AcDbLine
 10
17.15749871150789
 20
7.147317722884972
 30
0.0
 11
16.14511724952029
 21
8.15969918487257
 31
0.0
  0
LINE
  5
2211C
330
220D4
100
AcDbEntity
  8
0
  6
CONTINUOUS
100
AcDbLine
 10
16.751727645058
 20
8.226607998415046
 30
0.0
 11
16.32914642058374
 21
8.649189222889303
 31
0.0
  0
LINE
  5
2211D
330
220D4
100
AcDbEntity
  8
0
  6
CONTINUOUS
100
AcDbLine
 10
20.75421273580989
 20
4.897642116743345
 30
0.0
 11
19.70536790264086
 21
5.946486949912374
 31
0.0
  0
LINE
  5
2211E
330
220D4
100
AcDbEntity
  8
0
  6
CONTINUOUS
100
AcDbLine
 10
20.95379348658502
 20
5.371580575048398
 30
0.0
 11
19.90489241027246
 21
6.42048165136096
 31
0.0
  0
LINE
  5
2211F
330
220D4
100
AcDbEntity
  8
0
  6
CONTINUOUS
100
AcDbLine
 10
21.15337423736015
 20
5.845519033353452
 30
0.0
 11
20.10441691790406
 21
6.894476352809547
 31
0.0
  0
LINE
  5
22120
330
220D4
100
AcDbEntity
  8
0
  6
CONTINUOUS
100
AcDbLine
 10
21.35295498813529
 20
6.319457491658505
 30
0.0
 11
20.30394142553566
 21
7.368471054258134
 31
0.0
  0
LINE
  5
22121
330
220D4
100
AcDbEntity
  8
0
  6
CONTINUOUS
100
AcDbLine
 10
21.55253573891042
 20
6.793395949963558
 30
0.0
 11
20.50346593316726
 21
7.842465755706721
 31
0.0
  0
LINE
  5
22122
330
220D4
100
AcDbEntity
  8
0
  6
CONTINUOUS
100
AcDbLine
 10
21.75211648968556
 20
7.267334408268612
 30
0.0
 11
20.70299044079886
 21
8.316460457155308
 31
0.0
  0
LINE
  5
22123
330
220D4
100
AcDbEntity
  8
0
  6
CONTINUOUS
100
AcDbLine
 10
21.95169724046069
 20
7.741272866573663
 30
0.0
 11
20.9298701070431
 21
8.763099999991256
 31
0.0
  0
LINE
  5
22124
330
220D4
100
AcDbEntity
  8
0
  6
CONTINUOUS
100
AcDbLine
 10
22.15127799123582
 20
8.215211324878716
 30
0.0
 11
21.60338931612328
 21
8.763099999991256
 31
0.0
  0
LINE
  5
22125
330
220D4
100
AcDbEntity
  8
0
  6
CONTINUOUS
100
AcDbLine
 10
22.35085874201096
 20
8.689149783183769
 30
0.0
 11
22.27690852520347
 21
8.763099999991255
 31
0.0
  0
ENDBLK
  5
22217
330
220D4
100
AcDbEntity
  8
0
100
AcDbBlockEnd
  0
BLOCK
  5
22218
330
22126
100
AcDbEntity
  8
0
100
AcDbBlockBegin
  2
*X147
 70
     1
 10
0.0
 20
0.0
 30
0.0
  3
*X147
  1

  0
LINE
  5
22127
330
22126
100
AcDbEntity
  8
0
  6
CONTINUOUS
100
AcDbLine
 10
23.19462913593892
 20
8.169917934846424
 30
0.0
 11
23.70775465517246
 21
8.683043454079957
 31
0.0
  0
LINE
  5
22128
330
22126
100
AcDbEntity
  8
0
  6
CONTINUOUS
100
AcDbLine
 10
22.64923161835078
 20
6.951001208178088
 30
0.0
 11
23.9159364069932
 21
8.217705996820516
 31
0.0
  0
LINE
  5
22129
330
22126
100
AcDbEntity
  8
0
  6
CONTINUOUS
100
AcDbLine
 10
22.10383410076263
 20
5.732084481509751
 30
0.0
 11
24.12411815881395
 21
7.752368539561078
 31
0.0
  0
LINE
  5
2212A
330
22126
100
AcDbEntity
  8
0
  6
CONTINUOUS
100
AcDbLine
 10
21.55843658317447
 20
4.513167754841414
 30
0.0
 11
24.3322999106347
 21
7.287031082301639
 31
0.0
  0
LINE
  5
2212B
330
22126
100
AcDbEntity
  8
0
  6
CONTINUOUS
100
AcDbLine
 10
21.01303906558632
 20
3.294251028173077
 30
0.0
 11
24.54048166245544
 21
6.821693625042199
 31
0.0
  0
LINE
  5
2212C
330
22126
100
AcDbEntity
  8
0
  6
CONTINUOUS
100
AcDbLine
 10
20.46764154799817
 20
2.075334301504738
 30
0.0
 11
23.28571549467848
 21
4.89340824818505
 31
0.0
  0
LINE
  5
2212D
330
22126
100
AcDbEntity
  8
0
  6
CONTINUOUS
100
AcDbLine
 10
19.92224403041002
 20
0.8564175748364002
 30
0.0
 11
22.74075865492779
 21
3.674932199354171
 31
0.0
  0
LINE
  5
2212E
330
22126
100
AcDbEntity
  8
0
  6
CONTINUOUS
100
AcDbLine
 10
23.67305085490148
 20
5.280743608408048
 30
0.0
 11
24.74866341427619
 21
6.356356167782759
 31
0.0
  0
LINE
  5
2212F
330
22126
100
AcDbEntity
  8
0
  6
CONTINUOUS
100
AcDbLine
 10
23.88118970842314
 20
4.815363252849522
 30
0.0
 11
24.95684516609694
 21
5.89101871052332
 31
0.0
  0
LINE
  5
22130
330
22126
100
AcDbEntity
  8
0
  6
CONTINUOUS
100
AcDbLine
 10
19.73925852647308
 20
-0.0000871381807288
 30
0.0
 11
23.4103456646501
 21
3.670999999996297
 31
0.0
  0
LINE
  5
22131
330
22126
100
AcDbEntity
  8
0
  6
CONTINUOUS
100
AcDbLine
 10
24.0893285619448
 20
4.349982897290997
 30
0.0
 11
25.16502691791769
 21
5.42568125326388
 31
0.0
  0
LINE
  5
22132
330
22126
100
AcDbEntity
  8
0
  6
CONTINUOUS
100
AcDbLine
 10
20.41282099582748
 20
-0.0000438779065108
 30
0.0
 11
21.64944178675636
 21
1.236576913022366
 31
0.0
  0
LINE
  5
22133
330
22126
100
AcDbEntity
  8
0
  6
CONTINUOUS
100
AcDbLine
 10
22.78126487373161
 20
2.36839999999762
 30
0.0
 11
24.08386487373029
 21
3.670999999996297
 31
0.0
  0
LINE
  5
22134
330
22126
100
AcDbEntity
  8
0
  6
CONTINUOUS
100
AcDbLine
 10
24.29746741546646
 20
3.884602541732471
 30
0.0
 11
25.37320866973843
 21
4.960343796004441
 31
0.0
  0
LINE
  5
22135
330
22126
100
AcDbEntity
  8
0
  6
CONTINUOUS
100
AcDbLine
 10
21.08638346518189
 20
-0.0000006176322938
 30
0.0
 11
21.10379033335899
 21
0.0174062505448083
 31
0.0
  0
LINE
  5
22136
330
22126
100
AcDbEntity
  8
0
  6
CONTINUOUS
100
AcDbLine
 10
23.4547840828118
 20
2.36839999999762
 30
0.0
 11
25.58139042155918
 21
4.495006338745002
 31
0.0
  0
LINE
  5
22137
330
22126
100
AcDbEntity
  8
0
  6
CONTINUOUS
100
AcDbLine
 10
29.30199999996933
 20
8.215615917155148
 30
0.0
 11
29.84948408280543
 21
8.763099999991255
 31
0.0
  0
LINE
  5
22138
330
22126
100
AcDbEntity
  8
0
  6
CONTINUOUS
100
AcDbLine
 10
24.12830329189199
 20
2.36839999999762
 30
0.0
 11
25.78957217337993
 21
4.029668881485562
 31
0.0
  0
LINE
  5
22139
330
22126
100
AcDbEntity
  8
0
  6
CONTINUOUS
100
AcDbLine
 10
29.30199999996933
 20
7.54209670807496
 30
0.0
 11
30.52300329188562
 21
8.763099999991255
 31
0.0
  0
LINE
  5
2213A
330
22126
100
AcDbEntity
  8
0
  6
CONTINUOUS
100
AcDbLine
 10
24.80182250097217
 20
2.36839999999762
 30
0.0
 11
25.99775392520067
 21
3.564331424226122
 31
0.0
  0
LINE
  5
2213B
330
22126
100
AcDbEntity
  8
0
  6
CONTINUOUS
100
AcDbLine
 10
29.30199999996933
 20
6.868577498994774
 30
0.0
 11
30.74199999996926
 21
8.308577498994712
 31
0.0
  0
LINE
  5
2213C
330
22126
100
AcDbEntity
  8
0
  6
CONTINUOUS
100
AcDbLine
 10
25.13028238392013
 20
2.023340673865392
 30
0.0
 11
26.20593567702142
 21
3.098993966966683
 31
0.0
  0
LINE
  5
2213D
330
22126
100
AcDbEntity
  8
0
  6
CONTINUOUS
100
AcDbLine
 10
25.33838066033617
 20
1.557919741201244
 30
0.0
 11
26.41411742884217
 21
2.633656509707244
 31
0.0
  0
LINE
  5
2213E
330
22126
100
AcDbEntity
  8
0
  6
CONTINUOUS
100
AcDbLine
 10
25.54647893675221
 20
1.092498808537098
 30
0.0
 11
26.62229918066291
 21
2.168319052447804
 31
0.0
  0
LINE
  5
2213F
330
22126
100
AcDbEntity
  8
0
  6
CONTINUOUS
100
AcDbLine
 10
25.75457721316825
 20
0.62707787587295
 30
0.0
 11
26.83048093248366
 21
1.702981595188365
 31
0.0
  0
LINE
  5
22140
330
22126
100
AcDbEntity
  8
0
  6
CONTINUOUS
100
AcDbLine
 10
29.30199999996933
 20
6.195058289914587
 30
0.0
 11
30.74199999996926
 21
7.635058289914522
 31
0.0
  0
LINE
  5
22141
330
22126
100
AcDbEntity
  8
0
  6
CONTINUOUS
100
AcDbLine
 10
29.30199999996933
 20
5.521539080834401
 30
0.0
 11
30.74199999996926
 21
6.961539080834331
 31
0.0
  0
LINE
  5
22142
330
22126
100
AcDbEntity
  8
0
  6
CONTINUOUS
100
AcDbLine
 10
29.30199999996933
 20
4.848019871754214
 30
0.0
 11
30.74199999996925
 21
6.288019871754143
 31
0.0
  0
LINE
  5
22143
330
22126
100
AcDbEntity
  8
0
  6
CONTINUOUS
100
AcDbLine
 10
29.30199999996933
 20
4.174500662674028
 30
0.0
 11
30.74199999996925
 21
5.614500662673953
 31
0.0
  0
LINE
  5
22144
330
22126
100
AcDbEntity
  8
0
  6
CONTINUOUS
100
AcDbLine
 10
25.96267548958429
 20
0.1616569432088024
 30
0.0
 11
27.18411854636669
 21
1.383099999991207
 31
0.0
  0
LINE
  5
22145
330
22126
100
AcDbEntity
  8
0
  6
CONTINUOUS
100
AcDbLine
 10
29.30199999996933
 20
3.500981453593841
 30
0.0
 11
30.74199999996925
 21
4.940981453593762
 31
0.0
  0
LINE
  5
22146
330
22126
100
AcDbEntity
  8
0
  6
CONTINUOUS
100
AcDbLine
 10
26.50763775544691
 20
0.0330999999912356
 30
0.0
 11
27.85763775544689
 21
1.383099999991223
 31
0.0
  0
LINE
  5
22147
330
22126
100
AcDbEntity
  8
0
  6
CONTINUOUS
100
AcDbLine
 10
29.30199999996933
 20
2.827462244513656
 30
0.0
 11
30.74199999996925
 21
4.267462244513574
 31
0.0
  0
LINE
  5
22148
330
22126
100
AcDbEntity
  8
0
  6
CONTINUOUS
100
AcDbLine
 10
27.18115696452709
 20
0.0330999999912356
 30
0.0
 11
28.55073879889363
 21
1.402681834357775
 31
0.0
  0
LINE
  5
22149
330
22126
100
AcDbEntity
  8
0
  6
CONTINUOUS
100
AcDbLine
 10
29.28241816560272
 20
2.134361201066866
 30
0.0
 11
30.74199999996924
 21
3.593943035433383
 31
0.0
  0
LINE
  5
2214A
330
22126
100
AcDbEntity
  8
0
  6
CONTINUOUS
100
AcDbLine
 10
27.85467617360728
 20
0.0330999999912356
 30
0.0
 11
30.74199999996924
 21
2.920423826353195
 31
0.0
  0
LINE
  5
2214B
330
22126
100
AcDbEntity
  8
0
  6
CONTINUOUS
100
AcDbLine
 10
28.53897559587887
 20
0.0438802131826428
 30
0.0
 11
30.73121978677781
 21
2.236124404081585
 31
0.0
  0
LINE
  5
2214C
330
22126
100
AcDbEntity
  8
0
  6
CONTINUOUS
100
AcDbLine
 10
29.45140055588722
 20
0.2827859641107988
 30
0.0
 11
30.49231403584965
 21
1.323699444073236
 31
0.0
  0
LINE
  5
2214D
330
22126
100
AcDbEntity
  8
0
  6
CONTINUOUS
100
AcDbLine
 10
19.59027867740337
 20
-0.0000967065718083
 30
0.0
 11
19.55485265190471
 21
0.035329318926844
 31
0.0
  0
LINE
  5
2214E
330
22126
100
AcDbEntity
  8
0
  6
CONTINUOUS
100
AcDbLine
 10
20.26375463176586
 20
-0.0000534518541091
 30
0.0
 11
19.76305575737534
 21
0.5006454225364014
 31
0.0
  0
LINE
  5
2214F
330
22126
100
AcDbEntity
  8
0
  6
CONTINUOUS
100
AcDbLine
 10
20.93723058612834
 20
-0.0000101971364099
 30
0.0
 11
19.97125886284597
 21
0.965961526145958
 31
0.0
  0
LINE
  5
22150
330
22126
100
AcDbEntity
  8
0
  6
CONTINUOUS
100
AcDbLine
 10
21.25514828313686
 20
0.355591314935257
 30
0.0
 11
20.1794619683166
 21
1.431277629755512
 31
0.0
  0
LINE
  5
22151
330
22126
100
AcDbEntity
  8
0
  6
CONTINUOUS
100
AcDbLine
 10
21.46338838394921
 20
0.8208704232030986
 30
0.0
 11
20.38766507378723
 21
1.896593733365069
 31
0.0
  0
LINE
  5
22152
330
22126
100
AcDbEntity
  8
0
  6
CONTINUOUS
100
AcDbLine
 10
21.67162848476155
 20
1.28614953147094
 30
0.0
 11
20.59586817925786
 21
2.361909836974626
 31
0.0
  0
LINE
  5
22153
330
22126
100
AcDbEntity
  8
0
  6
CONTINUOUS
100
AcDbLine
 10
21.8798685855739
 20
1.751428639738782
 30
0.0
 11
20.80407128472849
 21
2.827225940584183
 31
0.0
  0
LINE
  5
22154
330
22126
100
AcDbEntity
  8
0
  6
CONTINUOUS
100
AcDbLine
 10
22.08810868638624
 20
2.216707748006623
 30
0.0
 11
21.01227439019912
 21
3.292542044193739
 31
0.0
  0
LINE
  5
22155
330
22126
100
AcDbEntity
  8
0
  6
CONTINUOUS
100
AcDbLine
 10
22.60993564347543
 20
2.36839999999762
 30
0.0
 11
21.22047749566975
 21
3.757858147803296
 31
0.0
  0
LINE
  5
22156
330
22126
100
AcDbEntity
  8
0
  6
CONTINUOUS
100
AcDbLine
 10
23.28345485255561
 20
2.36839999999762
 30
0.0
 11
21.42868060114038
 21
4.223174251412853
 31
0.0
  0
LINE
  5
22157
330
22126
100
AcDbEntity
  8
0
  6
CONTINUOUS
100
AcDbLine
 10
26.29227406164219
 20
0.0330999999912356
 30
0.0
 11
25.80009199592872
 21
0.5252820657046957
 31
0.0
  0
LINE
  5
22158
330
22126
100
AcDbEntity
  8
0
  6
CONTINUOUS
100
AcDbLine
 10
23.9569740616358
 20
2.36839999999762
 30
0.0
 11
21.63688370661101
 21
4.688490355022409
 31
0.0
  0
LINE
  5
22159
330
22126
100
AcDbEntity
  8
0
  6
CONTINUOUS
100
AcDbLine
 10
26.96579327072237
 20
0.0330999999912356
 30
0.0
 11
25.2554132311971
 21
1.743480039516508
 31
0.0
  0
LINE
  5
2215A
330
22126
100
AcDbEntity
  8
0
  6
CONTINUOUS
100
AcDbLine
 10
24.63049327071599
 20
2.36839999999762
 30
0.0
 11
23.32789327071731
 21
3.670999999996297
 31
0.0
  0
LINE
  5
2215B
330
22126
100
AcDbEntity
  8
0
  6
CONTINUOUS
100
AcDbLine
 10
22.92098674744635
 20
4.077906523267254
 30
0.0
 11
21.84508681208164
 21
5.153806458631966
 31
0.0
  0
LINE
  5
2215C
330
22126
100
AcDbEntity
  8
0
  6
CONTINUOUS
100
AcDbLine
 10
27.63931247980256
 20
0.0330999999912356
 30
0.0
 11
24.0014124797975
 21
3.670999999996297
 31
0.0
  0
LINE
  5
2215D
330
22126
100
AcDbEntity
  8
0
  6
CONTINUOUS
100
AcDbLine
 10
23.129125600968
 20
4.5432868788258
 30
0.0
 11
22.05328991755227
 21
5.619122562241522
 31
0.0
  0
LINE
  5
2215E
330
22126
100
AcDbEntity
  8
0
  6
CONTINUOUS
100
AcDbLine
 10
28.31283168888275
 20
0.0330999999912356
 30
0.0
 11
24.16488385994816
 21
4.181047828925828
 31
0.0
  0
LINE
  5
2215F
330
22126
100
AcDbEntity
  8
0
  6
CONTINUOUS
100
AcDbLine
 10
23.33726445448964
 20
5.008667234384345
 30
0.0
 11
22.2614930230229
 21
6.084438665851079
 31
0.0
  0
LINE
  5
22160
330
22126
100
AcDbEntity
  8
0
  6
CONTINUOUS
100
AcDbLine
 10
28.92085740005492
 20
0.0985934978992438
 30
0.0
 11
27.63635089796295
 21
1.383099999991217
 31
0.0
  0
LINE
  5
22161
330
22126
100
AcDbEntity
  8
0
  6
CONTINUOUS
100
AcDbLine
 10
26.43704649509776
 20
2.582404402856405
 30
0.0
 11
23.61992702019732
 21
5.399523877756844
 31
0.0
  0
LINE
  5
22162
330
22126
100
AcDbEntity
  8
0
  6
CONTINUOUS
100
AcDbLine
 10
23.54540330801128
 20
5.47404758994289
 30
0.0
 11
22.46969612849353
 21
6.549754769460635
 31
0.0
  0
LINE
  5
22163
330
22126
100
AcDbEntity
  8
0
  6
CONTINUOUS
100
AcDbLine
 10
29.42225615078443
 20
0.2707139562499279
 30
0.0
 11
28.30987010704312
 21
1.383099999991234
 31
0.0
  0
LINE
  5
22164
330
22126
100
AcDbEntity
  8
0
  6
CONTINUOUS
100
AcDbLine
 10
25.89179548232307
 20
3.801174624711282
 30
0.0
 11
22.67789923396416
 21
7.015070873070191
 31
0.0
  0
LINE
  5
22165
330
22126
100
AcDbEntity
  8
0
  6
CONTINUOUS
100
AcDbLine
 10
29.83624534690007
 20
0.5302439692144705
 30
0.0
 11
28.85811781497101
 21
1.508371501143527
 31
0.0
  0
LINE
  5
22166
330
22126
100
AcDbEntity
  8
0
  6
CONTINUOUS
100
AcDbLine
 10
25.34654446954838
 20
5.01994484656616
 30
0.0
 11
22.88610233943479
 21
7.480386976679748
 31
0.0
  0
LINE
  5
22167
330
22126
100
AcDbEntity
  8
0
  6
CONTINUOUS
100
AcDbLine
 10
30.17865975401872
 20
0.8613487711760022
 30
0.0
 11
29.18888744090175
 21
1.851121084292977
 31
0.0
  0
LINE
  5
22168
330
22126
100
AcDbEntity
  8
0
  6
CONTINUOUS
100
AcDbLine
 10
24.80129345677369
 20
6.238715068421037
 30
0.0
 11
23.09430544490542
 21
7.945703080289305
 31
0.0
  0
LINE
  5
22169
330
22126
100
AcDbEntity
  8
0
  6
CONTINUOUS
100
AcDbLine
 10
30.45496647202376
 20
1.258561262251155
 30
0.0
 11
29.30199999996933
 21
2.411527734305588
 31
0.0
  0
LINE
  5
2216A
330
22126
100
AcDbEntity
  8
0
  6
CONTINUOUS
100
AcDbLine
 10
24.256042443999
 20
7.457485290275915
 30
0.0
 11
23.30250855037605
 21
8.411019183898862
 31
0.0
  0
LINE
  5
2216B
330
22126
100
AcDbEntity
  8
0
  6
CONTINUOUS
100
AcDbLine
 10
30.64868582078271
 20
1.738361122572387
 30
0.0
 11
29.30199999996933
 21
3.085046943385775
 31
0.0
  0
LINE
  5
2216C
330
22126
100
AcDbEntity
  8
0
  6
CONTINUOUS
100
AcDbLine
 10
23.71079143122431
 20
8.676255512130794
 30
0.0
 11
23.51071165584668
 21
8.876335287508416
 31
0.0
  0
LINE
  5
2216D
330
22126
100
AcDbEntity
  8
0
  6
CONTINUOUS
100
AcDbLine
 10
30.73802122914428
 20
2.322544923291007
 30
0.0
 11
29.30199999996933
 21
3.758566152465961
 31
0.0
  0
LINE
  5
2216E
330
22126
100
AcDbEntity
  8
0
  6
CONTINUOUS
100
AcDbLine
 10
30.74199999996924
 20
2.992085361546236
 30
0.0
 11
29.30199999996933
 21
4.432085361546148
 31
0.0
  0
LINE
  5
2216F
330
22126
100
AcDbEntity
  8
0
  6
CONTINUOUS
100
AcDbLine
 10
30.74199999996924
 20
3.665604570626419
 30
0.0
 11
29.30199999996933
 21
5.105604570626333
 31
0.0
  0
LINE
  5
22170
330
22126
100
AcDbEntity
  8
0
  6
CONTINUOUS
100
AcDbLine
 10
30.74199999996925
 20
4.339123779706602
 30
0.0
 11
29.30199999996933
 21
5.77912377970652
 31
0.0
  0
LINE
  5
22171
330
22126
100
AcDbEntity
  8
0
  6
CONTINUOUS
100
AcDbLine
 10
30.74199999996925
 20
5.012642988786785
 30
0.0
 11
29.30199999996933
 21
6.452642988786707
 31
0.0
  0
LINE
  5
22172
330
22126
100
AcDbEntity
  8
0
  6
CONTINUOUS
100
AcDbLine
 10
30.74199999996925
 20
5.68616219786697
 30
0.0
 11
29.30199999996933
 21
7.126162197866894
 31
0.0
  0
LINE
  5
22173
330
22126
100
AcDbEntity
  8
0
  6
CONTINUOUS
100
AcDbLine
 10
30.74199999996925
 20
6.359681406947153
 30
0.0
 11
29.30199999996933
 21
7.799681406947081
 31
0.0
  0
LINE
  5
22174
330
22126
100
AcDbEntity
  8
0
  6
CONTINUOUS
100
AcDbLine
 10
30.74199999996926
 20
7.033200616027337
 30
0.0
 11
29.30199999996933
 21
8.473200616027269
 31
0.0
  0
LINE
  5
22175
330
22126
100
AcDbEntity
  8
0
  6
CONTINUOUS
100
AcDbLine
 10
30.74199999996926
 20
7.706719825107518
 30
0.0
 11
29.68561982508552
 21
8.763099999991255
 31
0.0
  0
LINE
  5
22176
330
22126
100
AcDbEntity
  8
0
  6
CONTINUOUS
100
AcDbLine
 10
30.74199999996926
 20
8.380239034187703
 30
0.0
 11
30.35913903416571
 21
8.763099999991255
 31
0.0
  0
ENDBLK
  5
22219
330
22126
100
AcDbEntity
  8
0
100
AcDbBlockEnd
  0
BLOCK
  5
2221A
330
22177
100
AcDbEntity
  8
0
100
AcDbBlockBegin
  2
*X148
 70
     1
 10
0.0
 20
0.0
 30
0.0
  3
*X148
  1

  0
LINE
  5
22178
330
22177
100
AcDbEntity
  8
0
  6
CONTINUOUS
100
AcDbLine
 10
31.64199999996833
 20
8.535058289913598
 30
0.0
 11
31.87004171004599
 21
8.763099999991255
 31
0.0
  0
LINE
  5
22179
330
22177
100
AcDbEntity
  8
0
  6
CONTINUOUS
100
AcDbLine
 10
31.64199999996833
 20
7.861539080833412
 30
0.0
 11
32.54356091912618
 21
8.763099999991255
 31
0.0
  0
LINE
  5
2217A
330
22177
100
AcDbEntity
  8
0
  6
CONTINUOUS
100
AcDbLine
 10
31.64199999996833
 20
7.188019871753226
 30
0.0
 11
33.08199999996839
 21
8.628019871753281
 31
0.0
  0
LINE
  5
2217B
330
22177
100
AcDbEntity
  8
0
  6
CONTINUOUS
100
AcDbLine
 10
31.64199999996833
 20
6.51450066267304
 30
0.0
 11
33.08199999996839
 21
7.954500662673095
 31
0.0
  0
LINE
  5
2217C
330
22177
100
AcDbEntity
  8
0
  6
CONTINUOUS
100
AcDbLine
 10
31.64199999996833
 20
5.840981453592853
 30
0.0
 11
33.08199999996839
 21
7.280981453592908
 31
0.0
  0
LINE
  5
2217D
330
22177
100
AcDbEntity
  8
0
  6
CONTINUOUS
100
AcDbLine
 10
31.64199999996833
 20
5.167462244512667
 30
0.0
 11
33.08199999996839
 21
6.607462244512721
 31
0.0
  0
LINE
  5
2217E
330
22177
100
AcDbEntity
  8
0
  6
CONTINUOUS
100
AcDbLine
 10
31.64199999996833
 20
4.493943035432481
 30
0.0
 11
33.08199999996839
 21
5.933943035432535
 31
0.0
  0
LINE
  5
2217F
330
22177
100
AcDbEntity
  8
0
  6
CONTINUOUS
100
AcDbLine
 10
31.64199999996833
 20
3.820423826352293
 30
0.0
 11
33.08199999996839
 21
5.260423826352348
 31
0.0
  0
LINE
  5
22180
330
22177
100
AcDbEntity
  8
0
  6
CONTINUOUS
100
AcDbLine
 10
31.64199999996833
 20
3.146904617272106
 30
0.0
 11
33.08199999996839
 21
4.586904617272161
 31
0.0
  0
LINE
  5
22181
330
22177
100
AcDbEntity
  8
0
  6
CONTINUOUS
100
AcDbLine
 10
36.23199999996837
 20
8.410423826352325
 30
0.0
 11
36.5846761736073
 21
8.763099999991255
 31
0.0
  0
LINE
  5
22182
330
22177
100
AcDbEntity
  8
0
  6
CONTINUOUS
100
AcDbLine
 10
36.23199999996837
 20
7.73690461727214
 30
0.0
 11
37.25819538268748
 21
8.763099999991255
 31
0.0
  0
LINE
  5
22183
330
22177
100
AcDbEntity
  8
0
  6
CONTINUOUS
100
AcDbLine
 10
31.64257403601376
 20
2.473959444237348
 30
0.0
 11
33.08199999996839
 21
3.913385408191974
 31
0.0
  0
LINE
  5
22184
330
22177
100
AcDbEntity
  8
0
  6
CONTINUOUS
100
AcDbLine
 10
36.23199999996837
 20
7.063385408191953
 30
0.0
 11
37.67199999996831
 21
8.503385408191894
 31
0.0
  0
LINE
  5
22185
330
22177
100
AcDbEntity
  8
0
  6
CONTINUOUS
100
AcDbLine
 10
31.72013636841932
 20
1.87800256756272
 30
0.0
 11
33.08199999996839
 21
3.239866199111788
 31
0.0
  0
LINE
  5
22186
330
22177
100
AcDbEntity
  8
0
  6
CONTINUOUS
100
AcDbLine
 10
36.23199999996837
 20
6.389866199111767
 30
0.0
 11
37.67199999996831
 21
7.829866199111708
 31
0.0
  0
LINE
  5
22187
330
22177
100
AcDbEntity
  8
0
  6
CONTINUOUS
100
AcDbLine
 10
31.89042734314753
 20
1.374774333210744
 30
0.0
 11
33.08199999996839
 21
2.566346990031601
 31
0.0
  0
LINE
  5
22188
330
22177
100
AcDbEntity
  8
0
  6
CONTINUOUS
100
AcDbLine
 10
36.23199999996837
 20
5.71634699003158
 30
0.0
 11
37.67199999996831
 21
7.156346990031521
 31
0.0
  0
LINE
  5
22189
330
22177
100
AcDbEntity
  8
0
  6
CONTINUOUS
100
AcDbLine
 10
32.14210568064475
 20
0.952933461627778
 30
0.0
 11
33.18745552475986
 21
1.998283305742888
 31
0.0
  0
LINE
  5
2218A
330
22177
100
AcDbEntity
  8
0
  6
CONTINUOUS
100
AcDbLine
 10
36.23199999996837
 20
5.042827780951393
 30
0.0
 11
37.67199999996831
 21
6.482827780951334
 31
0.0
  0
LINE
  5
2218B
330
22177
100
AcDbEntity
  8
0
  6
CONTINUOUS
100
AcDbLine
 10
32.45820639400955
 20
0.5955149659123915
 30
0.0
 11
33.47242681921943
 21
1.60973539112227
 31
0.0
  0
LINE
  5
2218C
330
22177
100
AcDbEntity
  8
0
  6
CONTINUOUS
100
AcDbLine
 10
36.23199999996837
 20
4.369308571871207
 30
0.0
 11
37.67199999996831
 21
5.809308571871147
 31
0.0
  0
LINE
  5
2218D
330
22177
100
AcDbEntity
  8
0
  6
CONTINUOUS
100
AcDbLine
 10
32.83432456621412
 20
0.2981139290367771
 30
0.0
 11
33.89722476612215
 21
1.361014128944803
 31
0.0
  0
LINE
  5
2218E
330
22177
100
AcDbEntity
  8
0
  6
CONTINUOUS
100
AcDbLine
 10
36.23199999996837
 20
3.69578936279102
 30
0.0
 11
37.67199999996831
 21
5.135789362790962
 31
0.0
  0
LINE
  5
2218F
330
22177
100
AcDbEntity
  8
0
  6
CONTINUOUS
100
AcDbLine
 10
33.2711633111245
 20
0.0614334648669672
 30
0.0
 11
34.43247338014423
 21
1.222743533886696
 31
0.0
  0
LINE
  5
22190
330
22177
100
AcDbEntity
  8
0
  6
CONTINUOUS
100
AcDbLine
 10
36.23199999996837
 20
3.022270153710834
 30
0.0
 11
37.67199999996831
 21
4.462270153710775
 31
0.0
  0
LINE
  5
22191
330
22177
100
AcDbEntity
  8
0
  6
CONTINUOUS
100
AcDbLine
 10
33.76515245874577
 20
-0.1180965965919523
 30
0.0
 11
35.1587445516215
 21
1.27549549628378
 31
0.0
  0
LINE
  5
22192
330
22177
100
AcDbEntity
  8
0
  6
CONTINUOUS
100
AcDbLine
 10
36.21639478609585
 20
2.333145730758136
 30
0.0
 11
37.67199999996831
 21
3.788750944630588
 31
0.0
  0
LINE
  5
22193
330
22177
100
AcDbEntity
  8
0
  6
CONTINUOUS
100
AcDbLine
 10
34.34060583368432
 20
-0.2161624307335863
 30
0.0
 11
37.67199999996831
 21
3.115231735550401
 31
0.0
  0
LINE
  5
22194
330
22177
100
AcDbEntity
  8
0
  6
CONTINUOUS
100
AcDbLine
 10
35.01698193613905
 20
-0.2133055373590427
 30
0.0
 11
37.66876712070525
 21
2.438479647207154
 31
0.0
  0
LINE
  5
22195
330
22177
100
AcDbEntity
  8
0
  6
CONTINUOUS
100
AcDbLine
 10
35.90743367693304
 20
0.0036269943547609
 30
0.0
 11
37.51723902192366
 21
1.613432339345381
 31
0.0
  0
LINE
  5
22196
330
22177
100
AcDbEntity
  8
0
  6
CONTINUOUS
100
AcDbLine
 10
32.55309425579761
 20
0.5074718966376706
 30
0.0
 11
32.27784730925847
 21
0.7827188431768102
 31
0.0
  0
LINE
  5
22197
330
22177
100
AcDbEntity
  8
0
  6
CONTINUOUS
100
AcDbLine
 10
33.87496468909684
 20
-0.1408793275813673
 30
0.0
 11
31.67993083278052
 21
2.054154528734943
 31
0.0
  0
LINE
  5
22198
330
22177
100
AcDbEntity
  8
0
  6
CONTINUOUS
100
AcDbLine
 10
34.64362813207632
 20
-0.2360235614806649
 30
0.0
 11
31.64199999996833
 21
2.765604570627322
 31
0.0
  0
LINE
  5
22199
330
22177
100
AcDbEntity
  8
0
  6
CONTINUOUS
100
AcDbLine
 10
35.25801106796118
 20
-0.1768872882853429
 30
0.0
 11
31.64199999996833
 21
3.439123779707508
 31
0.0
  0
LINE
  5
2219A
330
22177
100
AcDbEntity
  8
0
  6
CONTINUOUS
100
AcDbLine
 10
35.79065650332146
 20
-0.0360135145654361
 30
0.0
 11
34.54143210838231
 21
1.213210880373721
 31
0.0
  0
LINE
  5
2219B
330
22177
100
AcDbEntity
  8
0
  6
CONTINUOUS
100
AcDbLine
 10
33.08199999996839
 20
2.67264298878764
 30
0.0
 11
31.64199999996833
 21
4.112642988787695
 31
0.0
  0
LINE
  5
2219C
330
22177
100
AcDbEntity
  8
0
  6
CONTINUOUS
100
AcDbLine
 10
36.25975597779143
 20
0.1684062200447833
 30
0.0
 11
35.15395110240023
 21
1.274211095435983
 31
0.0
  0
LINE
  5
2219D
330
22177
100
AcDbEntity
  8
0
  6
CONTINUOUS
100
AcDbLine
 10
33.08199999996839
 20
3.346162197867826
 30
0.0
 11
31.64199999996833
 21
4.786162197867881
 31
0.0
  0
LINE
  5
2219E
330
22177
100
AcDbEntity
  8
0
  6
CONTINUOUS
100
AcDbLine
 10
36.67226329638774
 20
0.4294181105286579
 30
0.0
 11
35.63766478748767
 21
1.464016619428737
 31
0.0
  0
LINE
  5
2219F
330
22177
100
AcDbEntity
  8
0
  6
CONTINUOUS
100
AcDbLine
 10
33.08199999996839
 20
4.019681406948012
 30
0.0
 11
31.64199999996833
 21
5.459681406948068
 31
0.0
  0
LINE
  5
221A0
330
22177
100
AcDbEntity
  8
0
  6
CONTINUOUS
100
AcDbLine
 10
37.01677749710036
 20
0.7584231188962329
 30
0.0
 11
35.99563422741351
 21
1.779566388583076
 31
0.0
  0
LINE
  5
221A1
330
22177
100
AcDbEntity
  8
0
  6
CONTINUOUS
100
AcDbLine
 10
33.08199999996839
 20
4.693200616028199
 30
0.0
 11
31.64199999996833
 21
6.133200616028255
 31
0.0
  0
LINE
  5
221A2
330
22177
100
AcDbEntity
  8
0
  6
CONTINUOUS
100
AcDbLine
 10
37.29859977568887
 20
1.1501200493879
 30
0.0
 11
36.20680593341555
 21
2.241913891661226
 31
0.0
  0
LINE
  5
221A3
330
22177
100
AcDbEntity
  8
0
  6
CONTINUOUS
100
AcDbLine
 10
33.08199999996839
 20
5.366719825108386
 30
0.0
 11
31.64199999996833
 21
6.80671982510844
 31
0.0
  0
LINE
  5
221A4
330
22177
100
AcDbEntity
  8
0
  6
CONTINUOUS
100
AcDbLine
 10
37.5148623517228
 20
1.607376682434161
 30
0.0
 11
36.23199999996837
 21
2.890239034188594
 31
0.0
  0
LINE
  5
221A5
330
22177
100
AcDbEntity
  8
0
  6
CONTINUOUS
100
AcDbLine
 10
33.08199999996839
 20
6.040239034188573
 30
0.0
 11
31.64199999996833
 21
7.480239034188627
 31
0.0
  0
LINE
  5
221A6
330
22177
100
AcDbEntity
  8
0
  6
CONTINUOUS
100
AcDbLine
 10
37.64705163358367
 20
2.148706609653477
 30
0.0
 11
36.23199999996837
 21
3.56375824326878
 31
0.0
  0
LINE
  5
221A7
330
22177
100
AcDbEntity
  8
0
  6
CONTINUOUS
100
AcDbLine
 10
33.08199999996839
 20
6.713758243268758
 30
0.0
 11
31.64199999996833
 21
8.153758243268815
 31
0.0
  0
LINE
  5
221A8
330
22177
100
AcDbEntity
  8
0
  6
CONTINUOUS
100
AcDbLine
 10
37.67199999996831
 20
2.797277452349026
 30
0.0
 11
36.23199999996837
 21
4.237277452348967
 31
0.0
  0
LINE
  5
221A9
330
22177
100
AcDbEntity
  8
0
  6
CONTINUOUS
100
AcDbLine
 10
37.67199999996831
 20
3.470796661429213
 30
0.0
 11
36.23199999996837
 21
4.910796661429154
 31
0.0
  0
LINE
  5
221AA
330
22177
100
AcDbEntity
  8
0
  6
CONTINUOUS
100
AcDbLine
 10
37.67199999996831
 20
4.144315870509399
 30
0.0
 11
36.23199999996837
 21
5.58431587050934
 31
0.0
  0
LINE
  5
221AB
330
22177
100
AcDbEntity
  8
0
  6
CONTINUOUS
100
AcDbLine
 10
33.08199999996839
 20
7.387277452348945
 30
0.0
 11
31.70617745232608
 21
8.763099999991255
 31
0.0
  0
LINE
  5
221AC
330
22177
100
AcDbEntity
  8
0
  6
CONTINUOUS
100
AcDbLine
 10
33.08199999996839
 20
8.060796661429132
 30
0.0
 11
32.37969666140626
 21
8.763099999991255
 31
0.0
  0
LINE
  5
221AD
330
22177
100
AcDbEntity
  8
0
  6
CONTINUOUS
100
AcDbLine
 10
33.08199999996839
 20
8.734315870509318
 30
0.0
 11
33.05321587048645
 21
8.763099999991255
 31
0.0
  0
LINE
  5
221AE
330
22177
100
AcDbEntity
  8
0
  6
CONTINUOUS
100
AcDbLine
 10
37.67199999996831
 20
4.817835079589585
 30
0.0
 11
36.23199999996837
 21
6.257835079589526
 31
0.0
  0
LINE
  5
221AF
330
22177
100
AcDbEntity
  8
0
  6
CONTINUOUS
100
AcDbLine
 10
37.67199999996831
 20
5.491354288669771
 30
0.0
 11
36.23199999996837
 21
6.931354288669713
 31
0.0
  0
LINE
  5
221B0
330
22177
100
AcDbEntity
  8
0
  6
CONTINUOUS
100
AcDbLine
 10
37.67199999996831
 20
6.164873497749958
 30
0.0
 11
36.23199999996837
 21
7.6048734977499
 31
0.0
  0
LINE
  5
221B1
330
22177
100
AcDbEntity
  8
0
  6
CONTINUOUS
100
AcDbLine
 10
37.67199999996831
 20
6.838392706830144
 30
0.0
 11
36.23199999996837
 21
8.278392706830086
 31
0.0
  0
LINE
  5
221B2
330
22177
100
AcDbEntity
  8
0
  6
CONTINUOUS
100
AcDbLine
 10
37.67199999996831
 20
7.511911915910332
 30
0.0
 11
36.42081191588738
 21
8.763099999991255
 31
0.0
  0
LINE
  5
221B3
330
22177
100
AcDbEntity
  8
0
  6
CONTINUOUS
100
AcDbLine
 10
37.67199999996831
 20
8.185431124990519
 30
0.0
 11
37.09433112496757
 21
8.763099999991255
 31
0.0
  0
ENDBLK
  5
2221B
330
22177
100
AcDbEntity
  8
0
100
AcDbBlockEnd
  0
BLOCK
  5
2221C
330
221B4
100
AcDbEntity
  8
0
100
AcDbBlockBegin
  2
*X149
 70
     1
 10
0.0
 20
0.0
 30
0.0
  3
*X149
  1

  0
LINE
  5
221B5
330
221B4
100
AcDbEntity
  8
0
  6
CONTINUOUS
100
AcDbLine
 10
38.60499999996136
 20
8.762866199104765
 30
0.0
 11
38.71672554182345
 21
8.874591740966855
 31
0.0
  0
LINE
  5
221B6
330
221B4
100
AcDbEntity
  8
0
  6
CONTINUOUS
100
AcDbLine
 10
38.60499999996136
 20
8.089346990024577
 30
0.0
 11
39.03418785440363
 21
8.518534844466847
 31
0.0
  0
LINE
  5
221B7
330
221B4
100
AcDbEntity
  8
0
  6
CONTINUOUS
100
AcDbLine
 10
38.60499999996136
 20
7.41582778094439
 30
0.0
 11
39.35165016698382
 21
8.16247794796684
 31
0.0
  0
LINE
  5
221B8
330
221B4
100
AcDbEntity
  8
0
  6
CONTINUOUS
100
AcDbLine
 10
38.60499999996136
 20
6.742308571864204
 30
0.0
 11
39.66911247956399
 21
7.806421051466834
 31
0.0
  0
LINE
  5
221B9
330
221B4
100
AcDbEntity
  8
0
  6
CONTINUOUS
100
AcDbLine
 10
38.60499999996136
 20
6.068789362784018
 30
0.0
 11
39.98657479214418
 21
7.450364154966827
 31
0.0
  0
LINE
  5
221BA
330
221B4
100
AcDbEntity
  8
0
  6
CONTINUOUS
100
AcDbLine
 10
38.60499999996136
 20
5.395270153703832
 30
0.0
 11
40.30403710472435
 21
7.09430725846682
 31
0.0
  0
LINE
  5
221BB
330
221B4
100
AcDbEntity
  8
0
  6
CONTINUOUS
100
AcDbLine
 10
38.60499999996136
 20
4.721750944623645
 30
0.0
 11
40.62149941730453
 21
6.738250361966813
 31
0.0
  0
LINE
  5
221BC
330
221B4
100
AcDbEntity
  8
0
  6
CONTINUOUS
100
AcDbLine
 10
38.60499999996136
 20
4.048231735543458
 30
0.0
 11
40.93896172988471
 21
6.382193465466806
 31
0.0
  0
LINE
  5
221BD
330
221B4
100
AcDbEntity
  8
0
  6
CONTINUOUS
100
AcDbLine
 10
38.60499999996136
 20
3.374712526463272
 30
0.0
 11
40.02599999995994
 21
4.795712526461843
 31
0.0
  0
LINE
  5
221BE
330
221B4
100
AcDbEntity
  8
0
  6
CONTINUOUS
100
AcDbLine
 10
38.60499999996136
 20
2.701193317383085
 30
0.0
 11
40.02599999995994
 21
4.122193317381657
 31
0.0
  0
LINE
  5
221BF
330
221B4
100
AcDbEntity
  8
0
  6
CONTINUOUS
100
AcDbLine
 10
40.28339754687704
 20
5.053110073378947
 30
0.0
 11
41.25642404246489
 21
6.026136568966799
 31
0.0
  0
LINE
  5
221C0
330
221B4
100
AcDbEntity
  8
0
  6
CONTINUOUS
100
AcDbLine
 10
40.60085985945722
 20
4.697053176878939
 30
0.0
 11
41.57388635504507
 21
5.670079672466793
 31
0.0
  0
LINE
  5
221C1
330
221B4
100
AcDbEntity
  8
0
  6
CONTINUOUS
100
AcDbLine
 10
43.57899999995641
 20
8.348712526458318
 30
0.0
 11
43.99338747348935
 21
8.763099999991255
 31
0.0
  0
LINE
  5
221C2
330
221B4
100
AcDbEntity
  8
0
  6
CONTINUOUS
100
AcDbLine
 10
43.57899999995641
 20
7.675193317378131
 30
0.0
 11
44.66690668256953
 21
8.763099999991255
 31
0.0
  0
LINE
  5
221C3
330
221B4
100
AcDbEntity
  8
0
  6
CONTINUOUS
100
AcDbLine
 10
38.60499999996136
 20
2.027674108302898
 30
0.0
 11
40.02599999995994
 21
3.44867410830147
 31
0.0
  0
LINE
  5
221C4
330
221B4
100
AcDbEntity
  8
0
  6
CONTINUOUS
100
AcDbLine
 10
38.60499999996136
 20
1.354154899222712
 30
0.0
 11
40.02599999995994
 21
2.775154899221284
 31
0.0
  0
LINE
  5
221C5
330
221B4
100
AcDbEntity
  8
0
  6
CONTINUOUS
100
AcDbLine
 10
38.60499999996136
 20
0.6806356901425255
 30
0.0
 11
40.02599999995994
 21
2.101635690141098
 31
0.0
  0
LINE
  5
221C6
330
221B4
100
AcDbEntity
  8
0
  6
CONTINUOUS
100
AcDbLine
 10
38.60499999996136
 20
0.0071164810623383
 30
0.0
 11
40.02599999995994
 21
1.428116481060911
 31
0.0
  0
LINE
  5
221C7
330
221B4
100
AcDbEntity
  8
0
  6
CONTINUOUS
100
AcDbLine
 10
40.9183221720374
 20
4.340996280378933
 30
0.0
 11
41.89134866762525
 21
5.314022775966786
 31
0.0
  0
LINE
  5
221C8
330
221B4
100
AcDbEntity
  8
0
  6
CONTINUOUS
100
AcDbLine
 10
41.23578448461758
 20
3.984939383878926
 30
0.0
 11
42.20881098020543
 21
4.957965879466778
 31
0.0
  0
LINE
  5
221C9
330
221B4
100
AcDbEntity
  8
0
  6
CONTINUOUS
100
AcDbLine
 10
41.55324679719776
 20
3.628882487378919
 30
0.0
 11
42.52627329278561
 21
4.601908982966772
 31
0.0
  0
LINE
  5
221CA
330
221B4
100
AcDbEntity
  8
0
  6
CONTINUOUS
100
AcDbLine
 10
41.87070910977793
 20
3.272825590878912
 30
0.0
 11
42.84373560536579
 21
4.245852086466765
 31
0.0
  0
LINE
  5
221CB
330
221B4
100
AcDbEntity
  8
0
  6
CONTINUOUS
100
AcDbLine
 10
43.57899999995641
 20
7.001674108297943
 30
0.0
 11
44.99999999995498
 21
8.422674108296516
 31
0.0
  0
LINE
  5
221CC
330
221B4
100
AcDbEntity
  8
0
  6
CONTINUOUS
100
AcDbLine
 10
43.57899999995641
 20
6.328154899217758
 30
0.0
 11
44.99999999995498
 21
7.749154899216329
 31
0.0
  0
LINE
  5
221CD
330
221B4
100
AcDbEntity
  8
0
  6
CONTINUOUS
100
AcDbLine
 10
43.57899999995641
 20
5.654635690137571
 30
0.0
 11
44.99999999995498
 21
7.075635690136142
 31
0.0
  0
LINE
  5
221CE
330
221B4
100
AcDbEntity
  8
0
  6
CONTINUOUS
100
AcDbLine
 10
43.57899999995641
 20
4.981116481057384
 30
0.0
 11
44.99999999995498
 21
6.402116481055955
 31
0.0
  0
LINE
  5
221CF
330
221B4
100
AcDbEntity
  8
0
  6
CONTINUOUS
100
AcDbLine
 10
39.27140272797921
 20
-0.0000000000000009
 30
0.0
 11
40.02599999995994
 21
0.7545972719807246
 31
0.0
  0
LINE
  5
221D0
330
221B4
100
AcDbEntity
  8
0
  6
CONTINUOUS
100
AcDbLine
 10
39.9449219370594
 20
-0.0000000000000009
 30
0.0
 11
40.02599999995994
 21
0.0810780629005379
 31
0.0
  0
LINE
  5
221D1
330
221B4
100
AcDbEntity
  8
0
  6
CONTINUOUS
100
AcDbLine
 10
42.18817142235812
 20
2.916768694378905
 30
0.0
 11
43.16119791794597
 21
3.889795189966758
 31
0.0
  0
LINE
  5
221D2
330
221B4
100
AcDbEntity
  8
0
  6
CONTINUOUS
100
AcDbLine
 10
42.50563373493829
 20
2.560711797878898
 30
0.0
 11
43.47866023052615
 21
3.533738293466751
 31
0.0
  0
LINE
  5
221D3
330
221B4
100
AcDbEntity
  8
0
  6
CONTINUOUS
100
AcDbLine
 10
43.57899999995641
 20
4.307597271977198
 30
0.0
 11
44.99999999995498
 21
5.728597271975769
 31
0.0
  0
LINE
  5
221D4
330
221B4
100
AcDbEntity
  8
0
  6
CONTINUOUS
100
AcDbLine
 10
43.57899999995641
 20
3.634078062897011
 30
0.0
 11
44.99999999995498
 21
5.055078062895582
 31
0.0
  0
LINE
  5
221D5
330
221B4
100
AcDbEntity
  8
0
  6
CONTINUOUS
100
AcDbLine
 10
42.82309604751848
 20
2.204654901378891
 30
0.0
 11
44.99999999995498
 21
4.381558853815395
 31
0.0
  0
LINE
  5
221D6
330
221B4
100
AcDbEntity
  8
0
  6
CONTINUOUS
100
AcDbLine
 10
43.14055836009865
 20
1.848598004878885
 30
0.0
 11
44.99999999995498
 21
3.70803964473521
 31
0.0
  0
LINE
  5
221D7
330
221B4
100
AcDbEntity
  8
0
  6
CONTINUOUS
100
AcDbLine
 10
43.45802067267883
 20
1.492541108378878
 30
0.0
 11
44.99999999995498
 21
3.034520435655023
 31
0.0
  0
LINE
  5
221D8
330
221B4
100
AcDbEntity
  8
0
  6
CONTINUOUS
100
AcDbLine
 10
43.77548298525902
 20
1.136484211878871
 30
0.0
 11
44.99999999995498
 21
2.361001226574837
 31
0.0
  0
LINE
  5
221D9
330
221B4
100
AcDbEntity
  8
0
  6
CONTINUOUS
100
AcDbLine
 10
44.09294529783919
 20
0.7804273153788639
 30
0.0
 11
44.99999999995498
 21
1.687482017494649
 31
0.0
  0
LINE
  5
221DA
330
221B4
100
AcDbEntity
  8
0
  6
CONTINUOUS
100
AcDbLine
 10
44.41040761041938
 20
0.4243704188788566
 30
0.0
 11
44.99999999995498
 21
1.013962808414463
 31
0.0
  0
LINE
  5
221DB
330
221B4
100
AcDbEntity
  8
0
  6
CONTINUOUS
100
AcDbLine
 10
44.72786992299955
 20
0.0683135223788494
 30
0.0
 11
44.99999999995498
 21
0.340443599334276
 31
0.0
  0
LINE
  5
221DC
330
221B4
100
AcDbEntity
  8
0
  6
CONTINUOUS
100
AcDbLine
 10
39.12223903415696
 20
-0.0000000000000009
 30
0.0
 11
38.60499999996136
 21
0.5172390341955961
 31
0.0
  0
LINE
  5
221DD
330
221B4
100
AcDbEntity
  8
0
  6
CONTINUOUS
100
AcDbLine
 10
39.79575824323715
 20
-0.0000000000000009
 30
0.0
 11
38.60499999996136
 21
1.190758243275783
 31
0.0
  0
LINE
  5
221DE
330
221B4
100
AcDbEntity
  8
0
  6
CONTINUOUS
100
AcDbLine
 10
40.02599999995994
 20
0.443277452357397
 30
0.0
 11
38.60499999996136
 21
1.864277452355969
 31
0.0
  0
LINE
  5
221DF
330
221B4
100
AcDbEntity
  8
0
  6
CONTINUOUS
100
AcDbLine
 10
40.02599999995994
 20
1.116796661437583
 30
0.0
 11
38.60499999996136
 21
2.537796661436155
 31
0.0
  0
LINE
  5
221E0
330
221B4
100
AcDbEntity
  8
0
  6
CONTINUOUS
100
AcDbLine
 10
40.02599999995994
 20
1.79031587051777
 30
0.0
 11
38.60499999996136
 21
3.211315870516341
 31
0.0
  0
LINE
  5
221E1
330
221B4
100
AcDbEntity
  8
0
  6
CONTINUOUS
100
AcDbLine
 10
40.02599999995994
 20
2.463835079597956
 30
0.0
 11
38.60499999996136
 21
3.884835079596527
 31
0.0
  0
LINE
  5
221E2
330
221B4
100
AcDbEntity
  8
0
  6
CONTINUOUS
100
AcDbLine
 10
40.02599999995994
 20
3.137354288678143
 30
0.0
 11
38.60499999996136
 21
4.558354288676714
 31
0.0
  0
LINE
  5
221E3
330
221B4
100
AcDbEntity
  8
0
  6
CONTINUOUS
100
AcDbLine
 10
40.02599999995994
 20
3.810873497758329
 30
0.0
 11
38.60499999996136
 21
5.2318734977569
 31
0.0
  0
LINE
  5
221E4
330
221B4
100
AcDbEntity
  8
0
  6
CONTINUOUS
100
AcDbLine
 10
40.02599999995994
 20
4.484392706838515
 30
0.0
 11
38.60499999996136
 21
5.905392706837086
 31
0.0
  0
LINE
  5
221E5
330
221B4
100
AcDbEntity
  8
0
  6
CONTINUOUS
100
AcDbLine
 10
44.99999999995498
 20
0.183911915923658
 30
0.0
 11
41.53858364506288
 21
3.64532827081576
 31
0.0
  0
LINE
  5
221E6
330
221B4
100
AcDbEntity
  8
0
  6
CONTINUOUS
100
AcDbLine
 10
40.02599999995994
 20
5.157911915918703
 30
0.0
 11
38.60499999996136
 21
6.578911915917274
 31
0.0
  0
LINE
  5
221E7
330
221B4
100
AcDbEntity
  8
0
  6
CONTINUOUS
100
AcDbLine
 10
44.99999999995498
 20
0.8574311250038447
 30
0.0
 11
38.60499999996136
 21
7.25243112499746
 31
0.0
  0
LINE
  5
221E8
330
221B4
100
AcDbEntity
  8
0
  6
CONTINUOUS
100
AcDbLine
 10
44.99999999995498
 20
1.530950334084031
 30
0.0
 11
38.60499999996136
 21
7.925950334077647
 31
0.0
  0
LINE
  5
221E9
330
221B4
100
AcDbEntity
  8
0
  6
CONTINUOUS
100
AcDbLine
 10
44.99999999995498
 20
2.204469543164218
 30
0.0
 11
43.57899999995641
 21
3.625469543162789
 31
0.0
  0
LINE
  5
221EA
330
221B4
100
AcDbEntity
  8
0
  6
CONTINUOUS
100
AcDbLine
 10
41.89876730984767
 20
5.305702233271528
 30
0.0
 11
38.60499999996136
 21
8.599469543157834
 31
0.0
  0
LINE
  5
221EB
330
221B4
100
AcDbEntity
  8
0
  6
CONTINUOUS
100
AcDbLine
 10
44.99999999995498
 20
2.877988752244405
 30
0.0
 11
43.57899999995641
 21
4.298988752242975
 31
0.0
  0
LINE
  5
221EC
330
221B4
100
AcDbEntity
  8
0
  6
CONTINUOUS
100
AcDbLine
 10
44.99999999995498
 20
3.551507961324591
 30
0.0
 11
43.57899999995641
 21
4.972507961323163
 31
0.0
  0
LINE
  5
221ED
330
221B4
100
AcDbEntity
  8
0
  6
CONTINUOUS
100
AcDbLine
 10
44.99999999995498
 20
4.225027170404777
 30
0.0
 11
43.57899999995641
 21
5.646027170403348
 31
0.0
  0
LINE
  5
221EE
330
221B4
100
AcDbEntity
  8
0
  6
CONTINUOUS
100
AcDbLine
 10
44.99999999995498
 20
4.898546379484964
 30
0.0
 11
43.57899999995641
 21
6.319546379483535
 31
0.0
  0
LINE
  5
221EF
330
221B4
100
AcDbEntity
  8
0
  6
CONTINUOUS
100
AcDbLine
 10
44.99999999995498
 20
5.572065588565151
 30
0.0
 11
43.57899999995641
 21
6.993065588563722
 31
0.0
  0
LINE
  5
221F0
330
221B4
100
AcDbEntity
  8
0
  6
CONTINUOUS
100
AcDbLine
 10
44.99999999995498
 20
6.245584797645336
 30
0.0
 11
43.57899999995641
 21
7.666584797643908
 31
0.0
  0
LINE
  5
221F1
330
221B4
100
AcDbEntity
  8
0
  6
CONTINUOUS
100
AcDbLine
 10
44.99999999995498
 20
6.919104006725522
 30
0.0
 11
43.57899999995641
 21
8.340104006724093
 31
0.0
  0
LINE
  5
221F2
330
221B4
100
AcDbEntity
  8
0
  6
CONTINUOUS
100
AcDbLine
 10
44.99999999995498
 20
7.592623215805709
 30
0.0
 11
43.82952321576943
 21
8.763099999991255
 31
0.0
  0
LINE
  5
221F3
330
221B4
100
AcDbEntity
  8
0
  6
CONTINUOUS
100
AcDbLine
 10
44.99999999995498
 20
8.266142424885896
 30
0.0
 11
44.50304242484962
 21
8.763099999991255
 31
0.0
  0
ENDBLK
  5
2221D
330
221B4
100
AcDbEntity
  8
0
100
AcDbBlockEnd
  0
BLOCK
  5
2221E
330
221F4
100
AcDbEntity
  8
0
100
AcDbBlockBegin
  2
*X150
 70
     1
 10
0.0
 20
0.0
 30
0.0
  3
*X150
  1

  0
LINE
  5
221F5
330
221F4
100
AcDbEntity
  8
0
  6
CONTINUOUS
100
AcDbLine
 10
0.0
 20
8.548461116714023
 30
0.0
 11
0.2146388832772324
 21
8.763099999991255
 31
0.0
  0
LINE
  5
221F6
330
221F4
100
AcDbEntity
  8
0
  6
CONTINUOUS
100
AcDbLine
 10
-0.0000000000000002
 20
7.874941907633837
 30
0.0
 11
0.8881580923574184
 21
8.763099999991255
 31
0.0
  0
LINE
  5
221F7
330
221F4
100
AcDbEntity
  8
0
  6
CONTINUOUS
100
AcDbLine
 10
0.0
 20
7.20142269855365
 30
0.0
 11
1.420999999998572
 21
8.622422698552223
 31
0.0
  0
LINE
  5
221F8
330
221F4
100
AcDbEntity
  8
0
  6
CONTINUOUS
100
AcDbLine
 10
-0.0000000000000001
 20
6.527903489473465
 30
0.0
 11
1.420999999998571
 21
7.948903489472036
 31
0.0
  0
LINE
  5
221F9
330
221F4
100
AcDbEntity
  8
0
  6
CONTINUOUS
100
AcDbLine
 10
-0.0000000000000002
 20
5.854384280393278
 30
0.0
 11
1.420999999998571
 21
7.275384280391849
 31
0.0
  0
LINE
  5
221FA
330
221F4
100
AcDbEntity
  8
0
  6
CONTINUOUS
100
AcDbLine
 10
-0.0000000000000002
 20
5.180865071313091
 30
0.0
 11
1.420999999998571
 21
6.601865071311663
 31
0.0
  0
LINE
  5
221FB
330
221F4
100
AcDbEntity
  8
0
  6
CONTINUOUS
100
AcDbLine
 10
0.0
 20
4.507345862232905
 30
0.0
 11
1.420999999998571
 21
5.928345862231477
 31
0.0
  0
LINE
  5
221FC
330
221F4
100
AcDbEntity
  8
0
  6
CONTINUOUS
100
AcDbLine
 10
-0.0000000000000003
 20
3.833826653152718
 30
0.0
 11
1.420999999998571
 21
5.25482665315129
 31
0.0
  0
LINE
  5
221FD
330
221F4
100
AcDbEntity
  8
0
  6
CONTINUOUS
100
AcDbLine
 10
-0.0000000000000002
 20
3.160307444072532
 30
0.0
 11
1.420999999998571
 21
4.581307444071103
 31
0.0
  0
LINE
  5
221FE
330
221F4
100
AcDbEntity
  8
0
  6
CONTINUOUS
100
AcDbLine
 10
-0.0000000000000001
 20
2.486788234992345
 30
0.0
 11
1.420999999998571
 21
3.907788234990917
 31
0.0
  0
LINE
  5
221FF
330
221F4
100
AcDbEntity
  8
0
  6
CONTINUOUS
100
AcDbLine
 10
-0.0000000000000006
 20
1.813269025912159
 30
0.0
 11
1.420999999998571
 21
3.234269025910731
 31
0.0
  0
LINE
  5
22200
330
221F4
100
AcDbEntity
  8
0
  6
CONTINUOUS
100
AcDbLine
 10
0.0
 20
1.139749816831973
 30
0.0
 11
1.420999999998571
 21
2.560749816830544
 31
0.0
  0
LINE
  5
22201
330
221F4
100
AcDbEntity
  8
0
  6
CONTINUOUS
100
AcDbLine
 10
0.0000000000000002
 20
0.466230607751787
 30
0.0
 11
1.420999999998571
 21
1.887230607750358
 31
0.0
  0
LINE
  5
22202
330
221F4
100
AcDbEntity
  8
0
  6
CONTINUOUS
100
AcDbLine
 10
0.2072886013284003
 20
-0.0000000000000009
 30
0.0
 11
1.420999999998571
 21
1.213711398670171
 31
0.0
  0
LINE
  5
22203
330
221F4
100
AcDbEntity
  8
0
  6
CONTINUOUS
100
AcDbLine
 10
0.8808078104085864
 20
-0.0000000000000009
 30
0.0
 11
1.420999999998571
 21
0.5401921895899839
 31
0.0
  0
LINE
  5
22204
330
221F4
100
AcDbEntity
  8
0
  6
CONTINUOUS
100
AcDbLine
 10
0.0581249075061505
 20
-0.0000000000000009
 30
0.0
 11
-0.0000000000000002
 21
0.0581249075061496
 31
0.0
  0
LINE
  5
22205
330
221F4
100
AcDbEntity
  8
0
  6
CONTINUOUS
100
AcDbLine
 10
0.7316441165863372
 20
-0.0000000000000009
 30
0.0
 11
-0.0000000000000002
 21
0.7316441165863363
 31
0.0
  0
LINE
  5
22206
330
221F4
100
AcDbEntity
  8
0
  6
CONTINUOUS
100
AcDbLine
 10
1.405163325666523
 20
-0.0000000000000009
 30
0.0
 11
-0.0000000000000002
 21
1.405163325666523
 31
0.0
  0
LINE
  5
22207
330
221F4
100
AcDbEntity
  8
0
  6
CONTINUOUS
100
AcDbLine
 10
1.420999999998572
 20
0.6576825347481381
 30
0.0
 11
-0.0000000000000001
 21
2.07868253474671
 31
0.0
  0
LINE
  5
22208
330
221F4
100
AcDbEntity
  8
0
  6
CONTINUOUS
100
AcDbLine
 10
1.420999999998571
 20
1.331201743828324
 30
0.0
 11
-0.0000000000000001
 21
2.752201743826896
 31
0.0
  0
LINE
  5
22209
330
221F4
100
AcDbEntity
  8
0
  6
CONTINUOUS
100
AcDbLine
 10
1.420999999998571
 20
2.004720952908511
 30
0.0
 11
-0.0000000000000002
 21
3.425720952907082
 31
0.0
  0
LINE
  5
2220A
330
221F4
100
AcDbEntity
  8
0
  6
CONTINUOUS
100
AcDbLine
 10
1.420999999998571
 20
2.678240161988697
 30
0.0
 11
-0.0000000000000001
 21
4.099240161987269
 31
0.0
  0
LINE
  5
2220B
330
221F4
100
AcDbEntity
  8
0
  6
CONTINUOUS
100
AcDbLine
 10
1.420999999998572
 20
3.351759371068884
 30
0.0
 11
0.0
 21
4.772759371067455
 31
0.0
  0
LINE
  5
2220C
330
221F4
100
AcDbEntity
  8
0
  6
CONTINUOUS
100
AcDbLine
 10
1.420999999998571
 20
4.02527858014907
 30
0.0
 11
-0.0000000000000003
 21
5.446278580147642
 31
0.0
  0
LINE
  5
2220D
330
221F4
100
AcDbEntity
  8
0
  6
CONTINUOUS
100
AcDbLine
 10
1.420999999998571
 20
4.698797789229257
 30
0.0
 11
0.0
 21
6.119797789227828
 31
0.0
  0
LINE
  5
2220E
330
221F4
100
AcDbEntity
  8
0
  6
CONTINUOUS
100
AcDbLine
 10
1.420999999998571
 20
5.372316998309444
 30
0.0
 11
-0.0000000000000001
 21
6.793316998308015
 31
0.0
  0
LINE
  5
2220F
330
221F4
100
AcDbEntity
  8
0
  6
CONTINUOUS
100
AcDbLine
 10
1.420999999998572
 20
6.045836207389629
 30
0.0
 11
-0.0000000000000004
 21
7.466836207388202
 31
0.0
  0
LINE
  5
22210
330
221F4
100
AcDbEntity
  8
0
  6
CONTINUOUS
100
AcDbLine
 10
1.420999999998571
 20
6.719355416469816
 30
0.0
 11
0.0
 21
8.140355416468388
 31
0.0
  0
LINE
  5
22211
330
221F4
100
AcDbEntity
  8
0
  6
CONTINUOUS
100
AcDbLine
 10
1.420999999998571
 20
7.392874625550003
 30
0.0
 11
0.0507746255573185
 21
8.763099999991255
 31
0.0
  0
LINE
  5
22212
330
221F4
100
AcDbEntity
  8
0
  6
CONTINUOUS
100
AcDbLine
 10
1.420999999998571
 20
8.06639383463019
 30
0.0
 11
0.7242938346375052
 21
8.763099999991255
 31
0.0
  0
LINE
  5
22213
330
221F4
100
AcDbEntity
  8
0
  6
CONTINUOUS
100
AcDbLine
 10
1.420999999998571
 20
8.739913043710375
 30
0.0
 11
1.397813043717691
 21
8.763099999991255
 31
0.0
  0
ENDBLK
  5
2221F
330
221F4
100
AcDbEntity
  8
0
100
AcDbBlockEnd
  0
ENDSEC
  0
SECTION
  2
ENTITIES
  0
LINE
  5
21BFA
330
18
100
AcDbEntity
  8
01
100
AcDbLine
 10
417.2692836955012
 20
-947.9087846451564
 30
0.0
 11
417.2692836955012
 21
-1027.908784645156
 31
0.0
  0
LINE
  5
21BFB
330
18
100
AcDbEntity
  8
01
100
AcDbLine
 10
429.2692836955012
 20
-947.9087846451564
 30
0.0
 11
429.2692836955012
 21
-1027.908784645156
 31
0.0
  0
LINE
  5
21BFC
330
18
100
AcDbEntity
  8
01
100
AcDbLine
 10
405.2692836955012
 20
-947.9087846451564
 30
0.0
 11
405.2692836955012
 21
-1027.908784645156
 31
0.0
  0
TEXT
  5
21C0A
330
18
100
AcDbEntity
  8
1TEXT
100
AcDbText
 10
336.8456436614925
 20
-878.585771957017
 30
0.0
 40
8.0
  1
KH-44-X
100
AcDbText
  0
LINE
  5
21C0B
330
18
100
AcDbEntity
  8
1DIM
100
AcDbLine
 10
336.5269101866627
 20
-889.5311746102909
 30
0.0
 11
441.5269101866634
 21
-889.5311746102905
 31
0.0
  0
TEXT
  5
21C0C
330
18
100
AcDbEntity
  8
1TEXT
100
AcDbText
 10
337.4602435199964
 20
-888.0311746102909
 30
0.0
 40
4.0
  1
表面処理：脚部
 72
     1
 11
353.9269101866631
 21
-888.0311746102909
 31
0.0
100
AcDbText
  0
LINE
  5
21C0D
330
18
100
AcDbEntity
  8
1DIM
100
AcDbLine
 10
336.5269101866627
 20
-882.5311746102909
 30
0.0
 11
441.5269101866634
 21
-882.5311746102905
 31
0.0
  0
TEXT
  5
21C0E
330
18
100
AcDbEntity
  8
1TEXT
100
AcDbText
 10
417.0602435199964
 20
-888.0311746102909
 30
0.0
 40
4.0
  1
コード
 72
     1
 11
423.9269101866631
 21
-888.0311746102909
 31
0.0
100
AcDbText
  0
TEXT
  5
21C0F
330
18
100
AcDbEntity
  8
1TEXT
100
AcDbText
 10
372.9935768533297
 20
-888.0311746102909
 30
0.0
 40
4.0
  1
表面処理：握り
 72
     1
 11
388.9269101866631
 21
-888.0311746102909
 31
0.0
100
AcDbText
  0
LINE
  5
21C10
330
18
100
AcDbEntity
  8
1DIM
100
AcDbLine
 10
371.5269101866627
 20
-896.531174610291
 30
0.0
 11
441.5269101866634
 21
-896.5311746102909
 31
0.0
  0
LINE
  5
21C11
330
18
100
AcDbEntity
  8
1DIM
100
AcDbLine
 10
371.526910186663
 20
-903.5311746102909
 30
0.0
 11
406.526910186663
 21
-903.5311746102909
 31
0.0
  0
LINE
  5
21C12
330
18
100
AcDbEntity
  8
1DIM
100
AcDbLine
 10
371.5269101866626
 20
-903.5311746102909
 30
0.0
 11
441.5269101866634
 21
-903.5311746102909
 31
0.0
  0
LINE
  5
21C13
330
18
100
AcDbEntity
  8
1DIM
100
AcDbLine
 10
371.526910186663
 20
-882.5311746102909
 30
0.0
 11
371.5269101866626
 21
-910.5311746102909
 31
0.0
  0
LINE
  5
21C14
330
18
100
AcDbEntity
  8
1DIM
100
AcDbLine
 10
406.526910186663
 20
-882.5311746102905
 30
0.0
 11
406.526910186663
 21
-910.5311746102909
 31
0.0
  0
LINE
  5
21C15
330
18
100
AcDbEntity
  8
1DIM
100
AcDbLine
 10
441.5269101866634
 20
-882.5311746102905
 30
0.0
 11
441.5269101866627
 21
-910.5311746102909
 31
0.0
  0
LINE
  5
21C16
330
18
100
AcDbEntity
  8
1DIM
100
AcDbLine
 10
336.5269101866627
 20
-882.5311746102909
 30
0.0
 11
336.5269101866623
 21
-910.5311746102909
 31
0.0
  0
TEXT
  5
21C17
330
18
100
AcDbEntity
  8
1TEXT
100
AcDbText
 10
408.5935768533307
 20
-902.2455315939403
 30
0.0
 40
4.0
  1
KH-44-LC
 72
     1
 11
423.926910186664
 21
-902.2455315939403
 31
0.0
100
AcDbText
  0
TEXT
  5
21C18
330
18
100
AcDbEntity
  8
1TEXT
100
AcDbText
 10
408.5935768533307
 20
-895.2455315939403
 30
0.0
 40
4.0
  1
KH-44-SC
 72
     1
 11
423.926910186664
 21
-895.2455315939403
 31
0.0
100
AcDbText
  0
TEXT
  5
21C19
330
18
100
AcDbEntity
  8
1TEXT
100
AcDbText
 10
344.4602435199971
 20
-902.2455315939403
 30
0.0
 40
4.0
  1
クローム
 72
     1
 11
353.9269101866637
 21
-902.2455315939403
 31
0.0
100
AcDbText
  0
LINE
  5
21C1B
330
18
100
AcDbEntity
  8
01
100
AcDbLine
 10
305.5458737344105
 20
-1003.908781029834
 30
0.0
 11
-292.4541262655891
 21
-1003.908781029833
 31
0.0
  0
ARC
  5
21C1C
330
18
100
AcDbEntity
  8
01
100
AcDbCircle
 10
305.5458737344105
 20
-1002.908781029834
 30
0.0
 40
1.0
100
AcDbArc
 50
270.0
 51
0.0
  0
LINE
  5
21C1D
330
18
100
AcDbEntity
  8
01
100
AcDbLine
 10
306.5458737344109
 20
-994.1087845781061
 30
0.0
 11
306.5458737344105
 21
-1002.908781029834
 31
0.0
  0
LINE
  5
21C1E
330
18
100
AcDbEntity
  8
01
100
AcDbLine
 10
306.5458737344105
 20
-972.908781029834
 30
0.0
 11
306.5458737344109
 21
-981.7087845781061
 31
0.0
  0
ARC
  5
21C1F
330
18
100
AcDbEntity
  8
01
100
AcDbCircle
 10
305.5458737344105
 20
-972.908781029834
 30
0.0
 40
1.0
100
AcDbArc
 50
0.0
 51
90.0
  0
LINE
  5
21C20
330
18
100
AcDbEntity
  8
01
100
AcDbLine
 10
305.5458737344105
 20
-971.908781029834
 30
0.0
 11
-292.4541262655891
 21
-971.9087810298331
 31
0.0
  0
ARC
  5
21C21
330
18
100
AcDbEntity
  8
01
100
AcDbCircle
 10
-292.4541262655891
 20
-972.9087810298331
 30
0.0
 40
1.0
100
AcDbArc
 50
90.0
 51
180.0
  0
LINE
  5
21C22
330
18
100
AcDbEntity
  8
01
100
AcDbLine
 10
-293.4541262655891
 20
-994.1087845781061
 30
0.0
 11
-293.4541262655891
 21
-1002.908781029833
 31
0.0
  0
ARC
  5
21C23
330
18
100
AcDbEntity
  8
01
100
AcDbCircle
 10
-292.4541262655891
 20
-1002.908781029833
 30
0.0
 40
1.0
100
AcDbArc
 50
180.0
 51
270.0
  0
LINE
  5
21C24
330
18
100
AcDbEntity
  8
01
100
AcDbLine
 10
-293.4541262655891
 20
-972.9087810298331
 30
0.0
 11
-293.4541262655891
 21
-981.708784578106
 31
0.0
  0
ARC
  5
21C25
330
18
100
AcDbEntity
  8
01
100
AcDbCircle
 10
359.2692836955012
 20
-987.9087846451564
 30
0.0
 40
16.0
100
AcDbArc
 50
202.799031271885
 51
337.200968728115
  0
ARC
  5
21C26
330
18
100
AcDbEntity
  8
01
100
AcDbCircle
 10
359.2692836955012
 20
-987.9087846451564
 30
0.0
 40
16.0
100
AcDbArc
 50
22.79903127188503
 51
157.200968728115
  0
LINE
  5
21C27
330
18
100
AcDbEntity
  8
01
100
AcDbLine
 10
-293.4541260164351
 20
-902.7250536893523
 30
0.0
 11
-293.4541260164351
 21
-873.0602597409695
 31
0.0
  0
LINE
  5
21C28
330
18
100
AcDbEntity
  8
01
100
AcDbLine
 10
225.5458740504119
 20
-903.8926567151613
 30
0.0
 11
-212.4541259721095
 21
-903.8926567151614
 31
0.0
  0
LINE
  5
21C29
330
18
100
AcDbEntity
  8
01
100
AcDbLine
 10
296.5458742452175
 20
-871.8926567151613
 30
0.0
 11
276.5458741658049
 21
-871.8926567151613
 31
0.0
  0
LINE
  5
21C2A
330
18
100
AcDbEntity
  8
01
100
AcDbLine
 10
236.5458741658052
 20
-871.8926567151613
 30
0.0
 11
-223.4541276842473
 21
-871.8926567151613
 31
0.0
  0
LINE
  5
21C2B
330
18
100
AcDbEntity
  8
01
100
AcDbLine
 10
-263.4541276842473
 20
-871.8926567151614
 30
0.0
 11
-283.4370905177823
 21
-871.8926567151613
 31
0.0
  0
ELLIPSE
  5
21C2C
330
18
100
AcDbEntity
  8
01
100
AcDbEllipse
 10
-293.4541260158198
 20
-871.8926567151614
 30
0.0
 11
9.999999737731628
 21
0.0
 31
0.0
210
0.0
220
0.0
230
1.0
 40
0.1167603056431081
 41
4.71238898038469
 42
6.283185307179586
  0
LINE
  5
21C2D
330
18
100
AcDbEntity
  8
01
100
AcDbLine
 10
263.5458751493118
 20
-841.8926566933062
 30
0.0
 11
249.5458751493118
 21
-841.8926560813454
 31
0.0
  0
LINE
  5
21C2E
330
18
100
AcDbEntity
  8
01
100
AcDbLine
 10
272.0458754771465
 20
-841.8926573926876
 30
0.0
 11
266.0458754771465
 21
-841.8926571304203
 31
0.0
  0
LINE
  5
21C2F
330
18
100
AcDbEntity
  8
01
100
AcDbLine
 10
247.0458754771465
 20
-841.8926562999025
 30
0.0
 11
241.0458754771465
 21
-841.8926560376351
 31
0.0
  0
LINE
  5
21C30
330
18
100
AcDbEntity
  8
01
100
AcDbLine
 10
236.5458741658052
 20
-871.8926567151613
 30
0.0
 11
236.5458742095166
 21
-870.8926558409335
 31
0.0
  0
LINE
  5
21C31
330
18
100
AcDbEntity
  8
01
100
AcDbLine
 10
276.5458754771465
 20
-841.8926575893895
 30
0.0
 11
272.0458754771465
 21
-841.8926573926876
 31
0.0
  0
LINE
  5
21C32
330
18
100
AcDbEntity
  8
01
100
AcDbLine
 10
266.0458754771465
 20
-841.8926571304203
 30
0.0
 11
263.5458754771465
 21
-841.8926570211408
 31
0.0
  0
LINE
  5
21C33
330
18
100
AcDbEntity
  8
01
100
AcDbLine
 10
249.5458754771465
 20
-841.8926564091819
 30
0.0
 11
247.0458754771465
 21
-841.8926562999025
 31
0.0
  0
LINE
  5
21C34
330
18
100
AcDbEntity
  8
01
100
AcDbLine
 10
241.0458754771465
 20
-841.8926560376351
 30
0.0
 11
236.5458754771465
 21
-841.8926558409332
 31
0.0
  0
LINE
  5
21C35
330
18
100
AcDbEntity
  8
01
100
AcDbLine
 10
276.5458740531261
 20
-874.4704507390771
 30
0.0
 11
276.5458754771465
 21
-841.8926575893895
 31
0.0
  0
LINE
  5
21C36
330
18
100
AcDbEntity
  8
01
100
AcDbLine
 10
236.5458740531261
 20
-874.4704507390773
 30
0.0
 11
236.5458754771465
 21
-841.8926558409332
 31
0.0
  0
LINE
  5
21C37
330
18
100
AcDbEntity
  8
01
100
AcDbLine
 10
307.5458739835652
 20
-872.3939608428102
 30
0.0
 11
307.5458739835652
 21
-903.8926567151614
 31
0.0
  0
ARC
  5
21C38
330
18
100
AcDbEntity
  8
01
100
AcDbCircle
 10
306.5458620350622
 20
-903.8926447666583
 30
0.0
 40
1.000011948573964
100
AcDbArc
 50
270.0006845905688
 51
359.9993154093856
  0
LINE
  5
21C39
330
18
100
AcDbEntity
  8
01
100
AcDbLine
 10
226.0458743011407
 20
-904.8926567151614
 30
0.0
 11
306.5458739835634
 21
-904.8926567151614
 31
0.0
  0
LINE
  5
21C3A
330
18
100
AcDbEntity
  8
01
100
AcDbLine
 10
225.5458741665381
 20
-903.0240805510347
 30
0.0
 11
225.5458739835634
 21
-904.392656397584
 31
0.0
  0
ARC
  5
21C3B
330
18
100
AcDbEntity
  8
01
100
AcDbCircle
 10
226.0458743011407
 20
-904.392656397584
 30
0.0
 40
0.5000003175776385
100
AcDbArc
 50
180.0
 51
270.0
  0
LINE
  5
21C3C
330
18
100
AcDbEntity
  8
01
100
AcDbLine
 10
297.0458847823705
 20
-871.3926562212239
 30
0.0
 11
306.5458629119624
 21
-871.392656636481
 31
0.0
  0
ARC
  5
21C3D
330
18
100
AcDbEntity
  8
01
100
AcDbCircle
 10
306.5458628682503
 20
-872.3926685866811
 30
0.0
 40
1.000011950272052
100
AcDbArc
 50
359.9259600418986
 51
89.99999749552215
  0
LINE
  5
21C3E
330
18
100
AcDbEntity
  8
01
100
AcDbLine
 10
307.0458734633997
 20
-994.1087846233007
 30
0.0
 11
306.5458734633997
 21
-994.1087845781061
 31
0.0
  0
LINE
  5
21C3F
330
18
100
AcDbEntity
  8
01
100
AcDbLine
 10
306.5458734633997
 20
-994.1087845781061
 30
0.0
 11
226.5458734633997
 21
-994.1087810811949
 31
0.0
  0
ARC
  5
21C40
330
18
100
AcDbEntity
  8
01
100
AcDbCircle
 10
226.5458633358999
 20
-993.108791252406
 30
0.0
 40
0.9999898288405313
100
AcDbArc
 50
179.9994142838063
 51
270.0005802688955
  0
LINE
  5
21C41
330
18
100
AcDbEntity
  8
01
100
AcDbLine
 10
225.5458735071109
 20
-993.1087810298342
 30
0.0
 11
225.5458739617093
 21
-982.7087810298343
 31
0.0
  0
ARC
  5
21C42
330
18
100
AcDbEntity
  8
01
100
AcDbCircle
 10
226.5458637824327
 20
-982.7087709019154
 30
0.0
 40
0.9999898207736978
100
AcDbArc
 50
89.99941425996087
 51
180.0005802928906
  0
LINE
  5
21C43
330
18
100
AcDbEntity
  8
01
100
AcDbLine
 10
306.5458740054208
 20
-981.708784578106
 30
0.0
 11
226.5458740054208
 21
-981.7087810811948
 31
0.0
  0
LINE
  5
21C44
330
18
100
AcDbEntity
  8
01
100
AcDbLine
 10
307.0458740054208
 20
-981.7087846233006
 30
0.0
 11
306.5458740054208
 21
-981.708784578106
 31
0.0
  0
LINE
  5
21C45
330
18
100
AcDbEntity
  8
01
100
AcDbLine
 10
307.5458734852553
 20
-993.6087846451563
 30
0.0
 11
307.5458739835652
 21
-982.2087846451565
 31
0.0
  0
ARC
  5
21C46
330
18
100
AcDbEntity
  8
01
100
AcDbCircle
 10
307.0458734852553
 20
-993.6087846233007
 30
0.0
 40
0.5
100
AcDbArc
 50
269.9999974955182
 51
359.9999974955182
  0
ARC
  5
21C47
330
18
100
AcDbEntity
  8
01
100
AcDbCircle
 10
307.0458739835649
 20
-982.2087846233006
 30
0.0
 40
0.5
100
AcDbArc
 50
359.9999974955182
 51
89.9999974955313
  0
LINE
  5
21C48
330
18
100
AcDbEntity
  8
01
100
AcDbLine
 10
344.3190328614849
 20
-994.1087846451564
 30
0.0
 11
374.2195345295173
 21
-994.1087846451564
 31
0.0
  0
LINE
  5
21C49
330
18
100
AcDbEntity
  8
01
100
AcDbLine
 10
344.3190328614849
 20
-994.1087846451564
 30
0.0
 11
343.7850982148244
 21
-994.1087846451564
 31
0.0
  0
LINE
  5
21C4A
330
18
100
AcDbEntity
  8
01
100
AcDbLine
 10
344.3190328614849
 20
-981.7087846451564
 30
0.0
 11
343.7850982148244
 21
-981.7087846451564
 31
0.0
  0
LINE
  5
21C4B
330
18
100
AcDbEntity
  8
01
100
AcDbLine
 10
374.2195345302251
 20
-981.7087846451564
 30
0.0
 11
344.3190328614849
 21
-981.7087846451564
 31
0.0
  0
ARC
  5
21C4C
330
18
100
AcDbEntity
  8
01
100
AcDbCircle
 10
359.2692836955012
 20
-987.9087846451564
 30
0.0
 40
17.0
100
AcDbArc
 50
159.7904546262391
 51
200.2095453737609
  0
ARC
  5
21C4D
330
18
100
AcDbEntity
  8
01
100
AcDbCircle
 10
343.7850982148244
 20
-993.6087846451563
 30
0.0
 40
0.5000000000000009
100
AcDbArc
 50
200.2095453737624
 51
270.0
  0
ARC
  5
21C4E
330
18
100
AcDbEntity
  8
01
100
AcDbCircle
 10
343.7850982148244
 20
-982.2087846451564
 30
0.0
 40
0.5
100
AcDbArc
 50
90.0
 51
159.7904546262376
  0
ARC
  5
21C4F
330
18
100
AcDbEntity
  8
01
100
AcDbCircle
 10
359.2692836955012
 20
-987.9087846451565
 30
0.0
 40
16.5
100
AcDbArc
 50
339.1299265446099
 51
20.87007345539012
  0
ARC
  5
21C50
330
18
100
AcDbEntity
  8
01
100
AcDbCircle
 10
374.2195345302251
 20
-982.2087846440209
 30
0.0
 40
0.4999999988643702
100
AcDbArc
 50
20.87007345539288
 51
90.0
  0
ARC
  5
21C51
330
18
100
AcDbEntity
  8
01
100
AcDbCircle
 10
374.2195345302251
 20
-993.6087846462922
 30
0.0
 40
0.4999999988643095
100
AcDbArc
 50
269.9999999188644
 51
339.1299265446071
  0
LINE
  5
21C52
330
18
100
AcDbEntity
  8
01
100
AcDbLine
 10
-293.4541262431201
 20
-902.6425715495263
 30
0.0
 11
-213.45412624312
 21
-902.6425715495263
 31
0.0
  0
SPLINE
  5
21C53
330
18
100
AcDbEntity
  8
01
100
AcDbSpline
210
0.0
220
0.0
230
1.0
 70
  1064
 71
     3
 72
    14
 73
    10
 74
     8
 42
0.000000001
 43
0.0000000001
 44
0.000001
 12
-1.271968151135574E-7
 22
0.9999999999999919
 32
0.0
 13
-1.0
 23
8.054944724457966E-16
 33
0.0
 40
0.0
 40
0.0
 40
0.0
 40
0.0
 40
0.0801079129447064
 40
0.1841400844980274
 40
0.3196421616051695
 40
0.487338076848717
 40
0.6835592437577875
 40
0.9019198236120246
 40
1.131658910242882
 40
1.131658910242882
 40
1.131658910242882
 40
1.131658910242882
 10
-212.4541261994088
 20
-903.0240805510348
 30
0.0
 10
-212.4541262028053
 20
-902.9973779133866
 30
0.0
 10
-212.4768240414856
 20
-902.9363460054533
 30
0.0
 10
-212.5544452779351
 20
-902.8611329712375
 30
0.0
 10
-212.6714888472509
 20
-902.7909173998689
 30
0.0
 10
-212.8269330974324
 20
-902.7297569588637
 30
0.0
 10
-213.0152131277862
 20
-902.6810025219452
 30
0.0
 10
-213.2280859073241
 20
-902.6498631990287
 30
0.0
 10
-213.3775465475764
 20
-902.6425715495263
 30
0.0
 10
-213.45412624312
 20
-902.6425715495263
 30
0.0
 11
-212.4541261994088
 21
-903.0240805510348
 31
0.0
 11
-212.4780431839751
 21
-902.9476258477944
 31
0.0
 11
-212.5488182273454
 21
-902.8713791591326
 31
0.0
 11
-212.6636803359581
 21
-902.7994938963552
 31
0.0
 11
-212.8189906842342
 21
-902.7362435729638
 31
0.0
 11
-213.0087083831647
 21
-902.6861443441449
 31
0.0
 11
-213.2246638495268
 21
-902.6538244879625
 31
0.0
 11
-213.45412624312
 21
-902.6425715495263
 31
0.0
  0
LINE
  5
21C54
330
18
100
AcDbEntity
  8
01
100
AcDbLine
 10
-293.154126212522
 20
-872.3852960322206
 30
0.0
 11
-293.154126212522
 21
-872.7612320442058
 31
0.0
  0
LINE
  5
21C55
330
18
100
AcDbEntity
  8
01
100
AcDbLine
 10
-293.1541262180858
 20
-872.8926562955326
 30
0.0
 11
-293.1541262300067
 21
-872.7612320442058
 31
0.0
  0
ARC
  5
21C56
330
18
100
AcDbEntity
  8
01
100
AcDbCircle
 10
-293.1541262246425
 20
-873.19265631401
 30
0.0
 40
0.3000000184775222
100
AcDbArc
 50
89.99999874773751
 51
179.9999987477701
  0
LINE
  5
21C57
330
18
100
AcDbEntity
  8
01
100
AcDbLine
 10
-212.4541259721095
 20
-904.3926562955326
 30
0.0
 11
-212.4541259721095
 21
-903.5518389051069
 31
0.0
  0
LINE
  5
21C58
330
18
100
AcDbEntity
  8
01
100
AcDbLine
 10
-294.4541262212644
 20
-873.4787740981508
 30
0.0
 11
-294.4541262212644
 21
-902.8429071295486
 31
0.0
  0
LINE
  5
21C59
330
18
100
AcDbEntity
  8
01
100
AcDbLine
 10
-212.4541261994088
 20
-903.5518389051069
 30
0.0
 11
-212.4541261994088
 21
-903.0240805510346
 31
0.0
  0
LINE
  5
21C5A
330
18
100
AcDbEntity
  8
01
100
AcDbLine
 10
-294.4541259721095
 20
-902.8429071295486
 30
0.0
 11
-294.4541259721095
 21
-903.8926562955326
 31
0.0
  0
LINE
  5
21C5B
330
18
100
AcDbEntity
  8
01
100
AcDbLine
 10
-294.4541259721095
 20
-872.3926562955326
 30
0.0
 11
-294.4541259721095
 21
-873.4787740981508
 31
0.0
  0
LINE
  5
21C5C
330
18
100
AcDbEntity
  8
01
100
AcDbLine
 10
-293.4541262431201
 20
-872.9424054615163
 30
0.0
 11
-293.4541262290505
 21
-872.4752101230185
 31
0.0
  0
LINE
  5
21C5D
330
18
100
AcDbEntity
  8
01
100
AcDbLine
 10
-293.4541262431201
 20
-873.1926563074535
 30
0.0
 11
-293.4541262431202
 21
-902.6425715495263
 31
0.0
  0
LINE
  5
21C5E
330
18
100
AcDbEntity
  8
01
100
AcDbLine
 10
-293.4541262431201
 20
-872.9424054615163
 30
0.0
 11
-293.4541262431201
 21
-873.1926563074533
 31
0.0
  0
LINE
  5
21C5F
330
18
100
AcDbEntity
  8
01
100
AcDbLine
 10
-290.9541262300067
 20
-872.7926562955324
 30
0.0
 11
-290.954126217997
 21
-872.8926562955326
 31
0.0
  0
LINE
  5
21C60
330
18
100
AcDbEntity
  8
01
100
AcDbLine
 10
-288.2919111136767
 20
-872.8926562955326
 30
0.0
 11
-290.954126217997
 21
-872.8926562955326
 31
0.0
  0
LINE
  5
21C61
330
18
100
AcDbEntity
  8
01
100
AcDbLine
 10
-289.4541262300067
 20
-872.7926562955324
 30
0.0
 11
-290.9541262300067
 21
-872.7926562955324
 31
0.0
  0
ARC
  5
21C62
330
18
100
AcDbEntity
  8
01
100
AcDbCircle
 10
-289.4405142861382
 20
-888.4331203155032
 30
0.0
 40
15.64046994322764
100
AcDbArc
 50
84.45420720427413
 51
90.04986468027683
  0
LINE
  5
21C63
330
18
100
AcDbEntity
  8
01
100
AcDbLine
 10
-290.954126217997
 20
-872.8926562955326
 30
0.0
 11
-291.0541262300066
 21
-872.8926562955326
 31
0.0
  0
LINE
  5
21C64
330
18
100
AcDbEntity
  8
01
100
AcDbLine
 10
-291.0541262300066
 20
-872.8926562955326
 30
0.0
 11
-290.9541262300066
 21
-872.7926562955324
 31
0.0
  0
LINE
  5
21C65
330
18
100
AcDbEntity
  8
01
100
AcDbLine
 10
-293.1541262180858
 20
-872.8926562955326
 30
0.0
 11
-291.0541262300067
 21
-872.8926562955326
 31
0.0
  0
ARC
  5
21C66
330
18
100
AcDbEntity
  8
01
100
AcDbCircle
 10
-212.9541259721095
 20
-904.3926562955326
 30
0.0
 40
0.5
100
AcDbArc
 50
270.0
 51
0.0
  0
LINE
  5
21C67
330
18
100
AcDbEntity
  8
01
100
AcDbLine
 10
-212.9541259721095
 20
-904.8926562955326
 30
0.0
 11
-293.4541259721095
 21
-904.8926562955326
 31
0.0
  0
ARC
  5
21C68
330
18
100
AcDbEntity
  8
01
100
AcDbCircle
 10
-293.4541259721095
 20
-903.8926562955326
 30
0.0
 40
1.0
100
AcDbArc
 50
180.0
 51
270.0
  0
ARC
  5
21C69
330
18
100
AcDbEntity
  8
01
100
AcDbCircle
 10
-293.4541259721095
 20
-872.3926562955326
 30
0.0
 40
0.9999999999999999
100
AcDbArc
 50
90.0
 51
180.0
  0
ARC
  5
21C6A
330
18
100
AcDbEntity
  8
01
100
AcDbCircle
 10
-283.9541464401586
 20
-871.792675686959
 30
0.0
 40
0.4000098181118767
100
AcDbArc
 50
0.0014490755942584
 51
89.9984987457893
  0
LINE
  5
21C6B
330
18
100
AcDbEntity
  8
01
100
AcDbLine
 10
-283.5541259721095
 20
-872.0573671427281
 30
0.0
 11
-283.5541259721095
 21
-871.7926656196778
 31
0.0
  0
LINE
  5
21C6C
330
18
100
AcDbEntity
  8
01
100
AcDbLine
 10
-283.9541358921887
 20
-871.3926562955326
 30
0.0
 11
-293.4541259721095
 21
-871.3926562955326
 31
0.0
  0
LINE
  5
21C6D
330
18
100
AcDbEntity
  8
01
100
AcDbLine
 10
-263.4541275968245
 20
-844.8926558409332
 30
0.0
 11
-263.4541275968245
 21
-842.8926558409332
 31
0.0
  0
LINE
  5
21C6E
330
18
100
AcDbEntity
  8
01
100
AcDbLine
 10
-223.4541275968245
 20
-844.8926558409332
 30
0.0
 11
-223.4541275968245
 21
-842.8926558409332
 31
0.0
  0
LINE
  5
21C6F
330
18
100
AcDbEntity
  8
01
100
AcDbLine
 10
-262.4541274656903
 20
-841.8926558409332
 30
0.0
 11
-224.4541274656904
 21
-841.8926558409332
 31
0.0
  0
LINE
  5
21C70
330
18
100
AcDbEntity
  8
01
100
AcDbLine
 10
-262.4541274656903
 20
-841.8926558409332
 30
0.0
 11
-263.4541275094017
 21
-841.8926558409332
 31
0.0
  0
LINE
  5
21C71
330
18
100
AcDbEntity
  8
01
100
AcDbLine
 10
-224.4541274656904
 20
-841.8926558409332
 30
0.0
 11
-223.4541275094018
 21
-841.8926558409332
 31
0.0
  0
LINE
  5
21C72
330
18
100
AcDbEntity
  8
01
100
AcDbLine
 10
-263.4541275094017
 20
-841.8926558409332
 30
0.0
 11
-263.4541275094017
 21
-842.8926558409332
 31
0.0
  0
ARC
  5
21C73
330
18
100
AcDbEntity
  8
01
100
AcDbCircle
 10
-262.4541275094017
 20
-842.8926558409332
 30
0.0
 40
1.0
100
AcDbArc
 50
180.0
 51
270.0
  0
LINE
  5
21C74
330
18
100
AcDbEntity
  8
01
100
AcDbLine
 10
-263.4541276842473
 20
-844.8926558409332
 30
0.0
 11
-263.4541276842472
 21
-874.4704507390773
 31
0.0
  0
LINE
  5
21C75
330
18
100
AcDbEntity
  8
01
100
AcDbLine
 10
-223.4541275094018
 20
-841.8926558409332
 30
0.0
 11
-223.4541275094018
 21
-842.8926558409332
 31
0.0
  0
ARC
  5
21C76
330
18
100
AcDbEntity
  8
01
100
AcDbCircle
 10
-224.4541275094018
 20
-842.8926558409332
 30
0.0
 40
1.0
100
AcDbArc
 50
270.0
 51
0.0
  0
LINE
  5
21C77
330
18
100
AcDbEntity
  8
01
100
AcDbLine
 10
-262.4541275094017
 20
-843.8926558409332
 30
0.0
 11
-224.4541275094018
 21
-843.8926558409332
 31
0.0
  0
LINE
  5
21C78
330
18
100
AcDbEntity
  8
01
100
AcDbLine
 10
-223.4541276842473
 20
-844.8926558409332
 30
0.0
 11
-223.4541276842473
 21
-874.4704507390773
 31
0.0
  0
LINE
  5
21C79
330
18
100
AcDbEntity
  8
01
100
AcDbLine
 10
-263.4541276842472
 20
-874.4704507390773
 30
0.0
 11
-223.4541276842473
 21
-874.4704507390773
 31
0.0
  0
LINE
  5
21C7A
330
18
100
AcDbEntity
  8
01
100
AcDbLine
 10
-293.954125993963
 20
-994.1087846233007
 30
0.0
 11
-293.454125993963
 21
-994.1087845781061
 31
0.0
  0
LINE
  5
21C7B
330
18
100
AcDbEntity
  8
01
100
AcDbLine
 10
-293.454125993963
 20
-994.1087845781061
 30
0.0
 11
-213.454125993963
 21
-994.1087810811949
 31
0.0
  0
ARC
  5
21C7C
330
18
100
AcDbEntity
  8
01
100
AcDbCircle
 10
-213.4541158664633
 20
-993.108791252406
 30
0.0
 40
0.9999898288405313
100
AcDbArc
 50
269.9994197311045
 51
0.0005857161937537
  0
LINE
  5
21C7D
330
18
100
AcDbEntity
  8
01
100
AcDbLine
 10
-212.4541260376744
 20
-993.1087810298342
 30
0.0
 11
-212.4541264922728
 21
-982.7087810298343
 31
0.0
  0
ARC
  5
21C7E
330
18
100
AcDbEntity
  8
01
100
AcDbCircle
 10
-213.4541163129961
 20
-982.7087709019154
 30
0.0
 40
0.9999898207736978
100
AcDbArc
 50
359.9994197071094
 51
90.00058574004403
  0
LINE
  5
21C7F
330
18
100
AcDbEntity
  8
01
100
AcDbLine
 10
-293.4541265359842
 20
-981.708784578106
 30
0.0
 11
-213.4541265359842
 21
-981.7087810811948
 31
0.0
  0
LINE
  5
21C80
330
18
100
AcDbEntity
  8
01
100
AcDbLine
 10
-293.9541265359842
 20
-981.7087846233006
 30
0.0
 11
-293.4541265359842
 21
-981.708784578106
 31
0.0
  0
LINE
  5
21C81
330
18
100
AcDbEntity
  8
01
100
AcDbLine
 10
-294.4541260158188
 20
-993.6087846451563
 30
0.0
 11
-294.4541265141285
 21
-982.2087846451565
 31
0.0
  0
ARC
  5
21C82
330
18
100
AcDbEntity
  8
01
100
AcDbCircle
 10
-293.9541260158186
 20
-993.6087846233007
 30
0.0
 40
0.5
100
AcDbArc
 50
180.0000025044818
 51
270.0000025044752
  0
ARC
  5
21C83
330
18
100
AcDbEntity
  8
01
100
AcDbCircle
 10
-293.9541265141284
 20
-982.2087846233006
 30
0.0
 40
0.5
100
AcDbArc
 50
90.0000025044752
 51
180.0000025044818
  0
ARC
  5
21C84
330
18
100
AcDbEntity
  8
01
100
AcDbCircle
 10
402.2692836955012
 20
-998.9087846451564
 30
0.0
 40
1.0
100
AcDbArc
 50
0.0
 51
90.0
  0
ARC
  5
21C85
330
18
100
AcDbEntity
  8
01
100
AcDbCircle
 10
402.2692836955012
 20
-976.9087846451564
 30
0.0
 40
1.0
100
AcDbArc
 50
270.0
 51
0.0
  0
LINE
  5
21C86
330
18
100
AcDbEntity
  8
01
100
AcDbLine
 10
405.2692836955012
 20
-1000.908784645156
 30
0.0
 11
405.2692836955012
 21
-974.9087846451564
 31
0.0
  0
LINE
  5
21C87
330
18
100
AcDbEntity
  8
01
100
AcDbLine
 10
405.2692836955012
 20
-1000.908784645156
 30
0.0
 11
405.2692836955012
 21
-1001.908784645156
 31
0.0
  0
LINE
  5
21C88
330
18
100
AcDbEntity
  8
01
100
AcDbLine
 10
405.2692836955012
 20
-974.9087846451564
 30
0.0
 11
405.2692836955012
 21
-973.9087846451564
 31
0.0
  0
LINE
  5
21C89
330
18
100
AcDbEntity
  8
01
100
AcDbLine
 10
405.2692836955012
 20
-973.9087846451564
 30
0.0
 11
404.2692836955012
 21
-973.9087846451564
 31
0.0
  0
ARC
  5
21C8A
330
18
100
AcDbEntity
  8
01
100
AcDbCircle
 10
404.2692836955012
 20
-974.9087846451564
 30
0.0
 40
1.0
100
AcDbArc
 50
90.0
 51
180.0
  0
LINE
  5
21C8B
330
18
100
AcDbEntity
  8
01
100
AcDbLine
 10
403.2692836955012
 20
-974.9087846451564
 30
0.0
 11
403.2692836955012
 21
-976.9087846451564
 31
0.0
  0
LINE
  5
21C8C
330
18
100
AcDbEntity
  8
01
100
AcDbLine
 10
402.2692836955012
 20
-977.9087846451564
 30
0.0
 11
371.759279692298
 21
-977.9087846451564
 31
0.0
  0
LINE
  5
21C8D
330
18
100
AcDbEntity
  8
01
100
AcDbLine
 10
404.2692836955012
 20
-1001.908784645156
 30
0.0
 11
405.2692836955012
 21
-1001.908784645156
 31
0.0
  0
ARC
  5
21C8E
330
18
100
AcDbEntity
  8
01
100
AcDbCircle
 10
404.2692836955012
 20
-1000.908784645156
 30
0.0
 40
1.0
100
AcDbArc
 50
180.0
 51
270.0
  0
LINE
  5
21C8F
330
18
100
AcDbEntity
  8
01
100
AcDbLine
 10
403.2692836955012
 20
-998.9087846451564
 30
0.0
 11
403.2692836955012
 21
-1000.908784645156
 31
0.0
  0
ARC
  5
21C90
330
18
100
AcDbEntity
  8
01
100
AcDbCircle
 10
359.2692836955012
 20
-987.9087846451564
 30
0.0
 40
16.0
100
AcDbArc
 50
321.3178125465105
 51
337.200968728115
  0
ARC
  5
21C91
330
18
100
AcDbEntity
  8
01
100
AcDbCircle
 10
359.2692836955012
 20
-987.9087846451564
 30
0.0
 40
16.0
100
AcDbArc
 50
22.79903127188503
 51
38.68218745348948
  0
LINE
  5
21C92
330
18
100
AcDbEntity
  8
01
100
AcDbLine
 10
371.759279692298
 20
-997.9087846451564
 30
0.0
 11
402.2692836955012
 21
-997.9087846451564
 31
0.0
  0
CIRCLE
  5
21C93
330
18
100
AcDbEntity
  8
1PHANTOM
100
AcDbCircle
 10
244.0458740841021
 20
-987.9087810298342
 30
0.0
 40
2.75
  0
CIRCLE
  5
21C94
330
18
100
AcDbEntity
  8
1PHANTOM
100
AcDbCircle
 10
269.0458740841021
 20
-987.9087810298342
 30
0.0
 40
2.75
  0
LINE
  5
21C95
330
18
100
AcDbEntity
  8
01
100
AcDbLine
 10
306.5458739835644
 20
-902.7250536893522
 30
0.0
 11
306.5458739835644
 21
-873.0602597409694
 31
0.0
  0
ELLIPSE
  5
21C96
330
18
100
AcDbEntity
  8
01
100
AcDbEllipse
 10
306.5458739829491
 20
-871.8926567151613
 30
0.0
 11
-9.999999737731626
 21
-4.188771157564157E-15
 31
0.0
210
0.0
220
0.0
230
-1.0
 40
0.1167603056431081
 41
4.71238898038469
 42
6.283185307179586
  0
LINE
  5
21C97
330
18
100
AcDbEntity
  8
01
100
AcDbLine
 10
306.5458742102495
 20
-902.6425715495262
 30
0.0
 11
226.5458742102493
 21
-902.6425715495262
 31
0.0
  0
SPLINE
  5
21C98
330
18
100
AcDbEntity
  8
01
100
AcDbSpline
210
0.0
220
0.0
230
1.0
 70
  1064
 71
     3
 72
    14
 73
    10
 74
     8
 42
0.000000001
 43
0.0000000001
 44
0.000001
 12
1.271968146946802E-7
 22
0.9999999999999919
 32
0.0
 13
1.0
 23
1.224371599188035E-15
 33
0.0
 40
0.0
 40
0.0
 40
0.0
 40
0.0
 40
0.0801079129447064
 40
0.1841400844980274
 40
0.3196421616051695
 40
0.487338076848717
 40
0.6835592437577875
 40
0.9019198236120246
 40
1.131658910242882
 40
1.131658910242882
 40
1.131658910242882
 40
1.131658910242882
 10
225.5458741665381
 20
-903.0240805510347
 30
0.0
 10
225.5458741699346
 20
-902.9973779133865
 30
0.0
 10
225.5685720086149
 20
-902.9363460054532
 30
0.0
 10
225.6461932450645
 20
-902.8611329712372
 30
0.0
 10
225.7632368143803
 20
-902.7909173998689
 30
0.0
 10
225.9186810645618
 20
-902.7297569588635
 30
0.0
 10
226.1069610949155
 20
-902.6810025219452
 30
0.0
 10
226.3198338744534
 20
-902.6498631990287
 30
0.0
 10
226.4692945147057
 20
-902.6425715495262
 30
0.0
 10
226.5458742102493
 20
-902.6425715495262
 30
0.0
 11
225.5458741665381
 21
-903.0240805510347
 31
0.0
 11
225.5697911511044
 21
-902.9476258477943
 31
0.0
 11
225.6405661944747
 21
-902.8713791591325
 31
0.0
 11
225.7554283030874
 21
-902.7994938963551
 31
0.0
 11
225.9107386513635
 21
-902.7362435729636
 31
0.0
 11
226.100456350294
 21
-902.6861443441447
 31
0.0
 11
226.3164118166562
 21
-902.6538244879624
 31
0.0
 11
226.5458742102493
 21
-902.6425715495262
 31
0.0
  0
LINE
  5
21C99
330
18
100
AcDbEntity
  8
01
100
AcDbLine
 10
306.2458741796514
 20
-872.3852960322205
 30
0.0
 11
306.2458741796514
 21
-872.7612320442057
 31
0.0
  0
LINE
  5
21C9A
330
18
100
AcDbEntity
  8
01
100
AcDbLine
 10
306.2458741852151
 20
-872.8926562955324
 30
0.0
 11
306.2458741971361
 21
-872.7612320442057
 31
0.0
  0
ARC
  5
21C9B
330
18
100
AcDbEntity
  8
01
100
AcDbCircle
 10
306.2458741917719
 20
-873.1926563140099
 30
0.0
 40
0.3000000184775222
100
AcDbArc
 50
0.0000012522299313
 51
90.00000125227336
  0
LINE
  5
21C9C
330
18
100
AcDbEntity
  8
01
100
AcDbLine
 10
306.5458742102495
 20
-872.9424054615162
 30
0.0
 11
306.5458741961798
 21
-872.4752101230184
 31
0.0
  0
LINE
  5
21C9D
330
18
100
AcDbEntity
  8
01
100
AcDbLine
 10
306.5458742102495
 20
-873.1926563074534
 30
0.0
 11
306.5458742102496
 21
-902.6425715495262
 31
0.0
  0
LINE
  5
21C9E
330
18
100
AcDbEntity
  8
01
100
AcDbLine
 10
306.5458742102495
 20
-872.9424054615162
 30
0.0
 11
306.5458742102495
 21
-873.1926563074531
 31
0.0
  0
LINE
  5
21C9F
330
18
100
AcDbEntity
  8
01
100
AcDbLine
 10
304.045874197136
 20
-872.7926562955323
 30
0.0
 11
304.0458741851264
 21
-872.8926562955324
 31
0.0
  0
LINE
  5
21CA0
330
18
100
AcDbEntity
  8
01
100
AcDbLine
 10
301.383659080806
 20
-872.8926562955324
 30
0.0
 11
304.0458741851264
 21
-872.8926562955324
 31
0.0
  0
LINE
  5
21CA1
330
18
100
AcDbEntity
  8
01
100
AcDbLine
 10
302.545874197136
 20
-872.7926562955323
 30
0.0
 11
304.045874197136
 21
-872.7926562955323
 31
0.0
  0
ARC
  5
21CA2
330
18
100
AcDbEntity
  8
01
100
AcDbCircle
 10
302.5322622532676
 20
-888.4331203155031
 30
0.0
 40
15.64046994322764
100
AcDbArc
 50
89.95013531972319
 51
95.54579279572584
  0
LINE
  5
21CA3
330
18
100
AcDbEntity
  8
01
100
AcDbLine
 10
304.0458741851264
 20
-872.8926562955324
 30
0.0
 11
304.1458741971359
 21
-872.8926562955324
 31
0.0
  0
LINE
  5
21CA4
330
18
100
AcDbEntity
  8
01
100
AcDbLine
 10
304.1458741971359
 20
-872.8926562955324
 30
0.0
 11
304.0458741971359
 21
-872.7926562955323
 31
0.0
  0
LINE
  5
21CA5
330
18
100
AcDbEntity
  8
01
100
AcDbLine
 10
306.2458741852151
 20
-872.8926562955324
 30
0.0
 11
304.145874197136
 21
-872.8926562955324
 31
0.0
  0
LINE
  5
21CA6
330
18
100
AcDbEntity
  8
01
100
AcDbLine
 10
236.5458755639539
 20
-844.8926558409331
 30
0.0
 11
236.5458755639539
 21
-842.8926558409331
 31
0.0
  0
ARC
  5
21CA7
330
18
100
AcDbEntity
  8
01
100
AcDbCircle
 10
275.545875476531
 20
-842.8926558409331
 30
0.0
 40
0.9999999999999998
100
AcDbArc
 50
270.0
 51
0.0
  0
ARC
  5
21CA8
330
18
100
AcDbEntity
  8
01
100
AcDbCircle
 10
237.5458754765311
 20
-842.8926558409331
 30
0.0
 40
0.9999999999999998
100
AcDbArc
 50
180.0
 51
270.0
  0
LINE
  5
21CA9
330
18
100
AcDbEntity
  8
01
100
AcDbLine
 10
275.545875476531
 20
-843.8926558409331
 30
0.0
 11
237.5458754765311
 21
-843.8926558409331
 31
0.0
  0
ARC
  5
21CAA
330
18
100
AcDbEntity
  8
01
100
AcDbCircle
 10
297.0458944072879
 20
-871.792675686959
 30
0.0
 40
0.4000098181118766
100
AcDbArc
 50
90.00150125421884
 51
179.9985509244057
  0
LINE
  5
21CAB
330
18
100
AcDbEntity
  8
01
100
AcDbLine
 10
296.6458739392388
 20
-872.0573671427281
 30
0.0
 11
296.6458739392388
 21
-871.7926656196778
 31
0.0
  0
LINE
  5
21CAC
330
18
100
AcDbEntity
  8
01
100
AcDbLine
 10
276.5458740531261
 20
-874.4704507390771
 30
0.0
 11
236.5458740531261
 21
-874.4704507390773
 31
0.0
  0
CIRCLE
  5
21CAD
330
18
100
AcDbEntity
  8
1PHANTOM
100
AcDbCircle
 10
-230.9541266152808
 20
-987.9087810298341
 30
0.0
 40
2.75
  0
CIRCLE
  5
21CAE
330
18
100
AcDbEntity
  8
1PHANTOM
100
AcDbCircle
 10
-255.9541266152808
 20
-987.9087810298341
 30
0.0
 40
2.75
  0
LINE
  5
21CAF
330
18
100
AcDbEntity
  8
01
100
AcDbLine
 10
349.2692835040645
 20
-983.3087845883321
 30
0.0
 11
347.9692836985801
 21
-983.3087845883321
 31
0.0
  0
LINE
  5
21CB0
330
18
100
AcDbEntity
  8
01
100
AcDbLine
 10
349.2692838869378
 20
-992.5087845883321
 30
0.0
 11
347.9692836985801
 21
-992.5087845883321
 31
0.0
  0
LINE
  5
21CB1
330
18
100
AcDbEntity
  8
01
100
AcDbLine
 10
347.9692836985801
 20
-992.5087845883321
 30
0.0
 11
347.9692836985801
 21
-983.3087845883321
 31
0.0
  0
LINE
  5
21CB2
330
18
100
AcDbEntity
  8
01
100
AcDbLine
 10
349.2692835040645
 20
-983.3087845883321
 30
0.0
 11
349.2692838869378
 21
-992.5087845883321
 31
0.0
  0
LINE
  5
21CB4
330
18
100
AcDbEntity
  8
1CENTER
100
AcDbLine
 10
263.5458740841023
 20
-987.9087810298344
 30
0.0
 11
274.5458740841023
 21
-987.9087810298344
 31
0.0
  0
LINE
  5
21CB5
330
18
100
AcDbEntity
  8
1CENTER
100
AcDbLine
 10
269.0458740841023
 20
-993.4087810298344
 30
0.0
 11
269.0458740841023
 21
-982.4087810298344
 31
0.0
  0
LINE
  5
21CB6
330
18
100
AcDbEntity
  8
1CENTER
100
AcDbLine
 10
238.5458740841023
 20
-987.9087810298344
 30
0.0
 11
249.5458740841023
 21
-987.9087810298344
 31
0.0
  0
LINE
  5
21CB7
330
18
100
AcDbEntity
  8
1CENTER
100
AcDbLine
 10
244.0458740841023
 20
-993.4087810298344
 30
0.0
 11
244.0458740841023
 21
-982.4087810298344
 31
0.0
  0
LINE
  5
21CB9
330
18
100
AcDbEntity
  8
1CENTER
100
AcDbLine
 10
-261.4541266152806
 20
-987.9087810298344
 30
0.0
 11
-250.4541266152807
 21
-987.9087810298344
 31
0.0
  0
LINE
  5
21CBA
330
18
100
AcDbEntity
  8
1CENTER
100
AcDbLine
 10
-255.9541266152807
 20
-993.4087810298344
 30
0.0
 11
-255.9541266152807
 21
-982.4087810298344
 31
0.0
  0
LINE
  5
21CBC
330
18
100
AcDbEntity
  8
1CENTER
100
AcDbLine
 10
-236.4541266152807
 20
-987.9087810298344
 30
0.0
 11
-225.4541266152807
 21
-987.9087810298344
 31
0.0
  0
LINE
  5
21CBD
330
18
100
AcDbEntity
  8
1CENTER
100
AcDbLine
 10
-230.9541266152807
 20
-993.4087810298344
 30
0.0
 11
-230.9541266152807
 21
-982.4087810298344
 31
0.0
  0
LINE
  5
21CBF
330
18
100
AcDbEntity
  8
1DIM
100
AcDbLine
 10
371.526910186663
 20
-910.5311746102909
 30
0.0
 11
406.526910186663
 21
-910.5311746102909
 31
0.0
  0
LINE
  5
21CC0
330
18
100
AcDbEntity
  8
1DIM
100
AcDbLine
 10
336.5269101866625
 20
-910.5311746102909
 30
0.0
 11
441.5269101866634
 21
-910.5311746102909
 31
0.0
  0
TEXT
  5
21CC1
330
18
100
AcDbEntity
  8
1TEXT
100
AcDbText
 10
408.5935768533307
 20
-909.2455315939403
 30
0.0
 40
4.0
  1
KH-44-DC
 72
     1
 11
423.926910186664
 21
-909.2455315939403
 31
0.0
100
AcDbText
  0
TEXT
  5
21CC2
330
18
100
AcDbEntity
  8
1TEXT
100
AcDbText
 10
372.3269101866637
 20
-902.2455315939409
 30
0.0
 40
4.0
  1
ライトブラウン
 72
     1
 11
388.9269101866637
 21
-902.2455315939409
 31
0.0
100
AcDbText
  0
TEXT
  5
21CC3
330
18
100
AcDbEntity
  8
1TEXT
100
AcDbText
 10
379.9935768533306
 20
-895.2455315939408
 30
0.0
 40
4.0
  1
ホワイト
 72
     1
 11
388.926910186664
 21
-895.2455315939408
 31
0.0
100
AcDbText
  0
TEXT
  5
21CC4
330
18
100
AcDbEntity
  8
1TEXT
100
AcDbText
 10
372.5269101866639
 20
-909.245531593941
 30
0.0
 40
4.0
  1
ダークブラウン
 72
     1
 11
388.9269101866639
 21
-909.245531593941
 31
0.0
100
AcDbText
  0
LINE
  5
21F70
330
18
100
AcDbEntity
  8
1CENTER
100
AcDbLine
 10
439.8758117205402
 20
-987.9087846451564
 30
0.0
 11
342.9831082812487
 21
-987.9087846451564
 31
0.0
  0
LINE
  5
21F71
330
18
100
AcDbEntity
  8
01
100
AcDbLine
 10
431.438194785334
 20
-989.6587846451564
 30
0.0
 11
347.9692836985794
 21
-989.6587846451564
 31
0.0
  0
LINE
  5
21F72
330
18
100
AcDbEntity
  8
01
100
AcDbLine
 10
347.9692836985794
 20
-992.4087846451566
 30
0.0
 11
347.1692836985794
 21
-992.4087846451564
 31
0.0
  0
LINE
  5
21F73
330
18
100
AcDbEntity
  8
01
100
AcDbLine
 10
437.9692836985794
 20
-987.9087846451564
 30
0.0
 11
431.438194785334
 21
-989.6587846451564
 31
0.0
  0
ARC
  5
21F74
330
18
100
AcDbEntity
  8
01
100
AcDbCircle
 10
347.1692836985794
 20
-989.9087846451564
 30
0.0
 40
2.5
100
AcDbArc
 50
180.0
 51
270.0
  0
LINE
  5
21F75
330
18
100
AcDbEntity
  8
01
100
AcDbLine
 10
437.9692836985794
 20
-987.9087846451564
 30
0.0
 11
431.438194785334
 21
-986.1587846451564
 31
0.0
  0
LINE
  5
21F76
330
18
100
AcDbEntity
  8
01
100
AcDbLine
 10
344.6692836985794
 20
-989.9087846451564
 30
0.0
 11
344.6692836985795
 21
-985.9087846451564
 31
0.0
  0
LINE
  5
21F77
330
18
100
AcDbEntity
  8
01
100
AcDbLine
 10
431.438194785334
 20
-986.1587846451564
 30
0.0
 11
347.9692836985794
 21
-986.1587846451564
 31
0.0
  0
ARC
  5
21F78
330
18
100
AcDbEntity
  8
01
100
AcDbCircle
 10
347.1692836985795
 20
-985.9087846451564
 30
0.0
 40
2.5
100
AcDbArc
 50
89.99999999999609
 51
180.0
  0
LINE
  5
21F79
330
18
100
AcDbEntity
  8
01
100
AcDbLine
 10
347.9692836985794
 20
-992.4087846451566
 30
0.0
 11
347.9692836985794
 21
-983.4087846451564
 31
0.0
  0
LINE
  5
21F7A
330
18
100
AcDbEntity
  8
01
100
AcDbLine
 10
347.9692836985794
 20
-983.4087846451564
 30
0.0
 11
347.1692836985796
 21
-983.4087846451564
 31
0.0
  0
LINE
  5
21F7B
330
18
100
AcDbEntity
  8
01
100
AcDbLine
 10
410.0871492846253
 20
-985.4087846451564
 30
0.0
 11
411.0871492846253
 21
-990.4087846451564
 31
0.0
  0
LINE
  5
21F7C
330
18
100
AcDbEntity
  8
01
100
AcDbLine
 10
412.0871492846253
 20
-985.4087846451564
 30
0.0
 11
413.0871492846253
 21
-990.4087846451564
 31
0.0
  0
LINE
  5
21F7D
330
18
100
AcDbEntity
  8
01
100
AcDbLine
 10
413.2371492846253
 20
-989.6587846451564
 30
0.0
 11
413.0871492846253
 21
-990.4087846451564
 31
0.0
  0
LINE
  5
21F7E
330
18
100
AcDbEntity
  8
01
100
AcDbLine
 10
414.0871492846253
 20
-985.4087846451564
 30
0.0
 11
413.9371492846253
 21
-986.1587846451564
 31
0.0
  0
LINE
  5
21F7F
330
18
100
AcDbEntity
  8
01
100
AcDbLine
 10
415.2371492846253
 20
-989.6587846451564
 30
0.0
 11
415.0871492846253
 21
-990.4087846451564
 31
0.0
  0
LINE
  5
21F80
330
18
100
AcDbEntity
  8
01
100
AcDbLine
 10
414.0871492846253
 20
-985.4087846451564
 30
0.0
 11
415.0871492846253
 21
-990.4087846451564
 31
0.0
  0
LINE
  5
21F81
330
18
100
AcDbEntity
  8
01
100
AcDbLine
 10
411.2371492846253
 20
-989.6587846451564
 30
0.0
 11
411.0871492846253
 21
-990.4087846451564
 31
0.0
  0
LINE
  5
21F82
330
18
100
AcDbEntity
  8
01
100
AcDbLine
 10
412.0871492846253
 20
-985.4087846451564
 30
0.0
 11
411.9371492846253
 21
-986.1587846451564
 31
0.0
  0
LINE
  5
21F83
330
18
100
AcDbEntity
  8
01
100
AcDbLine
 10
416.0871492846253
 20
-985.4087846451564
 30
0.0
 11
415.9371492846253
 21
-986.1587846451564
 31
0.0
  0
LINE
  5
21F84
330
18
100
AcDbEntity
  8
01
100
AcDbLine
 10
417.2371492846253
 20
-989.6587846451564
 30
0.0
 11
417.0871492846253
 21
-990.4087846451564
 31
0.0
  0
LINE
  5
21F85
330
18
100
AcDbEntity
  8
01
100
AcDbLine
 10
418.0871492846253
 20
-985.4087846451564
 30
0.0
 11
417.9371492846253
 21
-986.1587846451564
 31
0.0
  0
LINE
  5
21F86
330
18
100
AcDbEntity
  8
01
100
AcDbLine
 10
416.0871492846253
 20
-985.4087846451564
 30
0.0
 11
417.0871492846253
 21
-990.4087846451564
 31
0.0
  0
LINE
  5
21F87
330
18
100
AcDbEntity
  8
01
100
AcDbLine
 10
420.0871492846253
 20
-985.4087846451564
 30
0.0
 11
419.9371492846253
 21
-986.1587846451564
 31
0.0
  0
LINE
  5
21F88
330
18
100
AcDbEntity
  8
01
100
AcDbLine
 10
419.2371492846253
 20
-989.6587846451564
 30
0.0
 11
419.0871492846253
 21
-990.4087846451564
 31
0.0
  0
LINE
  5
21F89
330
18
100
AcDbEntity
  8
01
100
AcDbLine
 10
418.0871492846253
 20
-985.4087846451564
 30
0.0
 11
419.0871492846253
 21
-990.4087846451564
 31
0.0
  0
LINE
  5
21F8A
330
18
100
AcDbEntity
  8
01
100
AcDbLine
 10
436.949820622014
 20
-988.2221413321001
 30
0.0
 11
436.7998206220141
 21
-988.9721413321001
 31
0.0
  0
LINE
  5
21F8B
330
18
100
AcDbEntity
  8
01
100
AcDbLine
 10
426.0871492846253
 20
-985.4087846451564
 30
0.0
 11
427.0871492846253
 21
-990.4087846451564
 31
0.0
  0
LINE
  5
21F8C
330
18
100
AcDbEntity
  8
01
100
AcDbLine
 10
427.2371492846253
 20
-989.6587846451564
 30
0.0
 11
427.0871492846253
 21
-990.4087846451564
 31
0.0
  0
LINE
  5
21F8D
330
18
100
AcDbEntity
  8
01
100
AcDbLine
 10
429.2371492846253
 20
-989.6587846451564
 30
0.0
 11
429.0871492846253
 21
-990.4087846451564
 31
0.0
  0
LINE
  5
21F8E
330
18
100
AcDbEntity
  8
01
100
AcDbLine
 10
428.0871492846253
 20
-985.4087846451564
 30
0.0
 11
427.9371492846253
 21
-986.1587846451564
 31
0.0
  0
LINE
  5
21F8F
330
18
100
AcDbEntity
  8
01
100
AcDbLine
 10
428.0871492846253
 20
-985.4087846451564
 30
0.0
 11
429.0871492846253
 21
-990.4087846451564
 31
0.0
  0
LINE
  5
21F90
330
18
100
AcDbEntity
  8
01
100
AcDbLine
 10
433.1532767926363
 20
-989.2394221852112
 30
0.0
 11
433.0032767926363
 21
-989.9894221852112
 31
0.0
  0
LINE
  5
21F91
330
18
100
AcDbEntity
  8
01
100
AcDbLine
 10
435.0515487073252
 20
-988.7307817586559
 30
0.0
 11
434.9015487073252
 21
-989.4807817586559
 31
0.0
  0
LINE
  5
21F92
330
18
100
AcDbEntity
  8
01
100
AcDbLine
 10
434.23714455047
 20
-986.1587609743799
 30
0.0
 11
434.08714455047
 21
-986.9087609743799
 31
0.0
  0
LINE
  5
21F93
330
18
100
AcDbEntity
  8
01
100
AcDbLine
 10
434.23714455047
 20
-986.1587609743799
 30
0.0
 11
434.9015487073252
 21
-989.4807817586559
 31
0.0
  0
LINE
  5
21F94
330
18
100
AcDbEntity
  8
01
100
AcDbLine
 10
436.3503932045219
 20
-986.7250042446392
 30
0.0
 11
436.2003932045218
 21
-987.4750042446392
 31
0.0
  0
LINE
  5
21F95
330
18
100
AcDbEntity
  8
01
100
AcDbLine
 10
431.2371492846253
 20
-989.6587846451564
 30
0.0
 11
431.0871492846253
 21
-990.4087846451564
 31
0.0
  0
LINE
  5
21F96
330
18
100
AcDbEntity
  8
01
100
AcDbLine
 10
430.0871492846253
 20
-985.4087846451564
 30
0.0
 11
429.9371492846253
 21
-986.1587846451564
 31
0.0
  0
LINE
  5
21F97
330
18
100
AcDbEntity
  8
01
100
AcDbLine
 10
430.0871492846253
 20
-985.4087846451564
 30
0.0
 11
431.0871492846253
 21
-990.4087846451564
 31
0.0
  0
LINE
  5
21F98
330
18
100
AcDbEntity
  8
01
100
AcDbLine
 10
432.1238958964181
 20
-985.5925177041206
 30
0.0
 11
431.9738958964181
 21
-986.3425177041206
 31
0.0
  0
LINE
  5
21F99
330
18
100
AcDbEntity
  8
01
100
AcDbLine
 10
432.1238958964181
 20
-985.5925177041206
 30
0.0
 11
433.0032767926363
 21
-989.9894221852112
 31
0.0
  0
LINE
  5
21F9A
330
18
100
AcDbEntity
  8
01
100
AcDbLine
 10
436.3503932045219
 20
-986.7250042446392
 30
0.0
 11
436.7998206220141
 21
-988.9721413321001
 31
0.0
  0
LINE
  5
21F9B
330
18
100
AcDbEntity
  8
01
100
AcDbLine
 10
421.2371492846253
 20
-989.6587846451564
 30
0.0
 11
421.0871492846253
 21
-990.4087846451564
 31
0.0
  0
LINE
  5
21F9C
330
18
100
AcDbEntity
  8
01
100
AcDbLine
 10
422.0871492846253
 20
-985.4087846451564
 30
0.0
 11
421.9371492846253
 21
-986.1587846451564
 31
0.0
  0
LINE
  5
21F9D
330
18
100
AcDbEntity
  8
01
100
AcDbLine
 10
422.0871492846253
 20
-985.4087846451564
 30
0.0
 11
423.0871492846253
 21
-990.4087846451564
 31
0.0
  0
LINE
  5
21F9E
330
18
100
AcDbEntity
  8
01
100
AcDbLine
 10
425.2371492846253
 20
-989.6587846451564
 30
0.0
 11
425.0871492846253
 21
-990.4087846451564
 31
0.0
  0
LINE
  5
21F9F
330
18
100
AcDbEntity
  8
01
100
AcDbLine
 10
424.0871492846253
 20
-985.4087846451564
 30
0.0
 11
423.9371492846253
 21
-986.1587846451564
 31
0.0
  0
LINE
  5
21FA0
330
18
100
AcDbEntity
  8
01
100
AcDbLine
 10
426.0871492846253
 20
-985.4087846451564
 30
0.0
 11
425.9371492846253
 21
-986.1587846451564
 31
0.0
  0
LINE
  5
21FA1
330
18
100
AcDbEntity
  8
01
100
AcDbLine
 10
424.0871492846253
 20
-985.4087846451564
 30
0.0
 11
425.0871492846253
 21
-990.4087846451564
 31
0.0
  0
LINE
  5
21FA2
330
18
100
AcDbEntity
  8
01
100
AcDbLine
 10
423.2371492846253
 20
-989.6587846451564
 30
0.0
 11
423.0871492846253
 21
-990.4087846451564
 31
0.0
  0
LINE
  5
21FA3
330
18
100
AcDbEntity
  8
01
100
AcDbLine
 10
420.0871492846253
 20
-985.4087846451564
 30
0.0
 11
421.0871492846253
 21
-990.4087846451564
 31
0.0
  0
LINE
  5
21FA4
330
18
100
AcDbEntity
  8
01
100
AcDbLine
 10
378.0871492846253
 20
-985.4087846451564
 30
0.0
 11
377.9371492846253
 21
-986.1587846451564
 31
0.0
  0
LINE
  5
21FA5
330
18
100
AcDbEntity
  8
01
100
AcDbLine
 10
379.2371492846253
 20
-989.6587846451564
 30
0.0
 11
379.0871492846253
 21
-990.4087846451564
 31
0.0
  0
LINE
  5
21FA6
330
18
100
AcDbEntity
  8
01
100
AcDbLine
 10
378.0871492846253
 20
-985.4087846451564
 30
0.0
 11
379.0871492846253
 21
-990.4087846451564
 31
0.0
  0
LINE
  5
21FA7
330
18
100
AcDbEntity
  8
01
100
AcDbLine
 10
381.2371492846253
 20
-989.6587846451564
 30
0.0
 11
381.0871492846253
 21
-990.4087846451564
 31
0.0
  0
LINE
  5
21FA8
330
18
100
AcDbEntity
  8
01
100
AcDbLine
 10
380.0871492846253
 20
-985.4087846451564
 30
0.0
 11
379.9371492846253
 21
-986.1587846451564
 31
0.0
  0
LINE
  5
21FA9
330
18
100
AcDbEntity
  8
01
100
AcDbLine
 10
380.0871492846253
 20
-985.4087846451564
 30
0.0
 11
381.0871492846253
 21
-990.4087846451564
 31
0.0
  0
LINE
  5
21FAA
330
18
100
AcDbEntity
  8
01
100
AcDbLine
 10
383.2371492846253
 20
-989.6587846451564
 30
0.0
 11
383.0871492846253
 21
-990.4087846451564
 31
0.0
  0
LINE
  5
21FAB
330
18
100
AcDbEntity
  8
01
100
AcDbLine
 10
382.0871492846253
 20
-985.4087846451564
 30
0.0
 11
381.9371492846253
 21
-986.1587846451564
 31
0.0
  0
LINE
  5
21FAC
330
18
100
AcDbEntity
  8
01
100
AcDbLine
 10
382.0871492846253
 20
-985.4087846451564
 30
0.0
 11
383.0871492846253
 21
-990.4087846451564
 31
0.0
  0
LINE
  5
21FAD
330
18
100
AcDbEntity
  8
01
100
AcDbLine
 10
384.0871492846253
 20
-985.4087846451564
 30
0.0
 11
385.0871492846253
 21
-990.4087846451564
 31
0.0
  0
LINE
  5
21FAE
330
18
100
AcDbEntity
  8
01
100
AcDbLine
 10
384.0871492846253
 20
-985.4087846451564
 30
0.0
 11
383.9371492846253
 21
-986.1587846451564
 31
0.0
  0
LINE
  5
21FAF
330
18
100
AcDbEntity
  8
01
100
AcDbLine
 10
385.2371492846253
 20
-989.6587846451564
 30
0.0
 11
385.0871492846253
 21
-990.4087846451564
 31
0.0
  0
LINE
  5
21FB0
330
18
100
AcDbEntity
  8
01
100
AcDbLine
 10
386.0871492846253
 20
-985.4087846451564
 30
0.0
 11
387.0871492846253
 21
-990.4087846451564
 31
0.0
  0
LINE
  5
21FB1
330
18
100
AcDbEntity
  8
01
100
AcDbLine
 10
386.0871492846253
 20
-985.4087846451564
 30
0.0
 11
385.9371492846253
 21
-986.1587846451564
 31
0.0
  0
LINE
  5
21FB2
330
18
100
AcDbEntity
  8
01
100
AcDbLine
 10
387.2371492846253
 20
-989.6587846451564
 30
0.0
 11
387.0871492846253
 21
-990.4087846451564
 31
0.0
  0
LINE
  5
21FB3
330
18
100
AcDbEntity
  8
01
100
AcDbLine
 10
389.2371492846253
 20
-989.6587846451564
 30
0.0
 11
389.0871492846253
 21
-990.4087846451564
 31
0.0
  0
LINE
  5
21FB4
330
18
100
AcDbEntity
  8
01
100
AcDbLine
 10
388.0871492846253
 20
-985.4087846451564
 30
0.0
 11
387.9371492846253
 21
-986.1587846451564
 31
0.0
  0
LINE
  5
21FB5
330
18
100
AcDbEntity
  8
01
100
AcDbLine
 10
388.0871492846253
 20
-985.4087846451564
 30
0.0
 11
389.0871492846253
 21
-990.4087846451564
 31
0.0
  0
LINE
  5
21FB6
330
18
100
AcDbEntity
  8
01
100
AcDbLine
 10
391.2371492846253
 20
-989.6587846451564
 30
0.0
 11
391.0871492846253
 21
-990.4087846451564
 31
0.0
  0
LINE
  5
21FB7
330
18
100
AcDbEntity
  8
01
100
AcDbLine
 10
390.0871492846253
 20
-985.4087846451564
 30
0.0
 11
389.9371492846253
 21
-986.1587846451564
 31
0.0
  0
LINE
  5
21FB8
330
18
100
AcDbEntity
  8
01
100
AcDbLine
 10
390.0871492846253
 20
-985.4087846451564
 30
0.0
 11
391.0871492846253
 21
-990.4087846451564
 31
0.0
  0
LINE
  5
21FB9
330
18
100
AcDbEntity
  8
01
100
AcDbLine
 10
393.2371492846253
 20
-989.6587846451564
 30
0.0
 11
393.0871492846253
 21
-990.4087846451564
 31
0.0
  0
LINE
  5
21FBA
330
18
100
AcDbEntity
  8
01
100
AcDbLine
 10
392.0871492846253
 20
-985.4087846451564
 30
0.0
 11
391.9371492846253
 21
-986.1587846451564
 31
0.0
  0
LINE
  5
21FBB
330
18
100
AcDbEntity
  8
01
100
AcDbLine
 10
392.0871492846253
 20
-985.4087846451564
 30
0.0
 11
393.0871492846253
 21
-990.4087846451564
 31
0.0
  0
LINE
  5
21FBC
330
18
100
AcDbEntity
  8
01
100
AcDbLine
 10
395.2371492846253
 20
-989.6587846451564
 30
0.0
 11
395.0871492846253
 21
-990.4087846451564
 31
0.0
  0
LINE
  5
21FBD
330
18
100
AcDbEntity
  8
01
100
AcDbLine
 10
394.0871492846253
 20
-985.4087846451564
 30
0.0
 11
393.9371492846253
 21
-986.1587846451564
 31
0.0
  0
LINE
  5
21FBE
330
18
100
AcDbEntity
  8
01
100
AcDbLine
 10
394.0871492846253
 20
-985.4087846451564
 30
0.0
 11
395.0871492846253
 21
-990.4087846451564
 31
0.0
  0
LINE
  5
21FBF
330
18
100
AcDbEntity
  8
01
100
AcDbLine
 10
397.2371492846253
 20
-989.6587846451564
 30
0.0
 11
397.0871492846253
 21
-990.4087846451564
 31
0.0
  0
LINE
  5
21FC0
330
18
100
AcDbEntity
  8
01
100
AcDbLine
 10
396.0871492846253
 20
-985.4087846451564
 30
0.0
 11
395.9371492846253
 21
-986.1587846451564
 31
0.0
  0
LINE
  5
21FC1
330
18
100
AcDbEntity
  8
01
100
AcDbLine
 10
396.0871492846253
 20
-985.4087846451564
 30
0.0
 11
397.0871492846253
 21
-990.4087846451564
 31
0.0
  0
LINE
  5
21FC2
330
18
100
AcDbEntity
  8
01
100
AcDbLine
 10
404.0871492846253
 20
-985.4087846451564
 30
0.0
 11
405.0871492846253
 21
-990.4087846451564
 31
0.0
  0
LINE
  5
21FC3
330
18
100
AcDbEntity
  8
01
100
AcDbLine
 10
409.2371492846253
 20
-989.6587846451564
 30
0.0
 11
409.0871492846253
 21
-990.4087846451564
 31
0.0
  0
LINE
  5
21FC4
330
18
100
AcDbEntity
  8
01
100
AcDbLine
 10
408.0871492846253
 20
-985.4087846451564
 30
0.0
 11
407.9371492846253
 21
-986.1587846451564
 31
0.0
  0
LINE
  5
21FC5
330
18
100
AcDbEntity
  8
01
100
AcDbLine
 10
408.0871492846253
 20
-985.4087846451564
 30
0.0
 11
409.0871492846253
 21
-990.4087846451564
 31
0.0
  0
LINE
  5
21FC6
330
18
100
AcDbEntity
  8
01
100
AcDbLine
 10
406.0871492846253
 20
-985.4087846451564
 30
0.0
 11
407.0871492846253
 21
-990.4087846451564
 31
0.0
  0
LINE
  5
21FC7
330
18
100
AcDbEntity
  8
01
100
AcDbLine
 10
406.0871492846253
 20
-985.4087846451564
 30
0.0
 11
405.9371492846253
 21
-986.1587846451564
 31
0.0
  0
LINE
  5
21FC8
330
18
100
AcDbEntity
  8
01
100
AcDbLine
 10
407.2371492846253
 20
-989.6587846451564
 30
0.0
 11
407.0871492846253
 21
-990.4087846451564
 31
0.0
  0
LINE
  5
21FC9
330
18
100
AcDbEntity
  8
01
100
AcDbLine
 10
405.2371492846253
 20
-989.6587846451564
 30
0.0
 11
405.0871492846253
 21
-990.4087846451564
 31
0.0
  0
LINE
  5
21FCA
330
18
100
AcDbEntity
  8
01
100
AcDbLine
 10
410.0871492846253
 20
-985.4087846451564
 30
0.0
 11
409.9371492846253
 21
-986.1587846451564
 31
0.0
  0
LINE
  5
21FCB
330
18
100
AcDbEntity
  8
01
100
AcDbLine
 10
402.0871492846253
 20
-985.4087846451564
 30
0.0
 11
401.9371492846253
 21
-986.1587846451564
 31
0.0
  0
LINE
  5
21FCC
330
18
100
AcDbEntity
  8
01
100
AcDbLine
 10
400.0871492846253
 20
-985.4087846451564
 30
0.0
 11
401.0871492846253
 21
-990.4087846451564
 31
0.0
  0
LINE
  5
21FCD
330
18
100
AcDbEntity
  8
01
100
AcDbLine
 10
400.0871492846253
 20
-985.4087846451564
 30
0.0
 11
399.9371492846253
 21
-986.1587846451564
 31
0.0
  0
LINE
  5
21FCE
330
18
100
AcDbEntity
  8
01
100
AcDbLine
 10
401.2371492846253
 20
-989.6587846451564
 30
0.0
 11
401.0871492846253
 21
-990.4087846451564
 31
0.0
  0
LINE
  5
21FCF
330
18
100
AcDbEntity
  8
01
100
AcDbLine
 10
398.0871492846253
 20
-985.4087846451564
 30
0.0
 11
399.0871492846253
 21
-990.4087846451564
 31
0.0
  0
LINE
  5
21FD0
330
18
100
AcDbEntity
  8
01
100
AcDbLine
 10
398.0871492846253
 20
-985.4087846451564
 30
0.0
 11
397.9371492846253
 21
-986.1587846451564
 31
0.0
  0
LINE
  5
21FD1
330
18
100
AcDbEntity
  8
01
100
AcDbLine
 10
399.2371492846253
 20
-989.6587846451564
 30
0.0
 11
399.0871492846253
 21
-990.4087846451564
 31
0.0
  0
LINE
  5
21FD2
330
18
100
AcDbEntity
  8
01
100
AcDbLine
 10
404.0871492846253
 20
-985.4087846451564
 30
0.0
 11
403.9371492846253
 21
-986.1587846451564
 31
0.0
  0
LINE
  5
21FD3
330
18
100
AcDbEntity
  8
01
100
AcDbLine
 10
403.2371492846253
 20
-989.6587846451564
 30
0.0
 11
403.0871492846253
 21
-990.4087846451564
 31
0.0
  0
LINE
  5
21FD4
330
18
100
AcDbEntity
  8
01
100
AcDbLine
 10
402.0871492846253
 20
-985.4087846451564
 30
0.0
 11
403.0871492846253
 21
-990.4087846451564
 31
0.0
  0
LINE
  5
21FD5
330
18
100
AcDbEntity
  8
01
100
AcDbLine
 10
376.0871492846253
 20
-985.4087846451564
 30
0.0
 11
375.9371492846253
 21
-986.1587846451564
 31
0.0
  0
LINE
  5
21FD6
330
18
100
AcDbEntity
  8
01
100
AcDbLine
 10
377.2371492846253
 20
-989.6587846451564
 30
0.0
 11
377.0871492846253
 21
-990.4087846451564
 31
0.0
  0
LINE
  5
21FD7
330
18
100
AcDbEntity
  8
01
100
AcDbLine
 10
376.0871492846253
 20
-985.4087846451564
 30
0.0
 11
377.0871492846253
 21
-990.4087846451564
 31
0.0
  0
LINE
  5
21FD8
330
18
100
AcDbEntity
  8
01
100
AcDbLine
 10
374.0871492846253
 20
-985.4087846451564
 30
0.0
 11
373.9371492846253
 21
-986.1587846451564
 31
0.0
  0
LINE
  5
21FD9
330
18
100
AcDbEntity
  8
01
100
AcDbLine
 10
375.2371492846253
 20
-989.6587846451564
 30
0.0
 11
375.0871492846253
 21
-990.4087846451564
 31
0.0
  0
LINE
  5
21FDA
330
18
100
AcDbEntity
  8
01
100
AcDbLine
 10
374.0871492846253
 20
-985.4087846451564
 30
0.0
 11
375.0871492846253
 21
-990.4087846451564
 31
0.0
  0
LINE
  5
21FDB
330
18
100
AcDbEntity
  8
01
100
AcDbLine
 10
372.0871492846253
 20
-985.4087846451564
 30
0.0
 11
371.9371492846253
 21
-986.1587846451564
 31
0.0
  0
LINE
  5
21FDC
330
18
100
AcDbEntity
  8
01
100
AcDbLine
 10
373.2371492846253
 20
-989.6587846451564
 30
0.0
 11
373.0871492846253
 21
-990.4087846451564
 31
0.0
  0
LINE
  5
21FDD
330
18
100
AcDbEntity
  8
01
100
AcDbLine
 10
372.0871492846253
 20
-985.4087846451564
 30
0.0
 11
373.0871492846253
 21
-990.4087846451564
 31
0.0
  0
LINE
  5
21FDE
330
18
100
AcDbEntity
  8
01
100
AcDbLine
 10
370.0871492846253
 20
-985.4087846451564
 30
0.0
 11
369.9371492846253
 21
-986.1587846451564
 31
0.0
  0
LINE
  5
21FDF
330
18
100
AcDbEntity
  8
01
100
AcDbLine
 10
371.2371492846253
 20
-989.6587846451564
 30
0.0
 11
371.0871492846253
 21
-990.4087846451564
 31
0.0
  0
LINE
  5
21FE0
330
18
100
AcDbEntity
  8
01
100
AcDbLine
 10
370.0871492846253
 20
-985.4087846451564
 30
0.0
 11
371.0871492846253
 21
-990.4087846451564
 31
0.0
  0
LINE
  5
21FE1
330
18
100
AcDbEntity
  8
01
100
AcDbLine
 10
368.0871492846253
 20
-985.4087846451564
 30
0.0
 11
367.9371492846253
 21
-986.1587846451564
 31
0.0
  0
LINE
  5
21FE2
330
18
100
AcDbEntity
  8
01
100
AcDbLine
 10
369.2371492846253
 20
-989.6587846451564
 30
0.0
 11
369.0871492846253
 21
-990.4087846451564
 31
0.0
  0
LINE
  5
21FE3
330
18
100
AcDbEntity
  8
01
100
AcDbLine
 10
368.0871492846253
 20
-985.4087846451564
 30
0.0
 11
369.0871492846253
 21
-990.4087846451564
 31
0.0
  0
LINE
  5
21FE4
330
18
100
AcDbEntity
  8
01
100
AcDbLine
 10
366.0871492846252
 20
-985.4087846451564
 30
0.0
 11
365.9371492846253
 21
-986.1587846451564
 31
0.0
  0
LINE
  5
21FE5
330
18
100
AcDbEntity
  8
01
100
AcDbLine
 10
367.2371492846253
 20
-989.6587846451564
 30
0.0
 11
367.0871492846252
 21
-990.4087846451564
 31
0.0
  0
LINE
  5
21FE6
330
18
100
AcDbEntity
  8
01
100
AcDbLine
 10
366.0871492846252
 20
-985.4087846451564
 30
0.0
 11
367.0871492846252
 21
-990.4087846451564
 31
0.0
  0
LINE
  5
21FE7
330
18
100
AcDbEntity
  8
01
100
AcDbLine
 10
364.0871492846252
 20
-985.4087846451564
 30
0.0
 11
363.9371492846253
 21
-986.1587846451564
 31
0.0
  0
LINE
  5
21FE8
330
18
100
AcDbEntity
  8
01
100
AcDbLine
 10
365.2371492846253
 20
-989.6587846451564
 30
0.0
 11
365.0871492846252
 21
-990.4087846451564
 31
0.0
  0
LINE
  5
21FE9
330
18
100
AcDbEntity
  8
01
100
AcDbLine
 10
364.0871492846252
 20
-985.4087846451564
 30
0.0
 11
365.0871492846252
 21
-990.4087846451564
 31
0.0
  0
LINE
  5
21FEA
330
18
100
AcDbEntity
  8
01
100
AcDbLine
 10
362.0871492846252
 20
-985.4087846451564
 30
0.0
 11
361.9371492846253
 21
-986.1587846451564
 31
0.0
  0
LINE
  5
21FEB
330
18
100
AcDbEntity
  8
01
100
AcDbLine
 10
363.2371492846253
 20
-989.6587846451564
 30
0.0
 11
363.0871492846252
 21
-990.4087846451564
 31
0.0
  0
LINE
  5
21FEC
330
18
100
AcDbEntity
  8
01
100
AcDbLine
 10
362.0871492846252
 20
-985.4087846451564
 30
0.0
 11
363.0871492846252
 21
-990.4087846451564
 31
0.0
  0
LINE
  5
21FED
330
18
100
AcDbEntity
  8
01
100
AcDbLine
 10
360.0871492846252
 20
-985.4087846451564
 30
0.0
 11
359.9371492846253
 21
-986.1587846451564
 31
0.0
  0
LINE
  5
21FEE
330
18
100
AcDbEntity
  8
01
100
AcDbLine
 10
361.2371492846253
 20
-989.6587846451564
 30
0.0
 11
361.0871492846252
 21
-990.4087846451564
 31
0.0
  0
LINE
  5
21FEF
330
18
100
AcDbEntity
  8
01
100
AcDbLine
 10
360.0871492846252
 20
-985.4087846451564
 30
0.0
 11
361.0871492846252
 21
-990.4087846451564
 31
0.0
  0
LINE
  5
21FF0
330
18
100
AcDbEntity
  8
01
100
AcDbLine
 10
358.0871492846252
 20
-985.4087846451564
 30
0.0
 11
357.9371492846253
 21
-986.1587846451564
 31
0.0
  0
LINE
  5
21FF1
330
18
100
AcDbEntity
  8
01
100
AcDbLine
 10
359.2371492846253
 20
-989.6587846451564
 30
0.0
 11
359.0871492846252
 21
-990.4087846451564
 31
0.0
  0
LINE
  5
21FF2
330
18
100
AcDbEntity
  8
01
100
AcDbLine
 10
358.0871492846252
 20
-985.4087846451564
 30
0.0
 11
359.0871492846252
 21
-990.4087846451564
 31
0.0
  0
LINE
  5
21FF3
330
18
100
AcDbEntity
  8
01
100
AcDbLine
 10
356.0871492846252
 20
-985.4087846451564
 30
0.0
 11
355.9371492846253
 21
-986.1587846451564
 31
0.0
  0
LINE
  5
21FF4
330
18
100
AcDbEntity
  8
01
100
AcDbLine
 10
357.2371492846253
 20
-989.6587846451564
 30
0.0
 11
357.0871492846252
 21
-990.4087846451564
 31
0.0
  0
LINE
  5
21FF5
330
18
100
AcDbEntity
  8
01
100
AcDbLine
 10
356.0871492846252
 20
-985.4087846451564
 30
0.0
 11
357.0871492846252
 21
-990.4087846451564
 31
0.0
  0
LINE
  5
21FF6
330
18
100
AcDbEntity
  8
01
100
AcDbLine
 10
354.0871492846252
 20
-985.4087846451564
 30
0.0
 11
353.9371492846253
 21
-986.1587846451564
 31
0.0
  0
LINE
  5
21FF7
330
18
100
AcDbEntity
  8
01
100
AcDbLine
 10
355.2371492846253
 20
-989.6587846451564
 30
0.0
 11
355.0871492846252
 21
-990.4087846451564
 31
0.0
  0
LINE
  5
21FF8
330
18
100
AcDbEntity
  8
01
100
AcDbLine
 10
354.0871492846252
 20
-985.4087846451564
 30
0.0
 11
355.0871492846252
 21
-990.4087846451564
 31
0.0
  0
LINE
  5
21FF9
330
18
100
AcDbEntity
  8
01
100
AcDbLine
 10
352.0871492846252
 20
-985.4087846451564
 30
0.0
 11
351.9371492846253
 21
-986.1587846451564
 31
0.0
  0
LINE
  5
21FFA
330
18
100
AcDbEntity
  8
01
100
AcDbLine
 10
353.2371492846253
 20
-989.6587846451564
 30
0.0
 11
353.0871492846252
 21
-990.4087846451564
 31
0.0
  0
LINE
  5
21FFB
330
18
100
AcDbEntity
  8
01
100
AcDbLine
 10
352.0871492846252
 20
-985.4087846451564
 30
0.0
 11
353.0871492846252
 21
-990.4087846451564
 31
0.0
  0
LINE
  5
21FFC
330
18
100
AcDbEntity
  8
01
100
AcDbLine
 10
350.0871492846252
 20
-985.4087846451564
 30
0.0
 11
349.9371492846253
 21
-986.1587846451564
 31
0.0
  0
LINE
  5
21FFD
330
18
100
AcDbEntity
  8
01
100
AcDbLine
 10
351.2371492846253
 20
-989.6587846451564
 30
0.0
 11
351.0871492846252
 21
-990.4087846451564
 31
0.0
  0
LINE
  5
21FFE
330
18
100
AcDbEntity
  8
01
100
AcDbLine
 10
350.0871492846252
 20
-985.4087846451564
 30
0.0
 11
351.0871492846252
 21
-990.4087846451564
 31
0.0
  0
LINE
  5
21FFF
330
18
100
AcDbEntity
  8
01
100
AcDbLine
 10
348.0871492846252
 20
-985.4087846451564
 30
0.0
 11
347.9371492846253
 21
-986.1587846451564
 31
0.0
  0
LINE
  5
22000
330
18
100
AcDbEntity
  8
01
100
AcDbLine
 10
349.2371492846253
 20
-989.6587846451564
 30
0.0
 11
349.0871492846252
 21
-990.4087846451564
 31
0.0
  0
LINE
  5
22001
330
18
100
AcDbEntity
  8
01
100
AcDbLine
 10
348.0871492846252
 20
-985.4087846451564
 30
0.0
 11
349.0871492846252
 21
-990.4087846451564
 31
0.0
  0
SOLID
  5
22002
330
18
100
AcDbEntity
  8
1DIM
100
AcDbTrace
 10
271.2605034503277
 20
-1000.35206464899
 30
0.0
 11
270.0704487637686
 21
-998.7104553915511
 31
0.0
 12
271.7285899831967
 22
-999.8773653313257
 32
0.0
 13
271.7285899831967
 23
-999.8773653313257
 33
0.0
  0
LINE
  5
22003
330
18
100
AcDbEntity
  8
1DIM
100
AcDbLine
 10
271.4945467167622
 20
-1000.114714990158
 30
0.0
 11
300.678594248964
 21
-1028.89221501194
 31
0.0
  0
LINE
  5
22004
330
18
100
AcDbEntity
  8
1DIM
100
AcDbLine
 10
300.678594248964
 20
-1028.89221501194
 30
0.0
 11
303.378594248964
 21
-1028.89221501194
 31
0.0
  0
TEXT
  5
22005
330
18
100
AcDbEntity
  8
1DIM
  6
CONTINUOUS
100
AcDbText
 10
303.1452609156307
 20
-1022.358881678607
 30
0.0
 40
3.5
  1
材質：天然木（ビーチ）
100
AcDbText
  0
TEXT
  5
22006
330
18
100
AcDbEntity
  8
1DIM
  6
CONTINUOUS
100
AcDbText
 10
303.2619275822973
 20
-1028.19221501194
 30
0.0
 40
3.5
  1
仕上げ：各種仕上げ
100
AcDbText
  0
TEXT
  5
22007
330
18
100
AcDbEntity
  8
1DIM
  6
CONTINUOUS
100
AcDbText
 10
417.2046536599581
 20
-927.3885787803626
 30
0.0
 40
3.5
  1
合板12mm以上
100
AcDbText
  0
TEXT
  5
22008
330
18
100
AcDbEntity
  8
1DIM
  6
CONTINUOUS
100
AcDbText
 10
414.4046536599581
 20
-933.2267732248071
 30
0.0
 40
3.5
  1
（15㎜以上推奨）
100
AcDbText
  0
SOLID
  5
22009
330
18
100
AcDbEntity
  8
1DIM
100
AcDbTrace
 10
420.8117751794572
 20
-946.7944058706898
 30
0.0
 11
421.3472345315204
 21
-948.7500117597685
 31
0.0
 12
420.2064683695972
 22
-947.0737767896876
 32
0.0
 13
420.2064683695972
 23
-947.0737767896876
 33
0.0
  0
LINE
  5
2200A
330
18
100
AcDbEntity
  8
1DIM
100
AcDbLine
 10
420.5091217745272
 20
-946.9340913301887
 30
0.0
 11
414.504653659958
 21
-933.9243426692517
 31
0.0
  0
LINE
  5
2200B
330
18
100
AcDbEntity
  8
1DIM
100
AcDbLine
 10
414.504653659958
 20
-933.9243426692517
 30
0.0
 11
417.204653659958
 21
-933.9243426692517
 31
0.0
  0
SOLID
  5
2200C
330
18
100
AcDbEntity
  8
1HATCH
100
AcDbTrace
 10
409.9123644888601
 20
-946.770583321207
 30
0.0
 11
409.8492523175792
 21
-948.7971883554817
 31
0.0
 12
409.2516757117288
 22
-946.8596607269686
 32
0.0
 13
409.2516757117288
 23
-946.8596607269686
 33
0.0
  0
LINE
  5
2200D
330
18
100
AcDbEntity
  8
1HATCH
100
AcDbLine
 10
409.5820201002945
 20
-946.8151220240878
 30
0.0
 11
406.2243849378922
 21
-921.9114795062771
 31
0.0
  0
LINE
  5
2200E
330
18
100
AcDbEntity
  8
1HATCH
100
AcDbLine
 10
406.2243849378922
 20
-921.9114795062771
 30
0.0
 11
408.9243849378922
 21
-921.9114795062771
 31
0.0
  0
TEXT
  5
2200F
330
18
100
AcDbEntity
  8
1HATCH
  6
CONTINUOUS
100
AcDbText
 10
408.9243849378923
 20
-921.2114795062773
 30
0.0
 40
3.5
  1
PB
100
AcDbText
  0
LINE
  5
22010
330
18
100
AcDbEntity
  8
1DIM
100
AcDbLine
 10
405.2692836955012
 20
-973.9087846451564
 30
0.0
 11
446.2692836955009
 21
-973.9087846451564
 31
0.0
  0
LINE
  5
22011
330
18
100
AcDbEntity
  8
1DIM
100
AcDbLine
 10
405.2692836955012
 20
-1001.908784645156
 30
0.0
 11
446.2692836955009
 21
-1001.908784645156
 31
0.0
  0
LINE
  5
22012
330
18
100
AcDbEntity
  8
1DIM
100
AcDbLine
 10
445.2692836955009
 20
-975.9087846451564
 30
0.0
 11
445.2692836955009
 21
-999.9087846451564
 31
0.0
  0
LINE
  5
22016
330
18
100
AcDbEntity
  8
1DIM
100
AcDbLine
 10
405.2692836955012
 20
-967.9087846451564
 30
0.0
 11
405.2692836955012
 21
-946.908784645156
 31
0.0
  0
LINE
  5
22017
330
18
100
AcDbEntity
  8
1DIM
100
AcDbLine
 10
342.2692836955012
 20
-987.9087846451564
 30
0.0
 11
342.2692836955012
 21
-946.908784645156
 31
0.0
  0
LINE
  5
22018
330
18
100
AcDbEntity
  8
1DIM
100
AcDbLine
 10
403.2692836955012
 20
-947.908784645156
 30
0.0
 11
344.2692836955012
 21
-947.908784645156
 31
0.0
  0
LINE
  5
2201C
330
18
100
AcDbEntity
  8
1DIM
100
AcDbLine
 10
305.5485627178054
 20
-971.9087846451564
 30
0.0
 11
328.5458737344102
 21
-971.9087846451564
 31
0.0
1001
ACAD
1000
DSTYLE
1002
{
1070
     3
1000
φ<>
1002
}
  0
LINE
  5
2201D
330
18
100
AcDbEntity
  8
1DIM
100
AcDbLine
 10
305.5458737344105
 20
-1003.908781029834
 30
0.0
 11
328.5458737344102
 21
-1003.908781029834
 31
0.0
1001
ACAD
1000
DSTYLE
1002
{
1070
     3
1000
φ<>
1002
}
  0
LINE
  5
2201E
330
18
100
AcDbEntity
  8
1DIM
100
AcDbLine
 10
327.5458737344102
 20
-973.9087846451564
 30
0.0
 11
327.5458737344102
 21
-1001.908781029834
 31
0.0
1001
ACAD
1000
DSTYLE
1002
{
1070
     3
1000
φ<>
1002
}
  0
LINE
  5
22022
330
18
100
AcDbEntity
  8
1DIM1
100
AcDbLine
 10
-243.4541266152807
 20
-982.4087810298344
 30
0.0
 11
-243.4541266152807
 21
-944.26496851194
 31
0.0
1001
ACAD
1000
DSTYLE
1002
{
1070
    40
1040
3.0
1002
}
  0
LINE
  5
22023
330
18
100
AcDbEntity
  8
1DIM1
100
AcDbLine
 10
256.5458740841023
 20
-982.4087810298344
 30
0.0
 11
256.5458740841023
 21
-944.26496851194
 31
0.0
1001
ACAD
1000
DSTYLE
1002
{
1070
    40
1040
3.0
1002
}
  0
LINE
  5
22024
330
18
100
AcDbEntity
  8
1DIM1
100
AcDbLine
 10
-237.4541266152807
 20
-947.26496851194
 30
0.0
 11
250.5458740841023
 21
-947.26496851194
 31
0.0
1001
ACAD
1000
DSTYLE
1002
{
1070
    40
1040
3.0
1002
}
  0
LINE
  5
22028
330
18
100
AcDbEntity
  8
1DIM1
100
AcDbLine
 10
-294.4541262649736
 20
-987.9087846451564
 30
0.0
 11
-294.4541262649736
 21
-927.7277792343746
 31
0.0
1001
ACAD
1000
DSTYLE
1002
{
1070
    40
1040
3.0
1002
}
  0
LINE
  5
22029
330
18
100
AcDbEntity
  8
1DIM1
100
AcDbLine
 10
307.5458737344102
 20
-987.9087846451564
 30
0.0
 11
307.5458737344102
 21
-927.7277792343746
 31
0.0
1001
ACAD
1000
DSTYLE
1002
{
1070
    40
1040
3.0
1002
}
  0
LINE
  5
2202A
330
18
100
AcDbEntity
  8
1DIM1
100
AcDbLine
 10
-288.4541262649736
 20
-930.7277792343746
 30
0.0
 11
301.5458737344102
 21
-930.7277792343746
 31
0.0
1001
ACAD
1000
DSTYLE
1002
{
1070
    40
1040
3.0
1002
}
  0
TEXT
  5
2202E
330
18
100
AcDbEntity
  8
1DIM
  6
CONTINUOUS
100
AcDbText
 10
222.7151185130224
 20
-914.3785091504593
 30
0.0
 40
3.5
  1
材質：ABS樹脂
100
AcDbText
  0
TEXT
  5
2202F
330
18
100
AcDbEntity
  8
1DIM
  6
CONTINUOUS
100
AcDbText
 10
220.6151185130224
 20
-920.2118424837927
 30
0.0
 40
3.5
  1
仕上げ：クローム
100
AcDbText
  0
SOLID
  5
22030
330
18
100
AcDbEntity
  8
1DIM
100
AcDbTrace
 10
271.5563035391953
 20
-906.0203638810627
 30
0.0
 11
273.241351805295
 21
-904.8926567151614
 31
0.0
 12
272.0131300938713
 22
-906.5059088773166
 32
0.0
 13
272.0131300938713
 23
-906.5059088773166
 33
0.0
  0
LINE
  5
22031
330
18
100
AcDbEntity
  8
1DIM
100
AcDbLine
 10
271.7847168165333
 20
-906.2631363791897
 30
0.0
 11
256.2151185130224
 21
-920.9118424837927
 31
0.0
  0
LINE
  5
22032
330
18
100
AcDbEntity
  8
1DIM
100
AcDbLine
 10
256.2151185130224
 20
-920.9118424837927
 30
0.0
 11
220.731785179689
 21
-920.9118424837927
 31
0.0
  0
TEXT
  5
22033
330
18
100
AcDbEntity
  8
1DIM
  6
CONTINUOUS
100
AcDbText
 10
173.1198193419033
 20
-858.5375912297565
 30
0.0
 40
3.5
  1
材質：亜鉛ダイキャスト
100
AcDbText
  0
TEXT
  5
22034
330
18
100
AcDbEntity
  8
1DIM
  6
CONTINUOUS
100
AcDbText
 10
185.0198193419033
 20
-864.3709245630898
 30
0.0
 40
3.5
  1
仕上げ：クローム
100
AcDbText
  0
SOLID
  5
22035
330
18
100
AcDbEntity
  8
1DIM
100
AcDbTrace
 10
234.9084274430905
 20
-850.0025526906294
 30
0.0
 11
236.5458751749206
 21
-848.8067784491291
 31
0.0
 12
235.3847568042165
 22
-850.4689803743851
 32
0.0
 13
235.3847568042165
 23
-850.4689803743851
 33
0.0
  0
LINE
  5
22036
330
18
100
AcDbEntity
  8
1DIM
100
AcDbLine
 10
235.1465921236535
 20
-850.2357665325072
 30
0.0
 11
220.6198193419033
 21
-865.0709245630899
 31
0.0
  0
LINE
  5
22037
330
18
100
AcDbEntity
  8
1DIM
100
AcDbLine
 10
220.6198193419033
 20
-865.0709245630899
 30
0.0
 11
173.3531526752366
 21
-865.0709245630899
 31
0.0
  0
LINE
  5
22038
330
18
100
AcDbEntity
  8
1DIM
100
AcDbLine
 10
236.5458754771465
 20
-841.8926558409332
 30
0.0
 11
236.5458754771465
 21
-834.8934591090851
 31
0.0
  0
LINE
  5
22039
330
18
100
AcDbEntity
  8
1DIM
100
AcDbLine
 10
276.5458754771465
 20
-841.8926575893895
 30
0.0
 11
276.5458754771465
 21
-834.8934591090851
 31
0.0
  0
LINE
  5
2203A
330
18
100
AcDbEntity
  8
1DIM
100
AcDbLine
 10
238.5458754771465
 20
-835.8934591090851
 30
0.0
 11
274.5458754771465
 21
-835.8934591090851
 31
0.0
  0
LINE
  5
2203E
330
18
100
AcDbEntity
  8
1DIM1
100
AcDbLine
 10
-230.9541266152807
 20
-993.4087810298344
 30
0.0
 11
-230.9541266152807
 21
-1025.858736538857
 31
0.0
1001
ACAD
1000
DSTYLE
1002
{
1070
    40
1040
3.0
1002
}
  0
LINE
  5
2203F
330
18
100
AcDbEntity
  8
1DIM1
100
AcDbLine
 10
244.0458740841023
 20
-993.4087810298344
 30
0.0
 11
244.0458740841023
 21
-1025.858736538857
 31
0.0
1001
ACAD
1000
DSTYLE
1002
{
1070
    40
1040
3.0
1002
}
  0
LINE
  5
22040
330
18
100
AcDbEntity
  8
1DIM1
100
AcDbLine
 10
-224.9541266152807
 20
-1022.858736538857
 30
0.0
 11
238.0458740841023
 21
-1022.858736538857
 31
0.0
1001
ACAD
1000
DSTYLE
1002
{
1070
    40
1040
3.0
1002
}
  0
LINE
  5
22044
330
18
100
AcDbEntity
  8
1DIM
100
AcDbLine
 10
244.0458740841023
 20
-993.4087810298344
 30
0.0
 11
244.0458740841023
 21
-1016.2802543058
 31
0.0
  0
LINE
  5
22045
330
18
100
AcDbEntity
  8
1DIM
100
AcDbLine
 10
269.0458740841023
 20
-993.4087810298344
 30
0.0
 11
269.0458740841023
 21
-1016.2802543058
 31
0.0
  0
LINE
  5
22046
330
18
100
AcDbEntity
  8
1DIM
100
AcDbLine
 10
246.0458740841023
 20
-1015.2802543058
 30
0.0
 11
267.0458740841023
 21
-1015.2802543058
 31
0.0
  0
LINE
  5
2204A
330
18
100
AcDbEntity
  8
0
  6
BYBLOCK
100
AcDbLine
 10
444.7333853155009
 20
-975.9087846451564
 30
0.0
 11
445.2692836955009
 21
-973.9087846451564
 31
0.0
  0
LINE
  5
2204B
330
18
100
AcDbEntity
  8
0
  6
BYBLOCK
100
AcDbLine
 10
445.2692836955009
 20
-973.9087846451564
 30
0.0
 11
445.8051820755009
 21
-975.9087846451564
 31
0.0
  0
LINE
  5
2204C
330
18
100
AcDbEntity
  8
0
  6
BYBLOCK
100
AcDbLine
 10
445.2692836955009
 20
-973.9087846451564
 30
0.0
 11
445.2692836955009
 21
-975.9087846451564
 31
0.0
  0
LINE
  5
2204D
330
18
100
AcDbEntity
  8
0
  6
BYBLOCK
100
AcDbLine
 10
445.8051820755009
 20
-999.9087846451564
 30
0.0
 11
445.2692836955009
 21
-1001.908784645156
 31
0.0
  0
LINE
  5
2204E
330
18
100
AcDbEntity
  8
0
  6
BYBLOCK
100
AcDbLine
 10
445.2692836955009
 20
-1001.908784645156
 30
0.0
 11
444.7333853155009
 21
-999.9087846451564
 31
0.0
  0
LINE
  5
2204F
330
18
100
AcDbEntity
  8
0
  6
BYBLOCK
100
AcDbLine
 10
445.2692836955009
 20
-1001.908784645156
 30
0.0
 11
445.2692836955009
 21
-999.9087846451564
 31
0.0
  0
TEXT
  5
22050
330
18
100
AcDbEntity
  8
1DIM
  6
CONTINUOUS
100
AcDbText
 10
444.5692836955009
 20
-990.8254513118231
 30
0.0
 40
3.5
  1
28
 50
90.0
100
AcDbText
  0
LINE
  5
22051
330
18
100
AcDbEntity
  8
0
  6
BYBLOCK
100
AcDbLine
 10
403.2692836955012
 20
-947.3728862651559
 30
0.0
 11
405.2692836955012
 21
-947.908784645156
 31
0.0
  0
LINE
  5
22052
330
18
100
AcDbEntity
  8
0
  6
BYBLOCK
100
AcDbLine
 10
405.2692836955012
 20
-947.908784645156
 30
0.0
 11
403.2692836955012
 21
-948.444683025156
 31
0.0
  0
LINE
  5
22053
330
18
100
AcDbEntity
  8
0
  6
BYBLOCK
100
AcDbLine
 10
405.2692836955012
 20
-947.908784645156
 30
0.0
 11
403.2692836955012
 21
-947.908784645156
 31
0.0
  0
LINE
  5
22054
330
18
100
AcDbEntity
  8
0
  6
BYBLOCK
100
AcDbLine
 10
344.2692836955012
 20
-948.444683025156
 30
0.0
 11
342.2692836955012
 21
-947.908784645156
 31
0.0
  0
LINE
  5
22055
330
18
100
AcDbEntity
  8
0
  6
BYBLOCK
100
AcDbLine
 10
342.2692836955012
 20
-947.908784645156
 30
0.0
 11
344.2692836955012
 21
-947.3728862651559
 31
0.0
  0
LINE
  5
22056
330
18
100
AcDbEntity
  8
0
  6
BYBLOCK
100
AcDbLine
 10
342.2692836955012
 20
-947.908784645156
 30
0.0
 11
344.2692836955012
 21
-947.908784645156
 31
0.0
  0
TEXT
  5
22057
330
18
100
AcDbEntity
  8
1DIM
  6
CONTINUOUS
100
AcDbText
 10
370.8404642510567
 20
-947.2087846451559
 30
0.0
 40
3.5
  1
63
100
AcDbText
  0
LINE
  5
22058
330
18
100
AcDbEntity
  8
0
  6
BYBLOCK
100
AcDbLine
 10
327.0099753544102
 20
-973.9087846451564
 30
0.0
 11
327.5458737344102
 21
-971.9087846451564
 31
0.0
  0
LINE
  5
22059
330
18
100
AcDbEntity
  8
0
  6
BYBLOCK
100
AcDbLine
 10
327.5458737344102
 20
-971.9087846451564
 30
0.0
 11
328.0817721144102
 21
-973.9087846451564
 31
0.0
  0
LINE
  5
2205A
330
18
100
AcDbEntity
  8
0
  6
BYBLOCK
100
AcDbLine
 10
327.5458737344102
 20
-971.9087846451564
 30
0.0
 11
327.5458737344102
 21
-973.9087846451564
 31
0.0
  0
LINE
  5
2205B
330
18
100
AcDbEntity
  8
0
  6
BYBLOCK
100
AcDbLine
 10
328.0817721144102
 20
-1001.908781029834
 30
0.0
 11
327.5458737344102
 21
-1003.908781029834
 31
0.0
  0
LINE
  5
2205C
330
18
100
AcDbEntity
  8
0
  6
BYBLOCK
100
AcDbLine
 10
327.5458737344102
 20
-1003.908781029834
 30
0.0
 11
327.0099753544102
 21
-1001.908781029834
 31
0.0
  0
LINE
  5
2205D
330
18
100
AcDbEntity
  8
0
  6
BYBLOCK
100
AcDbLine
 10
327.5458737344102
 20
-1003.908781029834
 30
0.0
 11
327.5458737344102
 21
-1001.908781029834
 31
0.0
  0
TEXT
  5
2205E
330
18
100
AcDbEntity
  8
1DIM
  6
CONTINUOUS
100
AcDbText
 10
326.8458737344102
 20
-993.3921179784896
 30
0.0
 40
3.5
  1
φ32
 50
90.0
100
AcDbText
1001
ACAD
1000
DSTYLE
1002
{
1070
     3
1000
φ<>
1002
}
  0
LINE
  5
2205F
330
18
100
AcDbEntity
  8
0
  6
BYBLOCK
100
AcDbLine
 10
-237.4541266152807
 20
-948.87266365194
 30
0.0
 11
-243.4541266152807
 21
-947.26496851194
 31
0.0
  0
LINE
  5
22060
330
18
100
AcDbEntity
  8
0
  6
BYBLOCK
100
AcDbLine
 10
-243.4541266152807
 20
-947.26496851194
 30
0.0
 11
-237.4541266152807
 21
-945.6572733719399
 31
0.0
  0
LINE
  5
22061
330
18
100
AcDbEntity
  8
0
  6
BYBLOCK
100
AcDbLine
 10
-243.4541266152807
 20
-947.26496851194
 30
0.0
 11
-237.4541266152807
 21
-947.26496851194
 31
0.0
  0
LINE
  5
22062
330
18
100
AcDbEntity
  8
0
  6
BYBLOCK
100
AcDbLine
 10
250.5458740841023
 20
-945.6572733719399
 30
0.0
 11
256.5458740841023
 21
-947.26496851194
 31
0.0
  0
LINE
  5
22063
330
18
100
AcDbEntity
  8
0
  6
BYBLOCK
100
AcDbLine
 10
256.5458740841023
 20
-947.26496851194
 30
0.0
 11
250.5458740841023
 21
-948.87266365194
 31
0.0
  0
LINE
  5
22064
330
18
100
AcDbEntity
  8
0
  6
BYBLOCK
100
AcDbLine
 10
256.5458740841023
 20
-947.26496851194
 30
0.0
 11
250.5458740841023
 21
-947.26496851194
 31
0.0
  0
TEXT
  5
22065
330
18
100
AcDbEntity
  8
1DIM1
  6
CONTINUOUS
100
AcDbText
 10
-11.20933459892253
 20
-945.16496851194
 30
0.0
 40
10.5
  1
P500
100
AcDbText
1001
ACAD
1000
DSTYLE
1002
{
1070
    40
1040
3.0
1002
}
  0
LINE
  5
22066
330
18
100
AcDbEntity
  8
0
  6
BYBLOCK
100
AcDbLine
 10
-288.4541262649736
 20
-932.3354743743746
 30
0.0
 11
-294.4541262649736
 21
-930.7277792343746
 31
0.0
  0
LINE
  5
22067
330
18
100
AcDbEntity
  8
0
  6
BYBLOCK
100
AcDbLine
 10
-294.4541262649736
 20
-930.7277792343746
 30
0.0
 11
-288.4541262649736
 21
-929.1200840943745
 31
0.0
  0
LINE
  5
22068
330
18
100
AcDbEntity
  8
0
  6
BYBLOCK
100
AcDbLine
 10
-294.4541262649736
 20
-930.7277792343746
 30
0.0
 11
-288.4541262649736
 21
-930.7277792343746
 31
0.0
  0
LINE
  5
22069
330
18
100
AcDbEntity
  8
0
  6
BYBLOCK
100
AcDbLine
 10
301.5458737344102
 20
-929.1200840943745
 30
0.0
 11
307.5458737344102
 21
-930.7277792343746
 31
0.0
  0
LINE
  5
2206A
330
18
100
AcDbEntity
  8
0
  6
BYBLOCK
100
AcDbLine
 10
307.5458737344102
 20
-930.7277792343746
 30
0.0
 11
301.5458737344102
 21
-932.3354743743746
 31
0.0
  0
LINE
  5
2206B
330
18
100
AcDbEntity
  8
0
  6
BYBLOCK
100
AcDbLine
 10
307.5458737344102
 20
-930.7277792343746
 30
0.0
 11
301.5458737344102
 21
-930.7277792343746
 31
0.0
  0
TEXT
  5
2206C
330
18
100
AcDbEntity
  8
1DIM1
  6
CONTINUOUS
100
AcDbText
 10
-6.615584598615033
 20
-928.6277792343745
 30
0.0
 40
10.5
  1
602
100
AcDbText
1001
ACAD
1000
DSTYLE
1002
{
1070
    40
1040
3.0
1002
}
  0
LINE
  5
2206D
330
18
100
AcDbEntity
  8
0
  6
BYBLOCK
100
AcDbLine
 10
238.5458754771465
 20
-836.4293574890852
 30
0.0
 11
236.5458754771465
 21
-835.8934591090851
 31
0.0
  0
LINE
  5
2206E
330
18
100
AcDbEntity
  8
0
  6
BYBLOCK
100
AcDbLine
 10
236.5458754771465
 20
-835.8934591090851
 30
0.0
 11
238.5458754771465
 21
-835.3575607290851
 31
0.0
  0
LINE
  5
2206F
330
18
100
AcDbEntity
  8
0
  6
BYBLOCK
100
AcDbLine
 10
236.5458754771465
 20
-835.8934591090851
 30
0.0
 11
238.5458754771465
 21
-835.8934591090851
 31
0.0
  0
LINE
  5
22070
330
18
100
AcDbEntity
  8
0
  6
BYBLOCK
100
AcDbLine
 10
274.5458754771465
 20
-835.3575607290851
 30
0.0
 11
276.5458754771465
 21
-835.8934591090851
 31
0.0
  0
LINE
  5
22071
330
18
100
AcDbEntity
  8
0
  6
BYBLOCK
100
AcDbLine
 10
276.5458754771465
 20
-835.8934591090851
 30
0.0
 11
274.5458754771465
 21
-836.4293574890852
 31
0.0
  0
LINE
  5
22072
330
18
100
AcDbEntity
  8
0
  6
BYBLOCK
100
AcDbLine
 10
276.5458754771465
 20
-835.8934591090851
 30
0.0
 11
274.5458754771465
 21
-835.8934591090851
 31
0.0
  0
TEXT
  5
22073
330
18
100
AcDbEntity
  8
1DIM
  6
CONTINUOUS
100
AcDbText
 10
253.8479588104798
 20
-835.1934591090851
 30
0.0
 40
3.5
  1
40
100
AcDbText
  0
LINE
  5
22074
330
18
100
AcDbEntity
  8
0
  6
BYBLOCK
100
AcDbLine
 10
-224.9541266152807
 20
-1024.466431678857
 30
0.0
 11
-230.9541266152807
 21
-1022.858736538857
 31
0.0
  0
LINE
  5
22075
330
18
100
AcDbEntity
  8
0
  6
BYBLOCK
100
AcDbLine
 10
-230.9541266152807
 20
-1022.858736538857
 30
0.0
 11
-224.9541266152807
 21
-1021.251041398857
 31
0.0
  0
LINE
  5
22076
330
18
100
AcDbEntity
  8
0
  6
BYBLOCK
100
AcDbLine
 10
-230.9541266152807
 20
-1022.858736538857
 30
0.0
 11
-224.9541266152807
 21
-1022.858736538857
 31
0.0
  0
LINE
  5
22077
330
18
100
AcDbEntity
  8
0
  6
BYBLOCK
100
AcDbLine
 10
238.0458740841023
 20
-1021.251041398857
 30
0.0
 11
244.0458740841023
 21
-1022.858736538857
 31
0.0
  0
LINE
  5
22078
330
18
100
AcDbEntity
  8
0
  6
BYBLOCK
100
AcDbLine
 10
244.0458740841023
 20
-1022.858736538857
 30
0.0
 11
238.0458740841023
 21
-1024.466431678857
 31
0.0
  0
LINE
  5
22079
330
18
100
AcDbEntity
  8
0
  6
BYBLOCK
100
AcDbLine
 10
244.0458740841023
 20
-1022.858736538857
 30
0.0
 11
238.0458740841023
 21
-1022.858736538857
 31
0.0
  0
TEXT
  5
2207A
330
18
100
AcDbEntity
  8
1DIM1
  6
CONTINUOUS
100
AcDbText
 10
-7.454126265589181
 20
-1020.758736538857
 30
0.0
 40
10.5
  1
475
100
AcDbText
1001
ACAD
1000
DSTYLE
1002
{
1070
    40
1040
3.0
1002
}
  0
LINE
  5
2207B
330
18
100
AcDbEntity
  8
0
  6
BYBLOCK
100
AcDbLine
 10
246.0458740841023
 20
-1015.8161526858
 30
0.0
 11
244.0458740841023
 21
-1015.2802543058
 31
0.0
  0
LINE
  5
2207C
330
18
100
AcDbEntity
  8
0
  6
BYBLOCK
100
AcDbLine
 10
244.0458740841023
 20
-1015.2802543058
 30
0.0
 11
246.0458740841023
 21
-1014.7443559258
 31
0.0
  0
LINE
  5
2207D
330
18
100
AcDbEntity
  8
0
  6
BYBLOCK
100
AcDbLine
 10
244.0458740841023
 20
-1015.2802543058
 30
0.0
 11
246.0458740841023
 21
-1015.2802543058
 31
0.0
  0
LINE
  5
2207E
330
18
100
AcDbEntity
  8
0
  6
BYBLOCK
100
AcDbLine
 10
267.0458740841023
 20
-1014.7443559258
 30
0.0
 11
269.0458740841023
 21
-1015.2802543058
 31
0.0
  0
LINE
  5
2207F
330
18
100
AcDbEntity
  8
0
  6
BYBLOCK
100
AcDbLine
 10
269.0458740841023
 20
-1015.2802543058
 30
0.0
 11
267.0458740841023
 21
-1015.8161526858
 31
0.0
  0
LINE
  5
22080
330
18
100
AcDbEntity
  8
0
  6
BYBLOCK
100
AcDbLine
 10
269.0458740841023
 20
-1015.2802543058
 30
0.0
 11
267.0458740841023
 21
-1015.2802543058
 31
0.0
  0
TEXT
  5
22081
330
18
100
AcDbEntity
  8
1DIM
  6
CONTINUOUS
100
AcDbText
 10
251.8792074174357
 20
-1014.580254305801
 30
0.0
 40
3.5
  1
P25
100
AcDbText
  0
VIEWPORT
  5
57
330
15
100
AcDbEntity
 67
     1
  8
0
100
AcDbViewport
 68
     1
 10
0.0
 20
0.0
 30
0.0
 40
555.8298653610772
 41
297.0
 68
     1
 69
     1
1001
ACAD
1000
MVIEW
1002
{
1070
    16
1010
0.0
1020
0.0
1030
0.0
1010
0.0
1020
0.0
1030
1.0
1040
0.0
1040
297.0
1040
-4.171999999925333
1040
12.83903210976956
1040
50.0
1040
0.0
1040
0.0
1070
    16
1070
   100
1070
     0
1070
     1
1070
     0
1070
     0
1070
     0
1070
     0
1040
0.0
1040
0.0
1040
0.0
1040
10.0
1040
10.0
1040
10.0
1040
10.0
1070
     0
1002
{
1002
}
1002
}
  0
ENDSEC
  0
SECTION
  2
OBJECTS
  0
DICTIONARY
  5
C
330
0
100
AcDbDictionary
  3
ACAD_COLOR
350
2D0
  3
ACAD_GROUP
350
D
  3
ACAD_LAYOUT
350
2D1
  3
ACAD_MATERIAL
350
2CF
  3
ACAD_MLEADERSTYLE
350
19E18
  3
ACAD_MLINESTYLE
350
1B
  3
ACAD_PLOTSETTINGS
350
2D2
  3
ACAD_SCALELIST
350
19DF6
  3
ACAD_VISUALSTYLE
350
19DE5
  3
ACDBHEADERROUNDTRIPXREC
350
22082
  3
ACDBVARIABLEDICTIONARY
350
37
  3
CONTENTDICTIONARY
350
D8
  3
DRAWINGVARIABLESDICT
350
20
  3
DWGPROPS
350
22085
1001
ACAD
1000
TREAT_AS_HARD
1070
     0
  0
DICTIONARY
  5
18FE8
330
2
100
AcDbDictionary
  3
ACAD_LAYERSTATES
360
18FE9
1001
ACAD
1000
TREAT_AS_HARD
1070
     1
  0
DICTIONARY
  5
1A20A
330
E
100
AcDbDictionary
  3
ADSK_XREC_LAYER_RECONCILED
360
1A20B
1001
ACAD
1000
TREAT_AS_HARD
1070
     1
  0
DICTIONARY
  5
1A20C
330
29
100
AcDbDictionary
  3
ADSK_XREC_LAYER_RECONCILED
360
1A20D
1001
ACAD
1000
TREAT_AS_HARD
1070
     1
  0
DICTIONARY
  5
1A20E
330
31
100
AcDbDictionary
  3
ADSK_XREC_LAYER_RECONCILED
360
1A20F
1001
ACAD
1000
TREAT_AS_HARD
1070
     1
  0
DICTIONARY
  5
1A218
330
101
100
AcDbDictionary
  3
ADSK_XREC_LAYER_RECONCILED
360
1A219
1001
ACAD
1000
TREAT_AS_HARD
1070
     1
  0
DICTIONARY
  5
1A21C
330
103
100
AcDbDictionary
  3
ADSK_XREC_LAYER_RECONCILED
360
1A21D
1001
ACAD
1000
TREAT_AS_HARD
1070
     1
  0
DICTIONARY
  5
1A220
330
25F
100
AcDbDictionary
  3
ADSK_XREC_LAYER_RECONCILED
360
1A221
1001
ACAD
1000
TREAT_AS_HARD
1070
     1
  0
DICTIONARY
  5
1A236
330
26A
100
AcDbDictionary
  3
ADSK_XREC_LAYER_RECONCILED
360
1A237
1001
ACAD
1000
TREAT_AS_HARD
1070
     1
  0
DICTIONARY
  5
1A23C
330
26D
100
AcDbDictionary
  3
ADSK_XREC_LAYER_RECONCILED
360
1A23D
1001
ACAD
1000
TREAT_AS_HARD
1070
     1
  0
DICTIONARY
  5
6E9
330
18
100
AcDbDictionary
  3
ACAD_SORTENTS
360
6EA
1001
ACAD
1000
TREAT_AS_HARD
1070
     1
  0
DICTIONARY
  5
59B
330
15
100
AcDbDictionary
  3
ACAD_SORTENTS
360
59C
1001
ACAD
1000
TREAT_AS_HARD
1070
     1
  0
DICTIONARY
  5
2D0
102
{ACAD_REACTORS
330
C
102
}
330
C
100
AcDbDictionary
1001
ACAD
1000
TREAT_AS_HARD
1070
     0
  0
DICTIONARY
  5
D
102
{ACAD_REACTORS
330
C
102
}
330
C
100
AcDbDictionary
1001
ACAD
1000
TREAT_AS_HARD
1070
     0
  0
DICTIONARY
  5
2D1
102
{ACAD_REACTORS
330
C
102
}
330
C
100
AcDbDictionary
1001
ACAD
1000
TREAT_AS_HARD
1070
     0
  0
DICTIONARY
  5
2CF
102
{ACAD_REACTORS
330
C
102
}
330
C
100
AcDbDictionary
  3
BYBLOCK
350
19DD5
  3
BYLAYER
350
19DCD
  3
GLOBAL
350
19DDD
1001
ACAD
1000
TREAT_AS_HARD
1070
     0
  0
DICTIONARY
  5
19E18
102
{ACAD_REACTORS
330
C
102
}
330
C
100
AcDbDictionary
  3
STANDARD
350
19E19
1001
ACAD
1000
TREAT_AS_HARD
1070
     0
  0
DICTIONARY
  5
1B
102
{ACAD_REACTORS
330
C
102
}
330
C
100
AcDbDictionary
  3
STANDARD
350
1C
1001
ACAD
1000
TREAT_AS_HARD
1070
     0
  0
DICTIONARY
  5
2D2
102
{ACAD_REACTORS
330
C
102
}
330
C
100
AcDbDictionary
1001
ACAD
1000
TREAT_AS_HARD
1070
     0
  0
DICTIONARY
  5
19DF6
102
{ACAD_REACTORS
330
C
102
}
330
C
100
AcDbDictionary
  3
A0
350
19DF7
  3
A1
350
19DF8
  3
A2
350
19DF9
  3
A3
350
19DFA
  3
A4
350
19DFB
  3
A5
350
19DFC
  3
A6
350
19DFD
  3
A7
350
19DFE
  3
A8
350
19DFF
  3
A9
350
19E00
  3
B0
350
19E01
  3
B1
350
19E02
  3
B2
350
19E03
  3
B3
350
19E04
  3
B4
350
19E05
  3
B5
350
19E06
  3
B6
350
19E07
  3
B7
350
19E08
  3
B8
350
19E09
  3
B9
350
19E0A
  3
C0
350
19E0B
  3
C1
350
19E0C
  3
C2
350
19E0D
  3
C3
350
19E0E
  3
C4
350
19E0F
  3
C5
350
19E10
  3
C6
350
19E11
  3
C7
350
19E12
  3
C8
350
19E13
  3
C9
350
19E14
  3
D0
350
19E15
  3
D1
350
19E16
  3
D2
350
19E17
1001
ACAD
1000
TREAT_AS_HARD
1070
     0
  0
DICTIONARY
  5
19DE5
102
{ACAD_REACTORS
330
C
102
}
330
C
100
AcDbDictionary
  3
2DWIREFRAME
350
19DEB
  3
3D_HIDDEN
350
19DED
  3
3DWIREFRAME
350
19DEC
  3
BASIC
350
19DEA
  3
BRIGHTEN
350
19DF1
  3
COLORCHANGE
350
19DF5
  3
CONCEPTUAL
350
19DEE
  3
DIM
350
19DF0
  3
EDGECOLOROFF
350
1E02A
  3
FACEPATTERN
350
19DF4
  3
FLAT
350
19DE6
  3
FLATWITHEDGES
350
19DE7
  3
GOURAUD
350
19DE8
  3
GOURAUDWITHEDGES
350
19DE9
  3
HIDDEN
350
1F381
  3
JITTEROFF
350
1E028
  3
LINEPATTERN
350
19DF3
  3
MODELING
350
1F387
  3
OVERHANGOFF
350
1E029
  3
REALISTIC
350
19DEF
  3
SHADED
350
1F386
  3
SHADED_WITH_EDGES
350
1F385
  3
SHADES_OF_GRAY
350
1F382
  3
SKETCHY
350
1F383
  3
THICKEN
350
19DF2
  3
WIREFRAME
350
1F380
  3
X-RAY
350
1F384
1001
ACAD
1000
TREAT_AS_HARD
1070
     0
  0
DICTIONARY
  5
22082
102
{ACAD_REACTORS
330
C
102
}
330
C
100
AcDbDictionary
  3
COLORDICT
350
22083
  3
MATERIALDICT
350
22084
1001
ACAD
1000
TREAT_AS_HARD
1070
     0
  0
DICTIONARY
  5
37
102
{ACAD_REACTORS
330
C
102
}
330
C
100
AcDbDictionary
  3
CANNOSCALE
350
20A45
  3
CMLEADERSTYLE
350
1AC19
  3
CTABLESTYLE
350
4F1
  3
DIMADEC
350
38
  3
DIMASSOC
350
408
  3
HIDETEXT
350
1891
  3
INDEXCTL
350
1AC1C
  3
INTERSECTIONCOLOR
350
1895
  3
INTERSECTIONDISPLAY
350
1894
  3
MSLTSCALE
350
20A9B
  3
OBSCOLOR
350
1892
  3
OBSLTYPE
350
1893
  3
PROJECTNAME
350
409
  3
SORTENTS
350
1AC1B
  3
XCLIPFRAME
350
1F37F
1001
ACAD
1000
TREAT_AS_HARD
1070
     0
  0
DICTIONARY
  5
D8
102
{ACAD_REACTORS
330
C
102
}
330
C
100
AcDbDictionary
1001
CONTENTTABDATA
1070
    11
1000
Child
1000
D:\ACLT\TABset\CHILDREN.dwg
1070
     0
1070
     0
1070
     1
1000
PK
1000
D:\ACLT\TABset\PK.dwg
1070
     0
1070
     0
1070
     1
1000
Lev1
1000
D:\ACLT\TABset\Lever01.dwg
1070
     0
1070
     0
1070
     1
1000
Lev2
1000
D:\ACLT\TABset\Lever02.dwg
1070
     0
1070
     0
1070
     1
1000
L3
1000
D:\Aclt\TABset\Lever03.dwg
1070
     0
1070
     0
1070
     1
1000
Form
1000
D:\ACLT\FORMAT
1070
     1
1070
     0
1070
     1
1000
Jnt
1000
D:\ACLT\TABset\JOINTPARTS.dwg
1070
     0
1070
     0
1070
     1
1000
ISO
1000
D:\ACLT\TABset\Isome01.dwg
1070
     0
1070
     0
1070
     1
1000
R
1000
D:\ACLT\TABset\REGION.dwg
1070
     0
1070
     0
1070
     1
1000
std
1000
D:\ACLT\TABset\std_sym_all.dwg
1070
     0
1070
     0
1070
     1
1000
丸
1000
D:\Aclt\TABset\MARU.dwg
1070
     0
1070
     0
1070
     1
1001
CONTENTCURRENTTAB
1070
     0
1001
ACAD
1000
TREAT_AS_HARD
1070
     0
  0
DICTIONARY
  5
20
102
{ACAD_REACTORS
330
C
102
}
330
C
100
AcDbDictionary
1001
DRAWINGVARIABLESXDATA
1000
POLARANG
1000
0.261799387799149410000000
1000
POLARMODE
1000
1
1000
POLARSTYLE
1000
1
1001
ACAD
1000
TREAT_AS_HARD
1070
     0
  0
XRECORD
  5
22085
102
{ACAD_REACTORS
330
C
102
}
330
C
100
AcDbXrecord
  1
DWGPROPS COOKIE
  2

  3

  4

  6

  7

  8
3684
  9

300
=
301
=
302
=
303
=
304
=
305
=
306
=
307
=
308
=
309
=
 40
0.0
 41
2453033.357663484
 42
2458100.988768623
  1

 90
        0
  0
DICTIONARY
  5
18FE9
102
{ACAD_REACTORS
330
18FE8
102
}
330
18FE8
100
AcDbDictionary
1001
ACAD
1000
TREAT_AS_HARD
1070
     0
  0
ACAD_PROXY_OBJECT
  5
1A20B
102
{ACAD_REACTORS
330
1A20A
102
}
330
1A20A
100
AcDbZombieObject
 90
      499
 91
      517
 93
       34
310
40C8804040
  0
ACAD_PROXY_OBJECT
  5
1A20D
102
{ACAD_REACTORS
330
1A20C
102
}
330
1A20C
100
AcDbZombieObject
 90
      499
 91
      517
 93
       34
310
40C8804040
  0
ACAD_PROXY_OBJECT
  5
1A20F
102
{ACAD_REACTORS
330
1A20E
102
}
330
1A20E
100
AcDbZombieObject
 90
      499
 91
      517
 93
       34
310
40C8804040
  0
ACAD_PROXY_OBJECT
  5
1A219
102
{ACAD_REACTORS
330
1A218
102
}
330
1A218
100
AcDbZombieObject
 90
      499
 91
      517
 93
       34
310
40C8804040
  0
ACAD_PROXY_OBJECT
  5
1A21D
102
{ACAD_REACTORS
330
1A21C
102
}
330
1A21C
100
AcDbZombieObject
 90
      499
 91
      517
 93
       34
310
40C8804040
  0
ACAD_PROXY_OBJECT
  5
1A221
102
{ACAD_REACTORS
330
1A220
102
}
330
1A220
100
AcDbZombieObject
 90
      499
 91
      517
 93
       34
310
40C8804040
  0
ACAD_PROXY_OBJECT
  5
1A237
102
{ACAD_REACTORS
330
1A236
102
}
330
1A236
100
AcDbZombieObject
 90
      499
 91
      517
 93
       34
310
40C8804040
  0
ACAD_PROXY_OBJECT
  5
1A23D
102
{ACAD_REACTORS
330
1A23C
102
}
330
1A23C
100
AcDbZombieObject
 90
      499
 91
      517
 93
       34
310
40C8804040
  0
SORTENTSTABLE
  5
6EA
102
{ACAD_REACTORS
330
6E9
102
}
330
6E9
100
AcDbSortentsTable
330
18
331
0
  5
99AB
331
0
  5
AB53
331
0
  5
AB54
331
0
  5
ECB5
331
21BFA
  5
21C0C
331
21BFB
  5
21C0D
331
21BFC
  5
21C0E
331
21C0A
  5
21C67
331
21C0B
  5
21C68
331
21C0C
  5
21C69
331
21C0D
  5
21C6A
331
21C0E
  5
21C6B
331
21C0F
  5
21C6C
331
21C10
  5
21C6D
331
21C11
  5
21C6E
331
21C12
  5
21C6F
331
21C13
  5
21C70
331
21C14
  5
21C71
331
21C15
  5
21C72
331
21C16
  5
21C73
331
21C17
  5
21C74
331
21C18
  5
21C75
331
21C19
  5
21C76
331
21C1B
  5
21C81
331
21C1C
  5
21C82
331
21C1D
  5
21C83
331
21C1E
  5
21C84
331
21C1F
  5
21C85
331
21C20
  5
21C86
331
21C21
  5
21C87
331
21C22
  5
21C88
331
21C23
  5
21C89
331
21C24
  5
21C8A
331
21C25
  5
21C8B
331
21C26
  5
21C8C
331
21C27
  5
21C8D
331
21C28
  5
21C8E
331
21C29
  5
21C8F
331
21C2A
  5
21C90
331
21C2B
  5
21C91
331
21C2C
  5
21C92
331
21C2D
  5
21C93
331
21C2E
  5
21C94
331
21C2F
  5
21C95
331
21C30
  5
21C96
331
21C31
  5
21C97
331
21C32
  5
21C98
331
21C33
  5
21C99
331
21C34
  5
21C9A
331
21C35
  5
21C9B
331
21C36
  5
21C9C
331
21C37
  5
21C9D
331
21C38
  5
21C9E
331
21C39
  5
21C9F
331
21C3A
  5
21CA0
331
21C3B
  5
21CA1
331
21C3C
  5
21CA2
331
21C3D
  5
21CA3
331
21C3E
  5
21CA4
331
21C3F
  5
21CA5
331
21C40
  5
21CA6
331
21C41
  5
21CA7
331
21C42
  5
21CA8
331
21C43
  5
21CA9
331
21C44
  5
21CAA
331
21C45
  5
21CAB
331
21C46
  5
21CAC
331
21C47
  5
21CAD
331
21C48
  5
21CAE
331
21C49
  5
21CAF
331
21C4A
  5
21CB0
331
21C4B
  5
21CB1
331
21C4C
  5
21CB2
331
21C4D
  5
21CB4
331
21C4E
  5
21CB5
331
21C4F
  5
21CB6
331
21C50
  5
21CB7
331
21C51
  5
21CB9
331
21C52
  5
21CBA
331
21C53
  5
21CBC
331
21C54
  5
21CBD
331
21C55
  5
21CBF
331
21C56
  5
21CC0
331
21C57
  5
21CC1
331
21C58
  5
21CC2
331
21C59
  5
21CC3
331
21C5A
  5
21CC4
331
21C5B
  5
21D19
331
21C5C
  5
21D26
331
21C5D
  5
21F70
331
21C5E
  5
21F71
331
21C5F
  5
21F72
331
21C60
  5
21F73
331
21C61
  5
21F74
331
21C62
  5
21F75
331
21C63
  5
21F76
331
21C64
  5
21F77
331
21C65
  5
21F78
331
21C66
  5
21F79
331
21C67
  5
21F7A
331
21C68
  5
21F7B
331
21C69
  5
21F7C
331
21C6A
  5
21F7D
331
21C6B
  5
21F7E
331
21C6C
  5
21F7F
331
21C6D
  5
21F80
331
21C6E
  5
21F81
331
21C6F
  5
21F82
331
21C70
  5
21F83
331
21C71
  5
21F84
331
21C72
  5
21F85
331
21C73
  5
21F86
331
21C74
  5
21F87
331
21C75
  5
21F88
331
21C76
  5
21F89
331
21C77
  5
21F8A
331
21C78
  5
21F8B
331
21C79
  5
21F8C
331
21C7A
  5
21F8D
331
21C7B
  5
21F8E
331
21C7C
  5
21F8F
331
21C7D
  5
21F90
331
21C7E
  5
21F91
331
21C7F
  5
21F92
331
21C80
  5
21F93
331
21C81
  5
21F94
331
21C82
  5
21F95
331
21C83
  5
21F96
331
21C84
  5
21F97
331
21C85
  5
21F98
331
21C86
  5
21F99
331
21C87
  5
21F9A
331
21C88
  5
21F9B
331
21C89
  5
21F9C
331
21C8A
  5
21F9D
331
21C8B
  5
21F9E
331
21C8C
  5
21F9F
331
21C8D
  5
21FA0
331
21C8E
  5
21FA1
331
21C8F
  5
21FA2
331
21C90
  5
21FA3
331
21C91
  5
21FA4
331
21C92
  5
21FA5
331
21C93
  5
21FA6
331
21C94
  5
21FA7
331
21C95
  5
21FA8
331
21C96
  5
21FA9
331
21C97
  5
21FAA
331
21C98
  5
21FAB
331
21C99
  5
21FAC
331
21C9A
  5
21FAD
331
21C9B
  5
21FAE
331
21C9C
  5
21FAF
331
21C9D
  5
21FB0
331
21C9E
  5
21FB1
331
21C9F
  5
21FB2
331
21CA0
  5
21FB3
331
21CA1
  5
21FB4
331
21CA2
  5
21FB5
331
21CA3
  5
21FB6
331
21CA4
  5
21FB7
331
21CA5
  5
21FB8
331
21CA6
  5
21FB9
331
21CA7
  5
21FBA
331
21CA8
  5
21FBB
331
21CA9
  5
21FBC
331
21CAA
  5
21FBD
331
21CAB
  5
21FBE
331
21CAC
  5
21FBF
331
21CAD
  5
21FC0
331
21CAE
  5
21FC1
331
21CAF
  5
21FC2
331
21CB0
  5
21FC3
331
21CB1
  5
21FC4
331
21CB2
  5
21FC5
331
21CB4
  5
22060
331
21CB5
  5
22061
331
21CB6
  5
22062
331
21CB7
  5
22063
331
21CB9
  5
22064
331
21CBA
  5
22065
331
21CBC
  5
22066
331
21CBD
  5
22067
331
21CBF
  5
22068
331
21CC0
  5
22069
331
21CC1
  5
2206A
331
21CC2
  5
2206B
331
21CC3
  5
2206C
331
21CC4
  5
2206D
331
0
  5
22000
331
0
  5
22001
331
21F70
  5
21FC6
331
21F71
  5
21FC7
331
21F72
  5
21FC8
331
21F73
  5
21FC9
331
21F74
  5
21FCA
331
21F75
  5
21FCB
331
21F76
  5
21FCC
331
21F77
  5
21FCD
331
21F78
  5
21FCE
331
21F79
  5
21FCF
331
21F7A
  5
21FD0
331
21F7B
  5
21FD1
331
21F7C
  5
21FD2
331
21F7D
  5
21FD3
331
21F7E
  5
21FD4
331
21F7F
  5
21FD5
331
21F80
  5
21FD6
331
21F81
  5
21FD7
331
21F82
  5
21FD8
331
21F83
  5
21FD9
331
21F84
  5
21FDA
331
21F85
  5
21FDB
331
21F86
  5
21FDC
331
21F87
  5
21FDD
331
21F88
  5
21FDE
331
21F89
  5
21FDF
331
21F8A
  5
21FE0
331
21F8B
  5
21FE1
331
21F8C
  5
21FE2
331
21F8D
  5
21FE3
331
21F8E
  5
21FE4
331
21F8F
  5
21FE5
331
21F90
  5
21FE6
331
21F91
  5
21FE7
331
21F92
  5
21FE8
331
21F93
  5
21FE9
331
21F94
  5
21FEA
331
21F95
  5
21FEB
331
21F96
  5
21FEC
331
21F97
  5
21FED
331
21F98
  5
21FEE
331
21F99
  5
21FEF
331
21F9A
  5
21FF0
331
21F9B
  5
21FF1
331
21F9C
  5
21FF2
331
21F9D
  5
21FF3
331
21F9E
  5
21FF4
331
21F9F
  5
21FF5
331
21FA0
  5
21FF6
331
21FA1
  5
21FF7
331
21FA2
  5
21FF8
331
21FA3
  5
21FF9
331
21FA4
  5
21FFA
331
21FA5
  5
21FFB
331
21FA6
  5
21FFC
331
21FA7
  5
21FFD
331
21FA8
  5
21FFE
331
21FA9
  5
21FFF
331
21FAA
  5
22002
331
21FAB
  5
22003
331
21FAC
  5
22004
331
21FAD
  5
22005
331
21FAE
  5
22006
331
21FAF
  5
22007
331
21FB0
  5
22008
331
21FB1
  5
22009
331
21FB2
  5
2200A
331
21FB3
  5
2200B
331
21FB4
  5
2200C
331
21FB5
  5
2200D
331
21FB6
  5
2200E
331
21FB7
  5
2200F
331
21FB8
  5
22010
331
21FB9
  5
22011
331
21FBA
  5
22012
331
21FBB
  5
22013
331
21FBC
  5
22014
331
21FBD
  5
22015
331
21FBE
  5
22016
331
21FBF
  5
22017
331
21FC0
  5
22018
331
21FC1
  5
22019
331
21FC2
  5
2201A
331
21FC3
  5
2201B
331
21FC4
  5
2201C
331
21FC5
  5
2201D
331
21FC6
  5
2201E
331
21FC7
  5
2201F
331
21FC8
  5
22020
331
21FC9
  5
22021
331
21FCA
  5
22022
331
21FCB
  5
22023
331
21FCC
  5
22024
331
21FCD
  5
22025
331
21FCE
  5
22026
331
21FCF
  5
22027
331
21FD0
  5
22028
331
21FD1
  5
22029
331
21FD2
  5
2202A
331
21FD3
  5
2202B
331
21FD4
  5
2202C
331
21FD5
  5
2202D
331
21FD6
  5
2202E
331
21FD7
  5
2202F
331
21FD8
  5
22030
331
21FD9
  5
22031
331
21FDA
  5
22032
331
21FDB
  5
22033
331
21FDC
  5
22034
331
21FDD
  5
22035
331
21FDE
  5
22036
331
21FDF
  5
22037
331
21FE0
  5
22038
331
21FE1
  5
22039
331
21FE2
  5
2203A
331
21FE3
  5
2203B
331
21FE4
  5
2203C
331
21FE5
  5
2203D
331
21FE6
  5
2203E
331
21FE7
  5
2203F
331
21FE8
  5
22040
331
21FE9
  5
22044
331
21FEA
  5
22045
331
21FEB
  5
22046
331
21FEC
  5
2204A
331
21FED
  5
2204B
331
21FEE
  5
2204C
331
21FEF
  5
2204D
331
21FF0
  5
2204E
331
21FF1
  5
2204F
331
21FF2
  5
22050
331
21FF3
  5
22051
331
21FF4
  5
22052
331
21FF5
  5
22053
331
21FF6
  5
22054
331
21FF7
  5
22055
331
21FF8
  5
22056
331
21FF9
  5
22057
331
21FFA
  5
22058
331
21FFB
  5
22059
331
21FFC
  5
2205A
331
21FFD
  5
2205B
331
21FFE
  5
2205C
331
21FFF
  5
2205D
331
22000
  5
2205E
331
22001
  5
2205F
331
22002
  5
21BFA
331
22003
  5
21BFB
331
22004
  5
21BFC
331
22005
  5
21C0A
331
22006
  5
21C0B
331
22007
  5
21C0F
331
22008
  5
21C10
331
22009
  5
21C11
331
2200A
  5
21C12
331
2200B
  5
21C13
331
2200C
  5
21C14
331
2200D
  5
21C15
331
2200E
  5
21C16
331
2200F
  5
21C17
331
22010
  5
21C18
331
22011
  5
21C19
331
22012
  5
21C1B
331
0
  5
21C1C
331
0
  5
21C1D
331
0
  5
21C1E
331
22016
  5
21C2C
331
22017
  5
21C2D
331
22018
  5
21C31
331
0
  5
21C22
331
0
  5
21C23
331
0
  5
21C24
331
2201C
  5
21C3C
331
2201D
  5
21C3D
331
2201E
  5
21C3E
331
0
  5
21C28
331
0
  5
21C29
331
0
  5
21C2A
331
22022
  5
21C46
331
22023
  5
21C47
331
22024
  5
21C48
331
0
  5
21C2E
331
0
  5
21C2F
331
0
  5
21C30
331
22028
  5
21C50
331
22029
  5
21C51
331
2202A
  5
21C52
331
0
  5
21C34
331
0
  5
21C35
331
0
  5
21C36
331
2202E
  5
21C5D
331
2202F
  5
21C5E
331
22030
  5
21C5F
331
22031
  5
21C60
331
22032
  5
21C61
331
22033
  5
21C62
331
22034
  5
21C63
331
22035
  5
21C64
331
22036
  5
21C65
331
22037
  5
21C66
331
22038
  5
21C77
331
22039
  5
21C78
331
2203A
  5
21C79
331
0
  5
21C54
331
0
  5
21C55
331
0
  5
21C56
331
2203E
  5
2206E
331
2203F
  5
2206F
331
22040
  5
22070
331
22044
  5
22078
331
22045
  5
22079
331
22046
  5
2207A
331
2204A
  5
21C1F
331
2204B
  5
21C20
331
2204C
  5
21C21
331
2204D
  5
21C25
331
2204E
  5
21C26
331
2204F
  5
21C27
331
22050
  5
21C2B
331
22051
  5
21C32
331
22052
  5
21C33
331
22053
  5
21C37
331
22054
  5
21C38
331
22055
  5
21C39
331
22056
  5
21C3A
331
22057
  5
21C3B
331
22058
  5
21C3F
331
22059
  5
21C40
331
2205A
  5
21C41
331
2205B
  5
21C42
331
2205C
  5
21C43
331
2205D
  5
21C44
331
2205E
  5
21C45
331
2205F
  5
21C49
331
22060
  5
21C4A
331
22061
  5
21C4B
331
22062
  5
21C4C
331
22063
  5
21C4D
331
22064
  5
21C4E
331
22065
  5
21C4F
331
22066
  5
21C53
331
22067
  5
21C57
331
22068
  5
21C58
331
22069
  5
21C59
331
2206A
  5
21C5A
331
2206B
  5
21C5B
331
2206C
  5
21C5C
331
2206D
  5
21C7A
331
2206E
  5
21C7B
331
2206F
  5
21C7C
331
22070
  5
21C7D
331
22071
  5
21C7E
331
22072
  5
21C7F
331
22073
  5
21C80
331
22074
  5
22071
331
22075
  5
22072
331
22076
  5
22073
331
22077
  5
22074
331
22078
  5
22075
331
22079
  5
22076
331
2207A
  5
22077
  0
SORTENTSTABLE
  5
59C
102
{ACAD_REACTORS
330
59B
102
}
330
59B
100
AcDbSortentsTable
330
15
  0
MATERIAL
  5
19DD5
102
{ACAD_REACTORS
330
2CF
102
}
102
{ACAD_XDICTIONARY
360
22220
102
}
330
2CF
100
AcDbMaterial
  1
BYBLOCK
 72
     0
 73
     2
 43
0.0208333333333333
 43
0.0
 43
0.0
 43
0.0
 43
0.0
 43
0.0208333333333333
 43
0.0
 43
0.0
 43
0.0
 43
0.0
 43
1.0
 43
0.0
 43
0.0
 43
0.0
 43
0.0
 43
1.0
 77
     0
 78
     2
 47
0.0208333333333333
 47
0.0
 47
0.0
 47
0.0
 47
0.0
 47
0.0208333333333333
 47
0.0
 47
0.0
 47
0.0
 47
0.0
 47
1.0
 47
0.0
 47
0.0
 47
0.0
 47
0.0
 47
1.0
171
     0
172
     2
 49
0.0208333333333333
 49
0.0
 49
0.0
 49
0.0
 49
0.0
 49
0.0208333333333333
 49
0.0
 49
0.0
 49
0.0
 49
0.0
 49
1.0
 49
0.0
 49
0.0
 49
0.0
 49
0.0
 49
1.0
175
     0
176
     2
142
0.0208333333333333
142
0.0
142
0.0
142
0.0
142
0.0
142
0.0208333333333333
142
0.0
142
0.0
142
0.0
142
0.0
142
1.0
142
0.0
142
0.0
142
0.0
142
0.0
142
1.0
179
     0
270
     2
144
0.0208333333333333
144
0.0
144
0.0
144
0.0
144
0.0
144
0.0208333333333333
144
0.0
144
0.0
144
0.0
144
0.0
144
1.0
144
0.0
144
0.0
144
0.0
144
0.0
144
1.0
274
     2
147
0.0208333333333333
147
0.0
147
0.0
147
0.0
147
0.0
147
0.0208333333333333
147
0.0
147
0.0
147
0.0
147
0.0
147
1.0
147
0.0
147
0.0
147
0.0
147
0.0
147
1.0
  0
MATERIAL
  5
19DCD
102
{ACAD_REACTORS
330
2CF
102
}
102
{ACAD_XDICTIONARY
360
22222
102
}
330
2CF
100
AcDbMaterial
  1
BYLAYER
 72
     0
 73
     2
 43
0.0208333333333333
 43
0.0
 43
0.0
 43
0.0
 43
0.0
 43
0.0208333333333333
 43
0.0
 43
0.0
 43
0.0
 43
0.0
 43
1.0
 43
0.0
 43
0.0
 43
0.0
 43
0.0
 43
1.0
 77
     0
 78
     2
 47
0.0208333333333333
 47
0.0
 47
0.0
 47
0.0
 47
0.0
 47
0.0208333333333333
 47
0.0
 47
0.0
 47
0.0
 47
0.0
 47
1.0
 47
0.0
 47
0.0
 47
0.0
 47
0.0
 47
1.0
171
     0
172
     2
 49
0.0208333333333333
 49
0.0
 49
0.0
 49
0.0
 49
0.0
 49
0.0208333333333333
 49
0.0
 49
0.0
 49
0.0
 49
0.0
 49
1.0
 49
0.0
 49
0.0
 49
0.0
 49
0.0
 49
1.0
175
     0
176
     2
142
0.0208333333333333
142
0.0
142
0.0
142
0.0
142
0.0
142
0.0208333333333333
142
0.0
142
0.0
142
0.0
142
0.0
142
1.0
142
0.0
142
0.0
142
0.0
142
0.0
142
1.0
179
     0
270
     2
144
0.0208333333333333
144
0.0
144
0.0
144
0.0
144
0.0
144
0.0208333333333333
144
0.0
144
0.0
144
0.0
144
0.0
144
1.0
144
0.0
144
0.0
144
0.0
144
0.0
144
1.0
274
     2
147
0.0208333333333333
147
0.0
147
0.0
147
0.0
147
0.0
147
0.0208333333333333
147
0.0
147
0.0
147
0.0
147
0.0
147
1.0
147
0.0
147
0.0
147
0.0
147
0.0
147
1.0
  0
MATERIAL
  5
19DDD
102
{ACAD_REACTORS
330
2CF
102
}
102
{ACAD_XDICTIONARY
360
22224
102
}
330
2CF
100
AcDbMaterial
  1
GLOBAL
 72
     0
 73
     2
 43
0.0208333333333333
 43
0.0
 43
0.0
 43
0.0
 43
0.0
 43
0.0208333333333333
 43
0.0
 43
0.0
 43
0.0
 43
0.0
 43
1.0
 43
0.0
 43
0.0
 43
0.0
 43
0.0
 43
1.0
 77
     0
 78
     2
 47
0.0208333333333333
 47
0.0
 47
0.0
 47
0.0
 47
0.0
 47
0.0208333333333333
 47
0.0
 47
0.0
 47
0.0
 47
0.0
 47
1.0
 47
0.0
 47
0.0
 47
0.0
 47
0.0
 47
1.0
171
     0
172
     2
 49
0.0208333333333333
 49
0.0
 49
0.0
 49
0.0
 49
0.0
 49
0.0208333333333333
 49
0.0
 49
0.0
 49
0.0
 49
0.0
 49
1.0
 49
0.0
 49
0.0
 49
0.0
 49
0.0
 49
1.0
175
     0
176
     2
142
0.0208333333333333
142
0.0
142
0.0
142
0.0
142
0.0
142
0.0208333333333333
142
0.0
142
0.0
142
0.0
142
0.0
142
1.0
142
0.0
142
0.0
142
0.0
142
0.0
142
1.0
179
     0
270
     2
144
0.0208333333333333
144
0.0
144
0.0
144
0.0
144
0.0
144
0.0208333333333333
144
0.0
144
0.0
144
0.0
144
0.0
144
1.0
144
0.0
144
0.0
144
0.0
144
0.0
144
1.0
274
     2
147
0.0208333333333333
147
0.0
147
0.0
147
0.0
147
0.0
147
0.0208333333333333
147
0.0
147
0.0
147
0.0
147
0.0
147
1.0
147
0.0
147
0.0
147
0.0
147
0.0
147
1.0
  0
ACAD_PROXY_OBJECT
  5
19E19
102
{ACAD_REACTORS
330
19E18
102
}
330
19E18
100
AcDbZombieObject
 90
      499
 91
      512
 93
      610
310
40901902A4063FBFFFFFE000000000000002040AD7A3703D0AD73F4214DD185B99185C990000000000000104090141901A00000000000004100000000000000041025764000000000000300FC0
340
12
340
0
340
F
340
0
 94
        0
1001
ACAD_MLEADERVER
1070
     2
  0
MLINESTYLE
  5
1C
102
{ACAD_REACTORS
330
1B
102
}
330
1B
100
AcDbMlineStyle
  2
STANDARD
 70
     0
  3

 62
   256
 51
90.0
 52
90.0
 71
     2
 49
0.5
 62
   256
  6
BYLAYER
 49
-0.5
 62
   256
  6
BYLAYER
  0
ACAD_PROXY_OBJECT
  5
19DF7
102
{ACAD_REACTORS
330
19DF6
102
}
330
19DF6
100
AcDbZombieObject
 90
      499
 91
      511
 93
       41
310
903313A31580
  0
ACAD_PROXY_OBJECT
  5
19DF8
102
{ACAD_REACTORS
330
19DF6
102
}
330
19DF6
100
AcDbZombieObject
 90
      499
 91
      511
 93
      105
310
903313A324000000000000004000
  0
ACAD_PROXY_OBJECT
  5
19DF9
102
{ACAD_REACTORS
330
19DF6
102
}
330
19DF6
100
AcDbZombieObject
 90
      499
 91
      511
 93
      105
310
903313A344000000000000104000
  0
ACAD_PROXY_OBJECT
  5
19DFA
102
{ACAD_REACTORS
330
19DF6
102
}
330
19DF6
100
AcDbZombieObject
 90
      499
 91
      511
 93
      105
310
903313A354000000000000144000
  0
ACAD_PROXY_OBJECT
  5
19DFB
102
{ACAD_REACTORS
330
19DF6
102
}
330
19DF6
100
AcDbZombieObject
 90
      499
 91
      511
 93
      105
310
903313A384000000000000204000
  0
ACAD_PROXY_OBJECT
  5
19DFC
102
{ACAD_REACTORS
330
19DF6
102
}
330
19DF6
100
AcDbZombieObject
 90
      499
 91
      511
 93
      113
310
904313A31304000000000000244000
  0
ACAD_PROXY_OBJECT
  5
19DFD
102
{ACAD_REACTORS
330
19DF6
102
}
330
19DF6
100
AcDbZombieObject
 90
      499
 91
      511
 93
      113
310
904313A31364000000000000304000
  0
ACAD_PROXY_OBJECT
  5
19DFE
102
{ACAD_REACTORS
330
19DF6
102
}
330
19DF6
100
AcDbZombieObject
 90
      499
 91
      511
 93
      113
310
904313A32304000000000000344000
  0
ACAD_PROXY_OBJECT
  5
19DFF
102
{ACAD_REACTORS
330
19DF6
102
}
330
19DF6
100
AcDbZombieObject
 90
      499
 91
      511
 93
      113
310
904313A333040000000000003E4000
  0
ACAD_PROXY_OBJECT
  5
19E00
102
{ACAD_REACTORS
330
19DF6
102
}
330
19DF6
100
AcDbZombieObject
 90
      499
 91
      511
 93
      113
310
904313A34304000000000000444000
  0
ACAD_PROXY_OBJECT
  5
19E01
102
{ACAD_REACTORS
330
19DF6
102
}
330
19DF6
100
AcDbZombieObject
 90
      499
 91
      511
 93
      113
310
904313A35304000000000000494000
  0
ACAD_PROXY_OBJECT
  5
19E02
102
{ACAD_REACTORS
330
19DF6
102
}
330
19DF6
100
AcDbZombieObject
 90
      499
 91
      511
 93
      121
310
905313A3130304000000000000594000
  0
ACAD_PROXY_OBJECT
  5
19E03
102
{ACAD_REACTORS
330
19DF6
102
}
330
19DF6
100
AcDbZombieObject
 90
      499
 91
      511
 93
      105
310
903323A310000000000000010100
  0
ACAD_PROXY_OBJECT
  5
19E04
102
{ACAD_REACTORS
330
19DF6
102
}
330
19DF6
100
AcDbZombieObject
 90
      499
 91
      511
 93
      105
310
903343A310000000000000410100
  0
ACAD_PROXY_OBJECT
  5
19E05
102
{ACAD_REACTORS
330
19DF6
102
}
330
19DF6
100
AcDbZombieObject
 90
      499
 91
      511
 93
      105
310
903383A310000000000000810100
  0
ACAD_PROXY_OBJECT
  5
19E06
102
{ACAD_REACTORS
330
19DF6
102
}
330
19DF6
100
AcDbZombieObject
 90
      499
 91
      511
 93
      113
310
90431303A310000000000000910100
  0
ACAD_PROXY_OBJECT
  5
19E07
102
{ACAD_REACTORS
330
19DF6
102
}
330
19DF6
100
AcDbZombieObject
 90
      499
 91
      511
 93
      121
310
9053130303A310000000000001650100
  0
ACAD_PROXY_OBJECT
  5
19E08
102
{ACAD_REACTORS
330
19DF6
102
}
330
19DF6
100
AcDbZombieObject
 90
      499
 91
      511
 93
      257
310
90E312F31323822203D2031272D3022000000000000200FC000000000000284000
  0
ACAD_PROXY_OBJECT
  5
19E09
102
{ACAD_REACTORS
330
19DF6
102
}
330
19DF6
100
AcDbZombieObject
 90
      499
 91
      511
 93
      249
310
90D312F363422203D2031272D3022000000000000240FC000000000000284000
  0
ACAD_PROXY_OBJECT
  5
19E0A
102
{ACAD_REACTORS
330
19DF6
102
}
330
19DF6
100
AcDbZombieObject
 90
      499
 91
      511
 93
      249
310
90D312F333222203D2031272D3022000000000000280FC000000000000284000
  0
ACAD_PROXY_OBJECT
  5
19E0B
102
{ACAD_REACTORS
330
19DF6
102
}
330
19DF6
100
AcDbZombieObject
 90
      499
 91
      511
 93
      249
310
90D312F313622203D2031272D30220000000000002C0FC000000000000284000
  0
ACAD_PROXY_OBJECT
  5
19E0C
102
{ACAD_REACTORS
330
19DF6
102
}
330
19DF6
100
AcDbZombieObject
 90
      499
 91
      511
 93
      249
310
90D332F333222203D2031272D30220000000000002E0FC000000000000284000
  0
ACAD_PROXY_OBJECT
  5
19E0D
102
{ACAD_REACTORS
330
19DF6
102
}
330
19DF6
100
AcDbZombieObject
 90
      499
 91
      511
 93
      241
310
90C312F3822203D2031272D3022000000000000300FC000000000000284000
  0
ACAD_PROXY_OBJECT
  5
19E0E
102
{ACAD_REACTORS
330
19DF6
102
}
330
19DF6
100
AcDbZombieObject
 90
      499
 91
      511
 93
      249
310
90D332F313622203D2031272D3022000000000000320FC000000000000284000
  0
ACAD_PROXY_OBJECT
  5
19E0F
102
{ACAD_REACTORS
330
19DF6
102
}
330
19DF6
100
AcDbZombieObject
 90
      499
 91
      511
 93
      241
310
90C312F3422203D2031272D3022000000000000340FC000000000000284000
  0
ACAD_PROXY_OBJECT
  5
19E10
102
{ACAD_REACTORS
330
19DF6
102
}
330
19DF6
100
AcDbZombieObject
 90
      499
 91
      511
 93
      241
310
90C332F3822203D2031272D3022000000000000360FC000000000000284000
  0
ACAD_PROXY_OBJECT
  5
19E11
102
{ACAD_REACTORS
330
19DF6
102
}
330
19DF6
100
AcDbZombieObject
 90
      499
 91
      511
 93
      241
310
90C312F3222203D2031272D3022000000000000380FC000000000000284000
  0
ACAD_PROXY_OBJECT
  5
19E12
102
{ACAD_REACTORS
330
19DF6
102
}
330
19DF6
100
AcDbZombieObject
 90
      499
 91
      511
 93
      241
310
90C332F3422203D2031272D30220000000000003A0FC000000000000284000
  0
ACAD_PROXY_OBJECT
  5
19E13
102
{ACAD_REACTORS
330
19DF6
102
}
330
19DF6
100
AcDbZombieObject
 90
      499
 91
      511
 93
      161
310
90A3122203D2031272D30224000000000000284000
  0
ACAD_PROXY_OBJECT
  5
19E14
102
{ACAD_REACTORS
330
19DF6
102
}
330
19DF6
100
AcDbZombieObject
 90
      499
 91
      511
 93
      257
310
90E312D312F3222203D2031272D30220000000000003E0FC000000000000284000
  0
ACAD_PROXY_OBJECT
  5
19E15
102
{ACAD_REACTORS
330
19DF6
102
}
330
19DF6
100
AcDbZombieObject
 90
      499
 91
      511
 93
      225
310
90A3322203D2031272D302200000000000002100000000000000284000
  0
ACAD_PROXY_OBJECT
  5
19E16
102
{ACAD_REACTORS
330
19DF6
102
}
330
19DF6
100
AcDbZombieObject
 90
      499
 91
      511
 93
      225
310
90A3622203D2031272D302200000000000006100000000000000284000
  0
ACAD_PROXY_OBJECT
  5
19E17
102
{ACAD_REACTORS
330
19DF6
102
}
330
19DF6
100
AcDbZombieObject
 90
      499
 91
      511
 93
      249
310
90D31272D3022203D2031272D30220000000000000A100000000000000284000
  0
ACAD_PROXY_OBJECT
  5
19DEB
102
{ACAD_REACTORS
330
19DE5
102
}
330
19DE5
100
AcDbZombieObject
 90
      499
 91
      510
 93
      436
310
42CC9915DA5C99599C985B595049028333333333333E3BF0000000000000FB0107901411070040501600405405064090741402480A0340
1001
ACAD
1000
AcDbSavedByObjectVersion
1070
     0
  0
ACAD_PROXY_OBJECT
  5
19DED
102
{ACAD_REACTORS
330
19DE5
102
}
330
19DE5
100
AcDbZombieObject
 90
      499
 91
      510
 93
      500
310
424CD108121A5919195B90640502408333333333333E3BF0000000000000FB01079024090700405020000000000001110200405405064090740C02480A0340
1001
ACAD
1000
AcDbSavedByObjectVersion
1070
     0
  0
ACAD_PROXY_OBJECT
  5
19DEC
102
{ACAD_REACTORS
330
19DE5
102
}
330
19DE5
100
AcDbZombieObject
 90
      499
 91
      510
 93
      436
310
42CCD915DA5C99599C985B595059028333333333333E3BF0000000000000FB0107901411070040501600405405064090741402480A0340
1001
ACAD
1000
AcDbSavedByObjectVersion
1070
     0
  0
ACAD_PROXY_OBJECT
  5
19DEA
102
{ACAD_REACTORS
330
19DE5
102
}
330
19DE5
100
AcDbZombieObject
 90
      499
 91
      510
 93
      388
310
4150985CDA58D07406404333333333333E3BF0000000000000FB0107A41107004050150841D405064090741402480A0350
1001
ACAD
1000
AcDbSavedByObjectVersion
1070
     0
  0
ACAD_PROXY_OBJECT
  5
19DF1
102
{ACAD_REACTORS
330
19DE5
102
}
330
19DE5
100
AcDbZombieObject
 90
      499
 91
      510
 93
      428
310
42109C9A59DA1D195B90C409028333333333333E3BF0000000000000FB010790141107004050150841D405064090741402480A029950
1001
ACAD
1000
AcDbSavedByObjectVersion
1070
     0
  0
ACAD_PROXY_OBJECT
  5
19DF5
102
{ACAD_REACTORS
330
19DE5
102
}
330
19DE5
100
AcDbZombieObject
 90
      499
 91
      510
 93
      452
310
42D0DBDB1BDC90DA185B99D95104090240C333333333333E3BF0000000000000FB0108901411070040501508421405064090741402480A0350
1001
ACAD
1000
AcDbSavedByObjectVersion
1070
     0
  0
ACAD_PROXY_OBJECT
  5
19DEE
102
{ACAD_REACTORS
330
19DE5
102
}
330
19DE5
100
AcDbZombieObject
 90
      499
 91
      510
 93
      500
310
4290DBDB98D95C1D1D585B10940D028333333333333E3BF0000000000000FB0107902409070040501000000000000111010841D405064090740C02480A0340
1001
ACAD
1000
AcDbSavedByObjectVersion
1070
     0
  0
ACAD_PROXY_OBJECT
  5
19DF0
102
{ACAD_REACTORS
330
19DE5
102
}
330
19DE5
100
AcDbZombieObject
 90
      499
 91
      510
 93
      412
310
40D11A5B50B409028333333333333E3BF0000000000000FB010790141107004050150841D405064090741402480A02677FFFFFD0
1001
ACAD
1000
AcDbSavedByObjectVersion
1070
     0
  0
ACAD_PROXY_OBJECT
  5
1E02A
102
{ACAD_REACTORS
330
19DE5
102
}
330
19DE5
100
AcDbZombieObject
 90
      499
 91
      510
 93
      452
310
43115919D950DBDB1BDC93D999916409028333333333333E3BF0000000000000FB010790141107004050150841D405064090741402480A0350
1001
ACAD
1000
AcDbSavedByObjectVersion
1070
     0
  0
ACAD_PROXY_OBJECT
  5
19DF4
102
{ACAD_REACTORS
330
19DE5
102
}
330
19DE5
100
AcDbZombieObject
 90
      499
 91
      510
 93
      444
310
42D19858D95C185D1D195C9B90F409028333333333333E3BF0000000000000FB010790141107004050150841D405064090741402480A0350
1001
ACAD
1000
AcDbSavedByObjectVersion
1070
     0
  0
ACAD_PROXY_OBJECT
  5
19DE6
102
{ACAD_REACTORS
330
19DE5
102
}
330
19DE5
100
AcDbZombieObject
 90
      499
 91
      510
 93
      388
310
41119B185D240901404333333333333E3BF0000000000000F9010740A41107004050150841D405064090741402480A1B50
1001
ACAD
1000
AcDbSavedByObjectVersion
1070
     0
  0
ACAD_PROXY_OBJECT
  5
19DE7
102
{ACAD_REACTORS
330
19DE5
102
}
330
19DE5
100
AcDbZombieObject
 90
      499
 91
      510
 93
      476
310
43519B185D15DA5D1A115919D95CD0140901404333333333333E3BF0000000000000F9010740901411070040501600405405064090741402480A1B50
1001
ACAD
1000
AcDbSavedByObjectVersion
1070
     0
  0
ACAD_PROXY_OBJECT
  5
19DE8
102
{ACAD_REACTORS
330
19DE5
102
}
330
19DE5
100
AcDbZombieObject
 90
      499
 91
      510
 93
      412
310
41D1DBDD5C985D5910240902404333333333333E3BF0000000000000F9010740A411070040501641D405064090741402480A1B50
1001
ACAD
1000
AcDbSavedByObjectVersion
1070
     0
  0
ACAD_PROXY_OBJECT
  5
19DE9
102
{ACAD_REACTORS
330
19DE5
102
}
330
19DE5
100
AcDbZombieObject
 90
      499
 91
      510
 93
      500
310
4411DBDD5C985D5915DA5D1A115919D95CD0340902404333333333333E3BF0000000000000F9010740901411070040501600405405064090741402480A1B50
1001
ACAD
1000
AcDbSavedByObjectVersion
1070
     0
  0
ACAD_PROXY_OBJECT
  5
1F381
102
{ACAD_REACTORS
330
19DE5
102
}
330
19DE5
100
AcDbZombieObject
 90
      499
 91
      510
 93
      476
310
41921A5919195B90640502408333333333333E33F0000000000000F901079024090700405020000000000001110200405405064090740C02480A0340
1001
ACAD
1000
AcDbSavedByObjectVersion
1070
     0
  0
ACAD_PROXY_OBJECT
  5
1E028
102
{ACAD_REACTORS
330
19DE5
102
}
330
19DE5
100
AcDbZombieObject
 90
      499
 91
      510
 93
      428
310
42529A5D1D195C93D999914409028333333333333E3BF0000000000000FB010790141107004050150A41D405064090741402480A0350
1001
ACAD
1000
AcDbSavedByObjectVersion
1070
     0
  0
ACAD_PROXY_OBJECT
  5
19DF3
102
{ACAD_REACTORS
330
19DE5
102
}
330
19DE5
100
AcDbZombieObject
 90
      499
 91
      510
 93
      444
310
42D31A5B995C185D1D195C9B90E409028333333333333E3BF0000000000000FB010790141107004050750841D405064090741402483A0350
1001
ACAD
1000
AcDbSavedByObjectVersion
1070
     0
  0
ACAD_PROXY_OBJECT
  5
1F387
102
{ACAD_REACTORS
330
19DE5
102
}
330
19DE5
100
AcDbZombieObject
 90
      499
 91
      510
 93
      484
310
42135BD9195B1A5B99D0A409038333333333333E33F0000000000000F901074090290700405010000000000201990108421405064090741402480A1B40
1001
ACAD
1000
AcDbSavedByObjectVersion
1070
     0
  0
ACAD_PROXY_OBJECT
  5
1E029
102
{ACAD_REACTORS
330
19DE5
102
}
330
19DE5
100
AcDbZombieObject
 90
      499
 91
      510
 93
      444
310
42D3DD995C9A185B99D3D999915409028333333333333E3BF0000000000000FB010790141107004050150941D405064090741402480A0350
1001
ACAD
1000
AcDbSavedByObjectVersion
1070
     0
  0
ACAD_PROXY_OBJECT
  5
19DEF
102
{ACAD_REACTORS
330
19DE5
102
}
330
19DE5
100
AcDbZombieObject
 90
      499
 91
      510
 93
      420
310
425499585B1A5CDD1A58D08409028333333333333E3BF0000000000000FB01079019070040501508421405064090741402480A1B40
1001
ACAD
1000
AcDbSavedByObjectVersion
1070
     0
  0
ACAD_PROXY_OBJECT
  5
1F386
102
{ACAD_REACTORS
330
19DE5
102
}
330
19DE5
100
AcDbZombieObject
 90
      499
 91
      510
 93
      420
310
4194DA1859195911B40902404333333333333E33F0000000000000F9010740A41107004050150800405405064090840C02480A0B40
1001
ACAD
1000
AcDbSavedByObjectVersion
1070
     0
  0
ACAD_PROXY_OBJECT
  5
1F385
102
{ACAD_REACTORS
330
19DE5
102
}
330
19DE5
100
AcDbZombieObject
 90
      499
 91
      510
 93
      516
310
4454DA18591959081DDA5D1A08195919D95CD1A40902404333333333333E33F0000000000000F901074090142907004050250800405405064090740C02480A0B40
1001
ACAD
1000
AcDbSavedByObjectVersion
1070
     0
  0
ACAD_PROXY_OBJECT
  5
1F382
102
{ACAD_REACTORS
330
19DE5
102
}
330
19DE5
100
AcDbZombieObject
 90
      499
 91
      510
 93
      532
310
4394DA1859195CC81BD98811DC985E5174090240C333333333333E33F0000000000000F901079024090741D01000000000000111010841D405064090740C02480A0340
1001
ACAD
1000
AcDbSavedByObjectVersion
1070
     0
  0
ACAD_PROXY_OBJECT
  5
1F383
102
{ACAD_REACTORS
330
19DE5
102
}
330
19DE5
100
AcDbZombieObject
 90
      499
 91
      510
 93
      476
310
41D4DAD95D18DA1E51840502408333333333333E33F0000000000000F901079024090741D01000000000000111010B41D405064090741802480A0340
1001
ACAD
1000
AcDbSavedByObjectVersion
1070
     0
  0
ACAD_PROXY_OBJECT
  5
19DF2
102
{ACAD_REACTORS
330
19DE5
102
}
330
19DE5
100
AcDbZombieObject
 90
      499
 91
      510
 93
      412
310
41D51A1A58DAD95B90D409028333333333333E3BF0000000000000FB010790141107004050150C41D405064090741402480A0350
1001
ACAD
1000
AcDbSavedByObjectVersion
1070
     0
  0
ACAD_PROXY_OBJECT
  5
1F380
102
{ACAD_REACTORS
330
19DE5
102
}
330
19DE5
100
AcDbZombieObject
 90
      499
 91
      510
 93
      420
310
4255DA5C99599C985B595059028333333333333E33F0000000000000F90107901411070040501600405405064090740C02480A0340
1001
ACAD
1000
AcDbSavedByObjectVersion
1070
     0
  0
ACAD_PROXY_OBJECT
  5
1F384
102
{ACAD_REACTORS
330
19DE5
102
}
330
19DE5
100
AcDbZombieObject
 90
      499
 91
      510
 93
      404
310
41560B54985E51940902404000000000000E03F0000000000000F9010740501907004050150841D405064090740C02480A1B40
1001
ACAD
1000
AcDbSavedByObjectVersion
1070
     0
  0
XRECORD
  5
22083
102
{ACAD_REACTORS
330
22082
102
}
330
22082
100
AcDbXrecord
340
2D0
  0
XRECORD
  5
22084
102
{ACAD_REACTORS
330
22082
102
}
330
22082
100
AcDbXrecord
340
2CF
  0
DICTIONARYVAR
  5
20A45
102
{ACAD_REACTORS
330
37
102
}
330
37
100
DictionaryVariables
280
     0
  1
1:1
  0
DICTIONARYVAR
  5
1AC19
102
{ACAD_REACTORS
330
37
102
}
330
37
100
DictionaryVariables
280
     0
  1
Standard
  0
DICTIONARYVAR
  5
4F1
102
{ACAD_REACTORS
330
37
102
}
330
37
100
DictionaryVariables
280
     0
  1
Standard
  0
DICTIONARYVAR
  5
38
102
{ACAD_REACTORS
330
37
102
}
330
37
100
DictionaryVariables
280
     0
  1
-1
  0
DICTIONARYVAR
  5
408
102
{ACAD_REACTORS
330
37
102
}
330
37
100
DictionaryVariables
280
     0
  1
2
  0
DICTIONARYVAR
  5
1891
102
{ACAD_REACTORS
330
37
102
}
330
37
100
DictionaryVariables
280
     0
  1
1
  0
DICTIONARYVAR
  5
1AC1C
102
{ACAD_REACTORS
330
37
102
}
330
37
100
DictionaryVariables
280
     0
  1
0
  0
DICTIONARYVAR
  5
1895
102
{ACAD_REACTORS
330
37
102
}
330
37
100
DictionaryVariables
280
     0
  1
8
  0
DICTIONARYVAR
  5
1894
102
{ACAD_REACTORS
330
37
102
}
330
37
100
DictionaryVariables
280
     0
  1
1
  0
DICTIONARYVAR
  5
20A9B
102
{ACAD_REACTORS
330
37
102
}
330
37
100
DictionaryVariables
280
     0
  1
0
  0
DICTIONARYVAR
  5
1892
102
{ACAD_REACTORS
330
37
102
}
330
37
100
DictionaryVariables
280
     0
  1
8
  0
DICTIONARYVAR
  5
1893
102
{ACAD_REACTORS
330
37
102
}
330
37
100
DictionaryVariables
280
     0
  1
2
  0
DICTIONARYVAR
  5
409
102
{ACAD_REACTORS
330
37
102
}
330
37
100
DictionaryVariables
280
     0
  1

  0
DICTIONARYVAR
  5
1AC1B
102
{ACAD_REACTORS
330
37
102
}
330
37
100
DictionaryVariables
280
     0
  1
127
  0
DICTIONARYVAR
  5
1F37F
102
{ACAD_REACTORS
330
37
102
}
330
37
100
DictionaryVariables
280
     0
  1
2
  0
DICTIONARY
  5
22220
330
19DD5
100
AcDbDictionary
  3
ACAD_XREC_ROUNDTRIP
360
22221
1001
ACAD
1000
TREAT_AS_HARD
1070
     1
  0
DICTIONARY
  5
22222
330
19DCD
100
AcDbDictionary
  3
ACAD_XREC_ROUNDTRIP
360
22223
1001
ACAD
1000
TREAT_AS_HARD
1070
     1
  0
DICTIONARY
  5
22224
330
19DDD
100
AcDbDictionary
  3
ACAD_XREC_ROUNDTRIP
360
22225
1001
ACAD
1000
TREAT_AS_HARD
1070
     1
  0
XRECORD
  5
22221
102
{ACAD_REACTORS
330
22220
102
}
330
22220
100
AcDbXrecord
102
MATERIAL
148
0.0
149
0.0
149
0.0
 93
        0
 94
      127
282
     0
 72
     0
 77
     0
171
     0
175
     0
179
     0
273
     0
  0
XRECORD
  5
22223
102
{ACAD_REACTORS
330
22222
102
}
330
22222
100
AcDbXrecord
102
MATERIAL
148
0.0
149
0.0
149
0.0
 93
        0
 94
      127
282
     0
 72
     0
 77
     0
171
     0
175
     0
179
     0
273
     0
  0
XRECORD
  5
22225
102
{ACAD_REACTORS
330
22224
102
}
330
22224
100
AcDbXrecord
102
MATERIAL
148
0.0
149
0.0
149
0.0
 93
        0
 94
      127
282
     0
 72
     0
 77
     0
171
     0
175
     0
179
     0
273
     0
  0
ENDSEC
  0
EOF
