  0
SECTION
  2
HEADER
  9
$ACADVER
  1
AC1009
  9
$DWGCODEPAGE
  3
ansi_932
  9
$INSBASE
 10
0.0
 20
0.0
 30
0.0
  9
$EXTMIN
 10
1301.033680075255
 20
-544.3589591746011
 30
0.0
  9
$EXTMAX
 10
1844.578561310198
 20
-191.1683709231387
 30
0.0000000000108401
  9
$LIMMIN
 10
0.0
 20
0.0
  9
$LIMMAX
 10
420.0
 20
297.0
  9
$ORTHOMODE
 70
     0
  9
$REGENMODE
 70
     1
  9
$FILLMODE
 70
     1
  9
$QTEXTMODE
 70
     0
  9
$MIRRTEXT
 70
     0
  9
$DRAGMODE
 70
     2
  9
$LTSCALE
 40
0.5
  9
$OSMODE
 70
  6399
  9
$ATTMODE
 70
     1
  9
$TEXTSIZE
 40
4.0
  9
$TRACEWID
 40
1.0
  9
$TEXTSTYLE
  7
STANDARD
  9
$CLAYER
  8
1TEXT
  9
$CELTYPE
  6
BYLAYER
  9
$CECOLOR
 62
   256
  9
$DIMSCALE
 40
1.0
  9
$DIMASZ
 40
2.0
  9
$DIMEXO
 40
0.0
  9
$DIMDLI
 40
7.0
  9
$DIMRND
 40
0.0
  9
$DIMDLE
 40
0.0
  9
$DIMEXE
 40
1.0
  9
$DIMTP
 40
0.0
  9
$DIMTM
 40
0.0
  9
$DIMTXT
 40
3.5
  9
$DIMCEN
 40
0.0
  9
$DIMTSZ
 40
0.0
  9
$DIMTOL
 70
     0
  9
$DIMLIM
 70
     0
  9
$DIMTIH
 70
     0
  9
$DIMTOH
 70
     0
  9
$DIMSE1
 70
     0
  9
$DIMSE2
 70
     0
  9
$DIMTAD
 70
     1
  9
$DIMZIN
 70
     8
  9
$DIMBLK
  1

  9
$DIMASO
 70
     1
  9
$DIMSHO
 70
     1
  9
$DIMPOST
  1
 
  9
$DIMAPOST
  1

  9
$DIMALT
 70
     0
  9
$DIMALTD
 70
     2
  9
$DIMALTF
 40
25.4
  9
$DIMLFAC
 40
1.0
  9
$DIMTOFL
 70
     1
  9
$DIMTVP
 40
0.0
  9
$DIMTIX
 70
     0
  9
$DIMSOXD
 70
     0
  9
$DIMSAH
 70
     1
  9
$DIMBLK1
  1
OPEN30
  9
$DIMBLK2
  1
OPEN30
  9
$DIMSTYLE
  2
NEWX10
  9
$DIMCLRD
 70
     0
  9
$DIMCLRE
 70
     0
  9
$DIMCLRT
 70
   201
  9
$DIMTFAC
 40
0.7
  9
$DIMGAP
 40
0.7
  9
$LUNITS
 70
     2
  9
$LUPREC
 70
     4
  9
$SKETCHINC
 40
1.0
  9
$FILLETRAD
 40
0.5
  9
$AUNITS
 70
     0
  9
$AUPREC
 70
     2
  9
$MENU
  1
acad
  9
$ELEVATION
 40
0.0
  9
$PELEVATION
 40
0.0
  9
$THICKNESS
 40
0.0
  9
$LIMCHECK
 70
     0
  9
$CHAMFERA
 40
1.0
  9
$CHAMFERB
 40
1.0
  9
$SKPOLY
 70
     0
  9
$TDCREATE
 40
2453033.732663484
  9
$TDUPDATE
 40
2460166.385994317
  9
$TDINDWG
 40
2.5144555903
  9
$TDUSRTIMER
 40
2.5144555903
  9
$USRTIMER
 70
     1
  9
$ANGBASE
 50
0.0
  9
$ANGDIR
 70
     0
  9
$PDMODE
 70
     0
  9
$PDSIZE
 40
0.0
  9
$PLINEWID
 40
0.0
  9
$COORDS
 70
     2
  9
$SPLFRAME
 70
     0
  9
$SPLINETYPE
 70
     6
  9
$SPLINESEGS
 70
     8
  9
$ATTDIA
 70
     0
  9
$ATTREQ
 70
     1
  9
$HANDLING
 70
     1
  9
$HANDSEED
  5
241F0
  9
$SURFTAB1
 70
     6
  9
$SURFTAB2
 70
     6
  9
$SURFTYPE
 70
     6
  9
$SURFU
 70
     6
  9
$SURFV
 70
     6
  9
$UCSNAME
  2

  9
$UCSORG
 10
0.0
 20
0.0
 30
0.0
  9
$UCSXDIR
 10
1.0
 20
0.0
 30
0.0
  9
$UCSYDIR
 10
0.0
 20
1.0
 30
0.0
  9
$PUCSNAME
  2

  9
$PUCSORG
 10
0.0
 20
0.0
 30
0.0
  9
$PUCSXDIR
 10
1.0
 20
0.0
 30
0.0
  9
$PUCSYDIR
 10
0.0
 20
1.0
 30
0.0
  9
$USERI1
 70
     0
  9
$USERI2
 70
     0
  9
$USERI3
 70
     0
  9
$USERI4
 70
     0
  9
$USERI5
 70
     0
  9
$USERR1
 40
0.0
  9
$USERR2
 40
0.0
  9
$USERR3
 40
0.0
  9
$USERR4
 40
0.0
  9
$USERR5
 40
0.0
  9
$WORLDVIEW
 70
     1
  9
$SHADEDGE
 70
     3
  9
$SHADEDIF
 70
    70
  9
$TILEMODE
 70
     1
  9
$MAXACTVP
 70
    48
  9
$PLIMCHECK
 70
     0
  9
$PEXTMIN
 10
1.000000000000000E+20
 20
1.000000000000000E+20
 30
1.000000000000000E+20
  9
$PEXTMAX
 10
-1.000000000000000E+20
 20
-1.000000000000000E+20
 30
-1.000000000000000E+20
  9
$PLIMMIN
 10
0.0
 20
0.0
  9
$PLIMMAX
 10
420.0
 20
297.0
  9
$UNITMODE
 70
     0
  9
$VISRETAIN
 70
     1
  9
$PLINEGEN
 70
     0
  9
$PSLTSCALE
 70
     1
  0
ENDSEC
  0
SECTION
  2
TABLES
  0
TABLE
  2
VPORT
 70
     1
  0
VPORT
  2
*ACTIVE
 70
     0
 10
0.0
 20
0.0
 11
1.0
 21
1.0
 12
1572.806120692727
 22
-367.7636650488699
 13
0.0
 23
0.0
 14
10.0
 24
10.0
 15
10.0
 25
10.0
 16
0.0
 26
0.0
 36
1.0
 17
0.0
 27
0.0
 37
0.0
 40
379.2151579120965
 41
1.758938869665513
 42
50.0
 43
0.0
 44
0.0
 50
0.0
 51
0.0
 71
    16
 72
    20
 73
     1
 74
     1
 75
     0
 76
     0
 77
     0
 78
     0
  0
ENDTAB
  0
TABLE
  2
LTYPE
 70
    18
  0
LTYPE
  2
CONTINUOUS
 70
     0
  3
Solid line
 72
    65
 73
     0
 40
0.0
  0
LTYPE
  2
CENTER2
 70
     0
  3
Center (.5x) ___ _ ___ _ ___ _ ___ _ ___ _ ___
 72
    65
 73
     4
 40
28.575
 49
19.05
 49
-3.175
 49
3.175
 49
-3.175
  0
LTYPE
  2
PHANTOM2
 70
     0
  3
Phantom (0.5x) ___ _ _ ___ _ _ ___ _ _ ___ _ _
 72
    65
 73
     6
 40
31.75
 49
15.875
 49
-3.175
 49
3.175
 49
-3.175
 49
3.175
 49
-3.175
  0
ENDTAB
  0
TABLE
  2
LAYER
 70
    46
  0
LAYER
  2
0
 70
     0
 62
     7
  6
CONTINUOUS
  0
LAYER
  2
1CENTER
 70
     0
 62
     7
  6
CENTER2
  0
LAYER
  2
1TEXT
 70
     0
 62
     7
  6
CONTINUOUS
  0
LAYER
  2
1DIM
 70
     0
 62
     7
  6
CONTINUOUS
  0
LAYER
  2
01
 70
     0
 62
     1
  6
CONTINUOUS
  0
ENDTAB
  0
TABLE
  2
STYLE
 70
    27
  0
STYLE
  2
STANDARD
 70
     0
 40
0.0
 41
1.0
 50
0.0
 71
     0
 42
4.0
  3
txt.shx
  4
extfont.shx
  0
ENDTAB
  0
TABLE
  2
VIEW
 70
     0
  0
ENDTAB
  0
TABLE
  2
UCS
 70
     5
  0
UCS
  2
U
 70
     0
 10
0.0
 20
0.0
 30
0.0
 11
1.0
 21
0.0
 31
0.0
 12
0.0
 22
6.123233995736766E-17
 32
1.0
  0
UCS
  2
L
 70
     0
 10
0.0
 20
0.0
 30
0.0
 11
-1.836970198721030E-16
 21
-1.0
 31
6.123233995736766E-17
 12
0.0
 22
6.123233995736766E-17
 32
1.0
  0
UCS
  2
R
 70
     0
 10
0.0
 20
0.0
 30
0.0
 11
3.061616997868383E-16
 21
1.0
 31
-6.123233995736766E-17
 12
0.0
 22
6.123233995736766E-17
 32
1.0
  0
UCS
  2
ISOME
 70
     0
 10
0.0
 20
0.0
 30
0.0
 11
0.7071450863198264
 21
-0.7070684729403536
 31
-3.830824619471818E-5
 12
0.4082704059428736
 22
0.408270407740115
 32
0.8164744636514737
  0
UCS
  2
PERSPECTIVE
 70
     0
 10
0.0
 20
0.0
 30
0.0
 11
0.8191477691768962
 21
-0.5735823260466401
 31
-0.0004974931557765738
 12
0.1584844715982971
 22
0.2255020289861079
 32
0.961265575782966
  0
ENDTAB
  0
TABLE
  2
APPID
 70
    33
  0
APPID
  2
ACAD
 70
     0
  0
APPID
  2
DRAWINGVARIABLESXDATA
 70
     0
  0
APPID
  2
CONTENTTABDATA
 70
     0
  0
APPID
  2
CONTENTCURRENTTAB
 70
     0
  0
APPID
  2
CONTENTBLOCKDESCRIPTION
 70
     0
  0
APPID
  2
CONTENTBLOCKICON
 70
     0
  0
APPID
  2
CONTENTLONGBLOCKNAME
 70
     0
  0
APPID
  2
ACAD_PSEXT
 70
     0
  0
APPID
  2
ACAD_DSTYLE_DIMTEXT_FILL
 70
     0
  0
APPID
  2
ACAD_MLEADERVER
 70
     0
  0
APPID
  2
ACAD_DSTYLE_DIMRADIAL_EXTE
 70
     0
  0
APPID
  2
ACADANNOTATIVE
 70
     0
  0
APPID
  2
ACAD_EXEMPT_FROM_CAD_STAND
 70
     0
  0
APPID
  2
ACDBBLOCKREPETAG
 70
     0
  0
APPID
  2
ACAD_OBJECT_CHANGE_GUID
 70
     0
  0
APPID
  2
ACLAYERTOOLS
 70
     0
  0
APPID
  2
ACAD_NAV_VCDISPLAY
 70
     0
  0
APPID
  2
ACAD_DSTYLE_DIMJAG
 70
     0
  0
APPID
  2
ACAD_DSTYLE_DIMTALN
 70
     0
  0
APPID
  2
ACDBDYNAMICBLOCKTRUENAME
 70
     0
  0
APPID
  2
ACDBDYNAMICBLOCKGUID
 70
     0
  0
APPID
  2
ACDBBLOCKREPBTAG
 70
     0
  0
APPID
  2
ACAUTHENVIRON
 70
     0
  0
APPID
  2
ACADANNOPO
 70
     0
  0
APPID
  2
ACAECLAYERSTANDARD
 70
     0
  0
APPID
  2
ACAD_DSTYLE_DIMJOGGED_JOGA
 70
     0
  0
APPID
  2
ACAD_DSTYLE_DIM_LINETYPE
 70
     0
  0
APPID
  2
ACAD_DSTYLE_DIM_EXT1_LINET
 70
     0
  0
APPID
  2
ACAD_DSTYLE_DIM_EXT2_LINET
 70
     0
  0
APPID
  2
ACAD_DIMASSOC_CALC_DIMLFAC
 70
     0
  0
APPID
  2
ACAD_DIMASSOC_DIMLFAC
 70
     0
  0
APPID
  2
ACAD_DIMASSOC_OVERRIDDEN_D
 70
     0
  0
APPID
  2
ACADANNOTATIVEDECOMPOSITIO
 70
     0
  0
ENDTAB
  0
TABLE
  2
DIMSTYLE
 70
    11
  0
DIMSTYLE
  2
NEWX10
 70
     0
  3
 
  4

  5

  6
OPEN30
  7
OPEN30
 40
1.0
 41
2.0
 42
0.0
 43
7.0
 44
1.0
 45
0.0
 46
0.0
 47
0.0
 48
0.0
140
3.5
141
0.0
142
0.0
143
25.4
144
1.0
145
0.0
146
0.7
147
0.7
 71
     0
 72
     0
 73
     0
 74
     0
 75
     0
 76
     0
 77
     1
 78
     8
170
     0
171
     2
172
     1
173
     1
174
     0
175
     0
176
     0
177
     0
178
   201
  0
DIMSTYLE
  2
ISO-25
 70
     0
  3

  4

  5

  6

  7

 40
1.0
 41
20.0
 42
3.0
 43
3.75
 44
2.0
 45
0.0
 46
0.0
 47
0.0
 48
0.0
140
30.0
141
5.0
142
0.0
143
0.03937
144
1.0
145
0.0
146
1.0
147
8.0
 71
     0
 72
     0
 73
     0
 74
     0
 75
     0
 76
     0
 77
     1
 78
     8
170
     0
171
     3
172
     1
173
     0
174
     0
175
     0
176
     1
177
     1
178
     1
  0
ENDTAB
  0
ENDSEC
  0
SECTION
  2
BLOCKS
  0
BLOCK
  8
0
  2
$MODEL_SPACE
 70
     0
 10
0.0
 20
0.0
 30
0.0
  3
$MODEL_SPACE
  1

  0
ENDBLK
  5
1A
  8
0
  0
BLOCK
 67
     1
  8
0
  2
$PAPER_SPACE
 70
     0
 10
0.0
 20
0.0
 30
0.0
  3
$PAPER_SPACE
  1

  0
ENDBLK
  5
17
 67
     1
  8
0
  0
BLOCK
  8
0
  2
_OPEN30
 70
     0
 10
0.0
 20
0.0
 30
0.0
  3
_OPEN30
  1

  0
LINE
  5
44
  8
0
  6
BYBLOCK
 62
     0
 10
-1.0
 20
0.26794919
 30
0.0
 11
0.0
 21
0.0
 31
0.0
  0
LINE
  5
45
  8
0
  6
BYBLOCK
 62
     0
 10
0.0
 20
0.0
 30
0.0
 11
-1.0
 21
-0.26794919
 31
0.0
  0
LINE
  5
46
  8
0
  6
BYBLOCK
 62
     0
 10
0.0
 20
0.0
 30
0.0
 11
-1.0
 21
0.0
 31
0.0
  0
ENDBLK
  5
47
  8
0
  0
BLOCK
  8
0
  2
A3WAKUKAWAJUN2017_HYOUDAI_
 70
     0
 10
0.0
 20
0.0
 30
0.0
  3
A3WAKUKAWAJUN2017_HYOUDAI_
  1

  0
LINE
  5
20318
  8
0
 10
13.26299999998673
 20
-0.0001000000000317
 30
0.0
 11
9.236999999990758
 21
8.999899999990987
 31
0.0
1001
ACAD
1000
ASC_BOUNDS
1002
{
1070
    19
1005
20359
1002
}
  0
LINE
  5
20319
  8
0
 10
5.657999999994331
 20
0.9999999999989768
 30
0.0
 11
9.236999999990758
 21
8.999999999991019
 31
0.0
1001
ACAD
1000
ASC_BOUNDS
1002
{
1070
    19
1005
20359
1002
}
  0
LINE
  5
2031A
  8
0
 10
18.59199999998134
 20
-0.2368999999997641
 30
0.0
 11
16.46099999998353
 21
5.432899999994561
 31
0.0
1001
ACAD
1000
ASC_BOUNDS
1002
{
1070
    19
1005
2035A
1002
}
  0
LINE
  5
2031B
  8
0
 10
18.59199999998134
 20
-0.2368999999997641
 30
0.0
 11
22.38199999997767
 21
8.763099999991255
 31
0.0
1001
ACAD
1000
ASC_BOUNDS
1002
{
1070
    19
1005
2035A
1002
}
  0
LINE
  5
2031C
  8
0
 10
14.32899999998563
 20
-0.2368999999997641
 30
0.0
 11
16.46099999998353
 21
5.432899999994561
 31
0.0
1001
ACAD
1000
ASC_BOUNDS
1002
{
1070
    19
1005
2035A
1002
}
  0
LINE
  5
2031D
  8
0
 10
14.32899999998563
 20
-0.2368999999997641
 30
0.0
 11
10.53899999998941
 21
8.763099999991255
 31
0.0
1001
ACAD
1000
ASC_BOUNDS
1002
{
1070
    19
1005
2035A
1002
}
  0
LINE
  5
2031E
  8
0
 10
19.53899999998043
 20
-0.0001000000000317
 30
0.0
 11
23.56599999997638
 21
8.999899999990987
 31
0.0
1001
ACAD
1000
ASC_BOUNDS
1002
{
1070
    19
1005
2035B
1002
}
  0
LINE
  5
2031F
  8
0
 10
26.97358892824991
 20
1.383099999991202
 30
0.0
 11
23.56599999997638
 21
8.999899999990987
 31
0.0
1001
ACAD
1000
ASC_BOUNDS
1002
{
1070
    19
1005
2035B
1002
}
  0
LINE
  5
20320
  8
0
 10
5.657999999994331
 20
0.9999999999989768
 30
0.0
 11
3.181999999996833
 21
4.668599999995308
 31
0.0
1001
ACAD
1000
ASC_BOUNDS
1002
{
1070
    19
1005
20359
1002
}
  0
LINE
  5
20321
  8
0
 10
4.617999999995391
 20
-0.0001000000000317
 30
0.0
 11
1.420999999998571
 21
4.736799999995242
 31
0.0
1001
ACAD
1000
ASC_BOUNDS
1002
{
1070
    19
1005
20359
1002
}
  0
LINE
  5
20322
  8
0
 10
1.420999999998571
 20
8.763099999991255
 30
0.0
 11
1.420999999998571
 21
0.0
 31
0.0
1001
ACAD
1000
ASC_BOUNDS
1002
{
1070
    19
1005
2035E
1002
}
  0
LINE
  5
20323
  8
0
 10
0.0
 20
8.763099999991255
 30
0.0
 11
0.0
 21
0.0
 31
0.0
1001
ACAD
1000
ASC_BOUNDS
1002
{
1070
    19
1005
2035E
1002
}
  0
LINE
  5
20324
  8
0
 10
6.766999999993232
 20
-0.0001000000000317
 30
0.0
 11
7.826999999992154
 21
2.368399999997621
 31
0.0
1001
ACAD
1000
ASC_BOUNDS
1002
{
1070
    19
1005
20359
1002
}
  0
LINE
  5
20325
  8
0
 10
0.0
 20
0.0
 30
0.0
 11
1.420999999998571
 21
0.0
 31
0.0
1001
ACAD
1000
ASC_BOUNDS
1002
{
1070
    19
1005
2035E
1002
}
  0
LINE
  5
20326
  8
0
 10
4.617999999995391
 20
0.0
 30
0.0
 11
6.766999999993232
 21
0.0
 31
0.0
1001
ACAD
1000
ASC_BOUNDS
1002
{
1070
    19
1005
20359
1002
}
  0
LINE
  5
20327
  8
0
 10
11.70599999998831
 20
-0.0001000000000317
 30
0.0
 11
10.64699999998936
 21
2.368399999997621
 31
0.0
1001
ACAD
1000
ASC_BOUNDS
1002
{
1070
    19
1005
20359
1002
}
  0
LINE
  5
20328
  8
0
 10
7.826999999992154
 20
2.368399999997621
 30
0.0
 11
10.64699999998936
 21
2.368399999997621
 31
0.0
1001
ACAD
1000
ASC_BOUNDS
1002
{
1070
    19
1005
20359
1002
}
  0
LINE
  5
20329
  8
0
 10
11.70599999998831
 20
0.0
 30
0.0
 11
13.26299999998673
 21
0.0
 31
0.0
1001
ACAD
1000
ASC_BOUNDS
1002
{
1070
    19
1005
20359
1002
}
  0
LINE
  5
2032A
  8
0
 10
22.15599999997789
 20
2.368399999997621
 30
0.0
 11
24.97599999997499
 21
2.368399999997621
 31
0.0
1001
ACAD
1000
ASC_BOUNDS
1002
{
1070
    19
1005
2035B
1002
}
  0
LINE
  5
2032B
  8
0
 10
19.53899999998043
 20
0.0
 30
0.0
 11
21.09599999997886
 21
0.0
 31
0.0
1001
ACAD
1000
ASC_BOUNDS
1002
{
1070
    19
1005
2035B
1002
}
  0
LINE
  5
2032C
  8
0
 10
21.09599999997886
 20
-0.0001000000000317
 30
0.0
 11
22.15599999997789
 21
2.368399999997621
 31
0.0
1001
ACAD
1000
ASC_BOUNDS
1002
{
1070
    19
1005
2035B
1002
}
  0
LINE
  5
2032D
  8
0
 10
26.02015566812236
 20
0.0330999999912365
 30
0.0
 11
24.97599999997499
 21
2.368399999997621
 31
0.0
1001
ACAD
1000
ASC_BOUNDS
1002
{
1070
    19
1005
2035B
1002
}
  0
LINE
  5
2032E
  8
0
 10
14.32399999998563
 20
3.315799999996671
 30
0.0
 11
16.46099999998353
 21
8.999899999990987
 31
0.0
1001
ACAD
1000
ASC_BOUNDS
1002
{
1070
    19
1005
2035A
1002
}
  0
LINE
  5
2032F
  8
0
 10
6.432999999993513
 20
8.763099999991255
 30
0.0
 11
3.181999999996833
 21
4.668599999995308
 31
0.0
1001
ACAD
1000
ASC_BOUNDS
1002
{
1070
    19
1005
20359
1002
}
  0
LINE
  5
20330
  8
0
 10
4.617999999995391
 20
8.763099999991255
 30
0.0
 11
1.420999999998571
 21
4.736799999995242
 31
0.0
1001
ACAD
1000
ASC_BOUNDS
1002
{
1070
    19
1005
20359
1002
}
  0
LINE
  5
20331
  8
0
 10
0.0
 20
8.763099999991255
 30
0.0
 11
1.420999999998571
 21
8.763099999991255
 31
0.0
1001
ACAD
1000
ASC_BOUNDS
1002
{
1070
    19
1005
2035E
1002
}
  0
LINE
  5
20332
  8
0
 10
4.617999999995391
 20
8.763099999991255
 30
0.0
 11
6.432999999993513
 21
8.763099999991255
 31
0.0
1001
ACAD
1000
ASC_BOUNDS
1002
{
1070
    19
1005
20359
1002
}
  0
LINE
  5
20333
  8
0
 10
14.32399999998563
 20
3.315799999996671
 30
0.0
 11
12.02999999998792
 21
8.763099999991255
 31
0.0
1001
ACAD
1000
ASC_BOUNDS
1002
{
1070
    19
1005
2035A
1002
}
  0
LINE
  5
20334
  8
0
 10
10.06399999998996
 20
3.670999999996297
 30
0.0
 11
9.236999999990758
 21
5.5200999999945
 31
0.0
1001
ACAD
1000
ASC_BOUNDS
1002
{
1070
    19
1005
20359
1002
}
  0
LINE
  5
20335
  8
0
 10
8.409999999991555
 20
3.670999999996297
 30
0.0
 11
9.236999999990758
 21
5.5200999999945
 31
0.0
1001
ACAD
1000
ASC_BOUNDS
1002
{
1070
    19
1005
20359
1002
}
  0
LINE
  5
20336
  8
0
 10
8.409999999991555
 20
3.670999999996297
 30
0.0
 11
10.06399999998996
 21
3.670999999996297
 31
0.0
1001
ACAD
1000
ASC_BOUNDS
1002
{
1070
    19
1005
20359
1002
}
  0
LINE
  5
20337
  8
0
 10
10.53899999998941
 20
8.763099999991255
 30
0.0
 11
12.02999999998792
 21
8.763099999991255
 31
0.0
1001
ACAD
1000
ASC_BOUNDS
1002
{
1070
    19
1005
2035A
1002
}
  0
LINE
  5
20338
  8
0
 10
22.7389999999773
 20
3.670999999996297
 30
0.0
 11
23.56599999997638
 21
5.5200999999945
 31
0.0
1001
ACAD
1000
ASC_BOUNDS
1002
{
1070
    19
1005
2035B
1002
}
  0
LINE
  5
20339
  8
0
 10
22.7389999999773
 20
3.670999999996297
 30
0.0
 11
24.39299999997559
 21
3.670999999996297
 31
0.0
1001
ACAD
1000
ASC_BOUNDS
1002
{
1070
    19
1005
2035B
1002
}
  0
LINE
  5
2033A
  8
0
 10
18.59799999998143
 20
3.315799999996671
 30
0.0
 11
20.89099999997916
 21
8.763099999991255
 31
0.0
1001
ACAD
1000
ASC_BOUNDS
1002
{
1070
    19
1005
2035A
1002
}
  0
LINE
  5
2033B
  8
0
 10
18.59799999998143
 20
3.315799999996671
 30
0.0
 11
16.46099999998353
 21
8.999899999990987
 31
0.0
1001
ACAD
1000
ASC_BOUNDS
1002
{
1070
    19
1005
2035A
1002
}
  0
LINE
  5
2033C
  8
0
 10
20.89099999997916
 20
8.763099999991255
 30
0.0
 11
22.38199999997767
 21
8.763099999991255
 31
0.0
1001
ACAD
1000
ASC_BOUNDS
1002
{
1070
    19
1005
2035A
1002
}
  0
LINE
  5
2033D
  8
0
 10
24.39299999997559
 20
3.670999999996297
 30
0.0
 11
23.56599999997638
 21
5.5200999999945
 31
0.0
1001
ACAD
1000
ASC_BOUNDS
1002
{
1070
    19
1005
2035B
1002
}
  0
LINE
  5
2033E
  8
0
 10
44.99999999995498
 20
-0.2368999999997641
 30
0.0
 11
40.02599999995994
 21
5.341799999994635
 31
0.0
1001
ACAD
1000
ASC_BOUNDS
1002
{
1070
    19
1005
2035D
1002
}
  0
LINE
  5
2033F
  8
0
 10
40.02599999995994
 20
5.341799999994635
 30
0.0
 11
40.02599999995994
 21
0.0
 31
0.0
1001
ACAD
1000
ASC_BOUNDS
1002
{
1070
    19
1005
2035D
1002
}
  0
LINE
  5
20340
  8
0
 10
38.60499999996136
 20
8.999999999991019
 30
0.0
 11
38.60499999996136
 21
0.0
 31
0.0
1001
ACAD
1000
ASC_BOUNDS
1002
{
1070
    19
1005
2035D
1002
}
  0
LINE
  5
20341
  8
0
 10
44.99999999995498
 20
8.763099999991255
 30
0.0
 11
44.99999999995498
 21
-0.2368999999997641
 31
0.0
1001
ACAD
1000
ASC_BOUNDS
1002
{
1070
    19
1005
2035D
1002
}
  0
LINE
  5
20342
  8
0
 10
38.60499999996136
 20
0.0
 30
0.0
 11
40.02599999995994
 21
0.0
 31
0.0
1001
ACAD
1000
ASC_BOUNDS
1002
{
1070
    19
1005
2035D
1002
}
  0
LINE
  5
20343
  8
0
 10
43.57899999995641
 20
3.421199999996588
 30
0.0
 11
38.60499999996136
 21
8.999899999990987
 31
0.0
1001
ACAD
1000
ASC_BOUNDS
1002
{
1070
    19
1005
2035D
1002
}
  0
LINE
  5
20344
  8
0
 10
43.57899999995641
 20
8.763099999991255
 30
0.0
 11
43.57899999995641
 21
3.421199999996588
 31
0.0
1001
ACAD
1000
ASC_BOUNDS
1002
{
1070
    19
1005
2035D
1002
}
  0
LINE
  5
20345
  8
0
 10
43.57899999995641
 20
8.763099999991255
 30
0.0
 11
44.99999999995498
 21
8.763099999991255
 31
0.0
1001
ACAD
1000
ASC_BOUNDS
1002
{
1070
    19
1005
2035D
1002
}
  0
LINE
  5
20346
  8
0
 10
37.67199999996831
 20
8.763099999991255
 30
0.0
 11
36.23199999996837
 21
8.763099999991255
 31
0.0
  0
LINE
  5
20347
  8
0
 10
31.64199999996833
 20
8.763099999991255
 30
0.0
 11
31.64199999996833
 21
2.481619422925121
 31
0.0
  0
LINE
  5
20348
  8
0
 10
37.67199999996831
 20
8.763099999991255
 30
0.0
 11
37.67199999996831
 21
2.481619422925121
 31
0.0
  0
LINE
  5
20349
  8
0
 10
36.23199999996837
 20
8.763099999991255
 30
0.0
 11
36.23199999996837
 21
2.481619422925064
 31
0.0
  0
LINE
  5
2034A
  8
0
 10
33.08199999996839
 20
8.763099999991255
 30
0.0
 11
33.08199999996839
 21
2.481619422925121
 31
0.0
  0
ARC
  5
2034B
  8
0
 10
34.65699999996832
 20
3.183099999991214
 30
0.0
 40
3.420000000000007
 50
240.0000000000255
 51
299.9999999999766
  0
ARC
  5
2034C
  8
0
 10
34.65699999996832
 20
3.183099999991214
 30
0.0
 40
1.97999999999999
 50
240.000000000026
 51
299.9999999999703
  0
LINE
  5
2034D
  8
0
 10
33.08199999996828
 20
8.763099999991255
 30
0.0
 11
31.64199999996833
 21
8.763099999991255
 31
0.0
  0
ARC
  5
2034E
  8
0
 10
35.06199999996829
 20
2.481619422925064
 30
0.0
 40
1.17
 50
299.9999999999699
 51
0.0
  0
ARC
  5
2034F
  8
0
 10
34.25199999996835
 20
2.481619422925121
 30
0.0
 40
1.17
 50
180.0
 51
240.0000000000238
  0
ARC
  5
20350
  8
0
 10
35.06199999996841
 20
2.481619422925121
 30
0.0
 40
2.61
 50
299.9999999999756
 51
0.0
  0
ARC
  5
20351
  8
0
 10
34.25199999996835
 20
2.481619422925121
 30
0.0
 40
2.61
 50
180.0
 51
240.0000000000244
  0
LINE
  5
20352
  8
0
 10
29.30199999996933
 20
8.763099999991255
 30
0.0
 11
30.74199999996927
 21
8.763099999991255
 31
0.0
1001
ACAD
1000
ASC_BOUNDS
1002
{
1070
    19
1005
2035B
1002
}
  0
LINE
  5
20353
  8
0
 10
30.74199999996927
 20
8.763099999991255
 30
0.0
 11
30.74199999996927
 21
2.373099999991211
 31
0.0
1001
ACAD
1000
ASC_BOUNDS
1002
{
1070
    19
1005
2035B
1002
}
  0
LINE
  5
20354
  8
0
 10
26.02015566812236
 20
0.0330999999912365
 30
0.0
 11
28.40199999996923
 21
0.0330999999912365
 31
0.0
1001
ACAD
1000
ASC_BOUNDS
1002
{
1070
    19
1005
2035B
1002
}
  0
LINE
  5
20355
  8
0
 10
29.30199999996933
 20
8.763099999991255
 30
0.0
 11
29.30199999996933
 21
2.283099999991236
 31
0.0
1001
ACAD
1000
ASC_BOUNDS
1002
{
1070
    19
1005
2035B
1002
}
  0
LINE
  5
20356
  8
0
 10
26.97358892824991
 20
1.383099999991202
 30
0.0
 11
28.40199999996923
 21
1.383099999991202
 31
0.0
1001
ACAD
1000
ASC_BOUNDS
1002
{
1070
    19
1005
2035B
1002
}
  0
ARC
  5
20357
  8
0
 10
28.40199999996923
 20
2.283099999991236
 30
0.0
 40
0.9
 50
270.0
 51
0.0
1001
ACAD
1000
ASC_BOUNDS
1002
{
1070
    19
1005
2035B
1002
}
  0
ARC
  5
20358
  8
0
 10
28.40199999996923
 20
2.373099999991211
 30
0.0
 40
2.34
 50
270.0
 51
0.0
1001
ACAD
1000
ASC_BOUNDS
1002
{
1070
    19
1005
2035B
1002
}
  0
INSERT
  5
20359
  8
0
  2
*X235
 10
0.0
 20
0.0
 30
0.0
1001
ACAD
1000
HATCH
1002
{
1070
    19
1000
ANSI37
1040
0.15
1040
0.0
1000
ASC_BOUNDS
1070
     2
1070
     2
1070
    12
1005
20318
1005
20319
1005
20320
1005
2032F
1005
20332
1005
20330
1005
20321
1005
20326
1005
20324
1005
20328
1005
20327
1005
20329
1070
     2
1070
     3
1005
20334
1005
20336
1005
20335
1000
ASC_SEEDPOINT
1011
3.614004224891801
1021
2.996669441146025
1031
0.0
1021
2.996669441146025
1031
0.0
1000
R14_HATCH_DATA
1000
20359
1011
1.0
1021
0.0
1031
0.0
1021
0.0
1031
0.0
1011
0.0
1021
1.0
1031
0.0
1021
1.0
1031
0.0
1011
0.0
1021
0.0
1031
1.0
1021
0.0
1031
1.0
1040
0.0
1010
0.0
1020
0.0
1030
1.0
1000
ANSI37
1070
     0
1070
     1
1071
        2
1071
        7
1070
     0
1070
     1
1071
       17
1040
13.26299999998673
1040
-0.0001000000000317
1040
9.236999999990758
1040
8.999899999990987
1040
9.236999999990758
1040
8.999999999991019
1040
5.657999999994331
1040
0.9999999999989768
1040
3.181999999996833
1040
4.668599999995308
1040
6.432999999993513
1040
8.763099999991255
1040
4.617999999995391
1040
8.763099999991255
1040
1.420999999998571
1040
4.736799999995242
1040
4.617999999995391
1040
-0.0001000000000317
1040
4.617999999995391
1040
0.0
1040
6.766999999993232
1040
0.0
1040
6.766999999993232
1040
-0.0001000000000317
1040
7.826999999992154
1040
2.368399999997621
1040
10.64699999998936
1040
2.368399999997621
1040
11.70599999998831
1040
-0.0001000000000317
1040
11.70599999998831
1040
0.0
1040
13.26299999998673
1040
0.0
1071
       12
1005
20318
1005
20319
1005
20320
1005
2032F
1005
20332
1005
20330
1005
20321
1005
20326
1005
20324
1005
20328
1005
20327
1005
20329
1071
       22
1070
     0
1070
     1
1071
        3
1040
9.236999999990758
1040
5.5200999999945
1040
10.06399999998996
1040
3.670999999996297
1040
8.409999999991555
1040
3.670999999996297
1071
        3
1005
20334
1005
20336
1005
20335
1070
     0
1070
     1
1040
0.0
1040
0.15
1070
     0
1070
     2
1040
0.7853981633974483
1040
49.29960901727088
1040
-10.17736998311392
1040
-0.3367596045400932
1040
0.3367596045400932
1070
     0
1040
2.356194490192345
1040
49.29960901727088
1040
-10.17736998311392
1040
-0.3367596045400932
1040
-0.3367596045400932
1070
     0
1040
0.0110235143455945
1071
        2
1040
3.614004224891801
1040
2.996669441146025
1040
0.0
1040
3.614004224891801
1040
2.996669441146025
1040
0.0
1002
}
  0
INSERT
  5
2035A
  8
0
  2
*X236
 10
0.0
 20
0.0
 30
0.0
1001
ACAD
1000
HATCH
1002
{
1070
    19
1000
ANSI37
1040
0.15
1040
0.0
1000
ASC_BOUNDS
1070
     1
1070
     2
1070
    10
1005
2031A
1005
2031B
1005
2033C
1005
2033A
1005
2033B
1005
2032E
1005
20333
1005
20337
1005
2031D
1005
2031C
1000
ASC_SEEDPOINT
1011
14.73245321214324
1021
2.798246178283421
1031
0.0
1021
2.798246178283421
1031
0.0
1000
R14_HATCH_DATA
1000
2035A
1011
1.0
1021
0.0
1031
0.0
1021
0.0
1031
0.0
1011
0.0
1021
1.0
1031
0.0
1021
1.0
1031
0.0
1011
0.0
1021
0.0
1031
1.0
1021
0.0
1031
1.0
1040
0.0
1010
0.0
1020
0.0
1030
1.0
1000
ANSI37
1070
     0
1070
     1
1071
        1
1071
        7
1070
     0
1070
     1
1071
       10
1040
16.46099999998353
1040
5.432899999994561
1040
18.59199999998134
1040
-0.2368999999997641
1040
22.38199999997767
1040
8.763099999991255
1040
20.89099999997916
1040
8.763099999991255
1040
18.59799999998143
1040
3.315799999996671
1040
16.46099999998353
1040
8.999899999990987
1040
14.32399999998563
1040
3.315799999996671
1040
12.02999999998792
1040
8.763099999991255
1040
10.53899999998941
1040
8.763099999991255
1040
14.32899999998563
1040
-0.2368999999997641
1071
       10
1005
2031A
1005
2031B
1005
2033C
1005
2033A
1005
2033B
1005
2032E
1005
20333
1005
20337
1005
2031D
1005
2031C
1070
     0
1070
     1
1040
0.0
1040
0.15
1070
     0
1070
     2
1040
0.7853981633974483
1040
49.29960901727088
1040
-10.17736998311392
1040
-0.3367596045400932
1040
0.3367596045400932
1070
     0
1040
2.356194490192345
1040
49.29960901727088
1040
-10.17736998311392
1040
-0.3367596045400932
1040
-0.3367596045400932
1070
     0
1040
0.0110235143455945
1071
        1
1040
14.73245321214324
1040
2.798246178283421
1040
0.0
1002
}
  0
INSERT
  5
2035B
  8
0
  2
*X237
 10
0.0
 20
0.0
 30
0.0
1001
ACAD
1000
HATCH
1002
{
1070
    19
1000
ANSI37
1040
0.15
1040
0.0
1000
ASC_BOUNDS
1070
     2
1070
     2
1070
    13
1005
2031E
1005
2032B
1005
2032C
1005
2032A
1005
2032D
1005
20354
1005
20358
1005
20353
1005
20352
1005
20355
1005
20357
1005
20356
1005
2031F
1070
     2
1070
     3
1005
20338
1005
2033D
1005
20339
1000
ASC_SEEDPOINT
1011
21.97929957367762
1021
3.294304244259308
1031
0.0
1021
3.294304244259308
1031
0.0
1000
R14_HATCH_DATA
1000
2035B
1011
1.0
1021
0.0
1031
0.0
1021
0.0
1031
0.0
1011
0.0
1021
1.0
1031
0.0
1021
1.0
1031
0.0
1011
0.0
1021
0.0
1031
1.0
1021
0.0
1031
1.0
1040
0.0
1010
0.0
1020
0.0
1030
1.0
1000
ANSI37
1070
     0
1070
     1
1071
        2
1071
        7
1070
     1
1070
     1
1071
       15
1040
23.56599999997638
1040
8.999899999990987
1040
0.0
1040
19.53899999998043
1040
-0.0001000000000317
1040
0.0
1040
19.53899999998043
1040
0.0
1040
0.0
1040
21.09599999997886
1040
0.0
1040
0.0
1040
21.09599999997886
1040
-0.0001000000000317
1040
0.0
1040
22.15599999997789
1040
2.368399999997621
1040
0.0
1040
24.97599999997499
1040
2.368399999997621
1040
0.0
1040
26.02015566812236
1040
0.0330999999912365
1040
0.0
1040
28.40199999996923
1040
0.0330999999912365
1040
0.414213562373095
1040
30.74199999996923
1040
2.373099999991211
1040
0.0
1040
30.74199999996927
1040
8.763099999991255
1040
0.0
1040
29.30199999996933
1040
8.763099999991255
1040
0.0
1040
29.30199999996933
1040
2.283099999991236
1040
-0.414213562373095
1040
28.40199999996923
1040
1.383099999991237
1040
0.0
1040
26.97358892824991
1040
1.383099999991202
1040
0.0
1071
       13
1005
2031E
1005
2032B
1005
2032C
1005
2032A
1005
2032D
1005
20354
1005
20358
1005
20353
1005
20352
1005
20355
1005
20357
1005
20356
1005
2031F
1071
       22
1070
     0
1070
     1
1071
        3
1040
22.7389999999773
1040
3.670999999996297
1040
23.56599999997638
1040
5.5200999999945
1040
24.39299999997559
1040
3.670999999996297
1071
        3
1005
20338
1005
2033D
1005
20339
1070
     0
1070
     1
1040
0.0
1040
0.15
1070
     0
1070
     2
1040
0.7853981633974483
1040
49.29960901727088
1040
-10.17736998311392
1040
-0.3367596045400932
1040
0.3367596045400932
1070
     0
1040
2.356194490192345
1040
49.29960901727088
1040
-10.17736998311392
1040
-0.3367596045400932
1040
-0.3367596045400932
1070
     0
1040
0.0110235143455945
1071
        2
1040
21.97929957367762
1040
3.294304244259308
1040
0.0
1040
21.97929957367762
1040
3.294304244259308
1040
0.0
1002
}
  0
INSERT
  5
2035C
  8
0
  2
*X238
 10
0.0
 20
0.0
 30
0.0
1001
ACAD
1000
HATCH
1002
{
1070
    19
1000
ANSI37
1040
0.15
1040
0.0
1000
R14_HATCH_DATA
1000
2035C
1011
1.0
1021
0.0
1031
0.0
1021
0.0
1031
0.0
1011
0.0
1021
1.0
1031
0.0
1021
1.0
1031
0.0
1011
0.0
1021
0.0
1031
1.0
1021
0.0
1031
1.0
1040
0.0
1010
0.0
1020
0.0
1030
1.0
1000
ANSI37
1070
     0
1070
     1
1071
        1
1071
        7
1070
     1
1070
     1
1071
       12
1040
31.64199999996833
1040
2.481619422925121
1040
0.2679491924310942
1040
32.94699999997067
1040
0.2212931190493919
1040
0.2679491924301353
1040
36.36699999995983
1040
0.2212931190459813
1040
0.2679491924321411
1040
37.67199999996831
1040
2.481619422928361
1040
0.0
1040
37.67199999996831
1040
8.763099999991255
1040
0.0
1040
36.23199999996837
1040
8.763099999991255
1040
0.0
1040
36.23199999996837
1040
2.481619422925064
1040
-0.2679491924310291
1040
35.64699999996708
1040
1.468369700498386
1040
-0.267949192430519
1040
33.66699999997093
1040
1.468369700497703
1040
-0.267949192431809
1040
33.08199999996839
1040
2.481619422926997
1040
0.0
1040
33.08199999996839
1040
8.763099999991255
1040
0.0
1040
31.64199999996833
1040
8.763099999991255
1040
0.0
1071
        0
1070
     0
1070
     1
1040
0.0
1040
0.15
1070
     0
1070
     2
1040
0.7853981633974483
1040
49.29960901727088
1040
-10.17736998311392
1040
-0.3367596045400932
1040
0.3367596045400932
1070
     0
1040
2.356194490192345
1040
49.29960901727088
1040
-10.17736998311392
1040
-0.3367596045400932
1040
-0.3367596045400932
1070
     0
1040
0.0110235143455945
1071
        1
1040
32.30357378967278
1040
3.988785755459219
1040
0.0
1002
}
  0
INSERT
  5
2035D
  8
0
  2
*X239
 10
0.0
 20
0.0
 30
0.0
1001
ACAD
1000
HATCH
1002
{
1070
    19
1000
ANSI37
1040
0.15
1040
0.0
1000
ASC_BOUNDS
1070
     1
1070
     2
1070
     8
1005
2033E
1005
20341
1005
20345
1005
20344
1005
20343
1005
20340
1005
20342
1005
2033F
1000
ASC_SEEDPOINT
1011
39.74896370716704
1021
4.484843821435049
1031
0.0
1021
4.484843821435049
1031
0.0
1000
R14_HATCH_DATA
1000
2035D
1011
1.0
1021
0.0
1031
0.0
1021
0.0
1031
0.0
1011
0.0
1021
1.0
1031
0.0
1021
1.0
1031
0.0
1011
0.0
1021
0.0
1031
1.0
1021
0.0
1031
1.0
1040
0.0
1010
0.0
1020
0.0
1030
1.0
1000
ANSI37
1070
     0
1070
     1
1071
        1
1071
        7
1070
     0
1070
     1
1071
        9
1040
40.02599999995994
1040
5.341799999994635
1040
44.99999999995498
1040
-0.2368999999997641
1040
44.99999999995498
1040
8.763099999991255
1040
43.57899999995641
1040
8.763099999991255
1040
43.57899999995641
1040
3.421199999996588
1040
38.60499999996136
1040
8.999899999990987
1040
38.60499999996136
1040
8.999999999991019
1040
38.60499999996136
1040
0.0
1040
40.02599999995994
1040
0.0
1071
        8
1005
2033E
1005
20341
1005
20345
1005
20344
1005
20343
1005
20340
1005
20342
1005
2033F
1070
     0
1070
     1
1040
0.0
1040
0.15
1070
     0
1070
     2
1040
0.7853981633974483
1040
49.29960901727088
1040
-10.17736998311392
1040
-0.3367596045400932
1040
0.3367596045400932
1070
     0
1040
2.356194490192345
1040
49.29960901727088
1040
-10.17736998311392
1040
-0.3367596045400932
1040
-0.3367596045400932
1070
     0
1040
0.0110235143455945
1071
        1
1040
39.74896370716704
1040
4.484843821435049
1040
0.0
1002
}
  0
INSERT
  5
2035E
  8
0
  2
*X240
 10
0.0
 20
0.0
 30
0.0
1001
ACAD
1000
HATCH
1002
{
1070
    19
1000
ANSI37
1040
0.15
1040
0.0
1000
ASC_BOUNDS
1070
     1
1070
     2
1070
     4
1005
20322
1005
20331
1005
20323
1005
20325
1000
ASC_SEEDPOINT
1011
1.079051535452663
1021
4.148538732891836
1031
0.0
1021
4.148538732891836
1031
0.0
1000
R14_HATCH_DATA
1000
2035E
1011
1.0
1021
0.0
1031
0.0
1021
0.0
1031
0.0
1011
0.0
1021
1.0
1031
0.0
1021
1.0
1031
0.0
1011
0.0
1021
0.0
1031
1.0
1021
0.0
1031
1.0
1040
0.0
1010
0.0
1020
0.0
1030
1.0
1000
ANSI37
1070
     0
1070
     1
1071
        1
1071
        7
1070
     0
1070
     1
1071
        4
1040
1.420999999998571
1040
0.0
1040
1.420999999998571
1040
8.763099999991255
1040
0.0
1040
8.763099999991255
1040
0.0
1040
0.0
1071
        4
1005
20322
1005
20331
1005
20323
1005
20325
1070
     0
1070
     1
1040
0.0
1040
0.15
1070
     0
1070
     2
1040
0.7853981633974483
1040
49.29960901727088
1040
-10.17736998311392
1040
-0.3367596045400932
1040
0.3367596045400932
1070
     0
1040
2.356194490192345
1040
49.29960901727088
1040
-10.17736998311392
1040
-0.3367596045400932
1040
-0.3367596045400932
1070
     0
1040
0.0053004257112761
1071
        1
1040
1.079051535452663
1040
4.148538732891836
1040
0.0
1002
}
  0
ENDBLK
  5
20A16
  8
0
  0
BLOCK
  8
0
  2
*X235
 70
     1
 10
0.0
 20
0.0
 30
0.0
  3
*X235
  1

  0
LINE
  5
24057
  8
0
  6
CONTINUOUS
 10
3.418023043697893
 20
7.251849696850613
 30
0.0
 11
4.929273346838536
 21
8.763099999991255
 31
0.0
  0
LINE
  5
24058
  8
0
  6
CONTINUOUS
 10
1.483656411257782
 20
4.643963855330318
 30
0.0
 11
5.60279255591872
 21
8.763099999991255
 31
0.0
  0
LINE
  5
24059
  8
0
  6
CONTINUOUS
 10
1.755053947328235
 20
4.241842182320584
 30
0.0
 11
6.276311764998907
 21
8.763099999991255
 31
0.0
  0
LINE
  5
2405A
  8
0
  6
CONTINUOUS
 10
2.026451483398688
 20
3.839720509310849
 30
0.0
 11
4.441040904851878
 21
6.254309930764039
 31
0.0
  0
LINE
  5
2405B
  8
0
  6
CONTINUOUS
 10
2.297849019469139
 20
3.437598836301114
 30
0.0
 11
3.321765168359338
 21
4.461514985191313
 31
0.0
  0
LINE
  5
2405C
  8
0
  6
CONTINUOUS
 10
2.569246555539591
 20
3.03547716329138
 30
0.0
 11
3.593163397972743
 21
4.059394005724531
 31
0.0
  0
LINE
  5
2405D
  8
0
  6
CONTINUOUS
 10
2.840644091610043
 20
2.633355490281646
 30
0.0
 11
3.864561627586149
 21
3.657273026257751
 31
0.0
  0
LINE
  5
2405E
  8
0
  6
CONTINUOUS
 10
3.112041627680496
 20
2.231233817271911
 30
0.0
 11
4.135959857199554
 21
3.25515204679097
 31
0.0
  0
LINE
  5
2405F
  8
0
  6
CONTINUOUS
 10
3.383439163750948
 20
1.829112144262177
 30
0.0
 11
4.40735808681296
 21
2.853031067324189
 31
0.0
  0
LINE
  5
24060
  8
0
  6
CONTINUOUS
 10
3.654836699821399
 20
1.426990471252442
 30
0.0
 11
4.678756316426365
 21
2.450910087857407
 31
0.0
  0
LINE
  5
24061
  8
0
  6
CONTINUOUS
 10
3.926234235891853
 20
1.024868798242709
 30
0.0
 11
4.95015454603977
 21
2.048789108390626
 31
0.0
  0
LINE
  5
24062
  8
0
  6
CONTINUOUS
 10
4.197631771962304
 20
0.6227471252329737
 30
0.0
 11
5.221552775653176
 21
1.646668128923846
 31
0.0
  0
LINE
  5
24063
  8
0
  6
CONTINUOUS
 10
8.715877546767851
 20
7.835069736359266
 30
0.0
 11
9.435953450375058
 21
8.555145639966472
 31
0.0
  0
LINE
  5
24064
  8
0
  6
CONTINUOUS
 10
8.170620868422267
 20
6.616293848933497
 30
0.0
 11
9.644120833743461
 21
8.08979381425469
 31
0.0
  0
LINE
  5
24065
  8
0
  6
CONTINUOUS
 10
7.625364190076684
 20
5.397517961507727
 30
0.0
 11
9.852288217111864
 21
7.624441988542907
 31
0.0
  0
LINE
  5
24066
  8
0
  6
CONTINUOUS
 10
7.080107511731101
 20
4.178742074081957
 30
0.0
 11
10.06045560048027
 21
7.159090162831124
 31
0.0
  0
LINE
  5
24067
  8
0
  6
CONTINUOUS
 10
6.534850833385518
 20
2.959966186656187
 30
0.0
 11
10.26862298384867
 21
6.693738337119342
 31
0.0
  0
LINE
  5
24068
  8
0
  6
CONTINUOUS
 10
4.469029308032756
 20
0.2206254522232385
 30
0.0
 11
5.492951005266582
 21
1.244547149457064
 31
0.0
  0
LINE
  5
24069
  8
0
  6
CONTINUOUS
 10
5.989594155039935
 20
1.741190299230417
 30
0.0
 11
8.806950407233131
 21
4.558546551423613
 31
0.0
  0
LINE
  5
2406A
  8
0
  6
CONTINUOUS
 10
9.401251593263643
 20
5.152847737454126
 30
0.0
 11
10.47679036721708
 21
6.228386511407559
 31
0.0
  0
LINE
  5
2406B
  8
0
  6
CONTINUOUS
 10
4.921837203428691
 20
-0.0000858614610131
 30
0.0
 11
8.592923064886001
 21
3.670999999996297
 31
0.0
  0
LINE
  5
2406C
  8
0
  6
CONTINUOUS
 10
9.609390446785305
 20
4.6874673818956
 30
0.0
 11
10.68495775058548
 21
5.763034685695775
 31
0.0
  0
LINE
  5
2406D
  8
0
  6
CONTINUOUS
 10
5.595387755019432
 20
-0.0000545189504582
 30
0.0
 11
7.716137258923768
 21
2.120694984953879
 31
0.0
  0
LINE
  5
2406E
  8
0
  6
CONTINUOUS
 10
6.268938306610172
 20
-0.000023176439905
 30
0.0
 11
7.170485805526503
 21
0.9015243224764267
 31
0.0
  0
LINE
  5
2406F
  8
0
  6
CONTINUOUS
 10
7.963842273967511
 20
2.368399999997621
 30
0.0
 11
9.266442273966188
 21
3.670999999996297
 31
0.0
  0
LINE
  5
24070
  8
0
  6
CONTINUOUS
 10
8.637361483047696
 20
2.368399999997621
 30
0.0
 11
9.939961483046375
 21
3.670999999996297
 31
0.0
  0
LINE
  5
24071
  8
0
  6
CONTINUOUS
 10
9.817529300306965
 20
4.222087026337075
 30
0.0
 11
10.89312513395388
 21
5.297682859983993
 31
0.0
  0
LINE
  5
24072
  8
0
  6
CONTINUOUS
 10
10.02566815382863
 20
3.756706670778549
 30
0.0
 11
11.10129251732229
 21
4.832331034272211
 31
0.0
  0
LINE
  5
24073
  8
0
  6
CONTINUOUS
 10
9.310880692127883
 20
2.368399999997621
 30
0.0
 11
11.30945990069069
 21
4.366979208560428
 31
0.0
  0
LINE
  5
24074
  8
0
  6
CONTINUOUS
 10
9.98439990120807
 20
2.36839999999762
 30
0.0
 11
11.5176272840591
 21
3.901627382848645
 31
0.0
  0
LINE
  5
24075
  8
0
  6
CONTINUOUS
 10
10.65037369446246
 20
2.36085458417182
 30
0.0
 11
11.7257946674275
 21
3.436275557136862
 31
0.0
  0
LINE
  5
24076
  8
0
  6
CONTINUOUS
 10
10.85847197087848
 20
1.895433651507656
 30
0.0
 11
11.9339620507959
 21
2.97092373142508
 31
0.0
  0
LINE
  5
24077
  8
0
  6
CONTINUOUS
 10
11.0665702472945
 20
1.430012718843491
 30
0.0
 11
12.14212943416431
 21
2.505571905713296
 31
0.0
  0
LINE
  5
24078
  8
0
  6
CONTINUOUS
 10
11.27466852371052
 20
0.9645917861793256
 30
0.0
 11
12.35029681753271
 21
2.040220080001513
 31
0.0
  0
LINE
  5
24079
  8
0
  6
CONTINUOUS
 10
11.48276680012654
 20
0.4991708535151611
 30
0.0
 11
12.55846420090111
 21
1.57486825428973
 31
0.0
  0
LINE
  5
2407A
  8
0
  6
CONTINUOUS
 10
11.69086507654257
 20
0.0337499208509957
 30
0.0
 11
12.76663158426952
 21
1.109516428577947
 31
0.0
  0
LINE
  5
2407B
  8
0
  6
CONTINUOUS
 10
12.33057447873954
 20
-0.0000598860322123
 30
0.0
 11
12.97479896763792
 21
0.6441646028661663
 31
0.0
  0
LINE
  5
2407C
  8
0
  6
CONTINUOUS
 10
13.00413694809395
 20
-0.0000166257579952
 30
0.0
 11
13.18296635100632
 21
0.1788127771543824
 31
0.0
  0
LINE
  5
2407D
  8
0
  6
CONTINUOUS
 10
4.772852165289667
 20
-0.000092794222212
 30
0.0
 11
4.296495091028902
 21
0.4762642800385528
 31
0.0
  0
LINE
  5
2407E
  8
0
  6
CONTINUOUS
 10
5.446340034776103
 20
-0.0000614546284616
 30
0.0
 11
2.898195908335625
 21
2.548082671812017
 31
0.0
  0
LINE
  5
2407F
  8
0
  6
CONTINUOUS
 10
6.119827904262539
 20
-0.0000301150347113
 30
0.0
 11
1.499896725642348
 21
4.61990106358548
 31
0.0
  0
LINE
  5
24080
  8
0
  6
CONTINUOUS
 10
6.775136745476159
 20
0.0181802528318542
 30
0.0
 11
5.699826040202669
 21
1.093490958105344
 31
0.0
  0
LINE
  5
24081
  8
0
  6
CONTINUOUS
 10
6.983376846288489
 20
0.4834593610997118
 30
0.0
 11
5.908008617934405
 21
1.558827589453796
 31
0.0
  0
LINE
  5
24082
  8
0
  6
CONTINUOUS
 10
5.377063484962296
 20
1.416253513345719
 30
0.0
 11
1.702276957014131
 21
5.091040041293883
 31
0.0
  0
LINE
  5
24083
  8
0
  6
CONTINUOUS
 10
3.978745891735324
 20
3.488090315652877
 30
0.0
 11
2.000373521109399
 21
5.466462686278803
 31
0.0
  0
LINE
  5
24084
  8
0
  6
CONTINUOUS
 10
7.191616947100819
 20
0.948738469367568
 30
0.0
 11
6.11619119566614
 21
2.024164220802247
 31
0.0
  0
LINE
  5
24085
  8
0
  6
CONTINUOUS
 10
7.399857047913149
 20
1.414017577635424
 30
0.0
 11
6.324373773397875
 21
2.489500852150698
 31
0.0
  0
LINE
  5
24086
  8
0
  6
CONTINUOUS
 10
7.608097148725479
 20
1.879296685903281
 30
0.0
 11
6.53255635112961
 21
2.95483748349915
 31
0.0
  0
LINE
  5
24087
  8
0
  6
CONTINUOUS
 10
7.816337249537808
 20
2.344575794171138
 30
0.0
 11
6.740738928861345
 21
3.420174114847601
 31
0.0
  0
LINE
  5
24088
  8
0
  6
CONTINUOUS
 10
3.310241080789734
 20
4.830114335678653
 30
0.0
 11
2.298470085204666
 21
5.84188533126372
 31
0.0
  0
LINE
  5
24089
  8
0
  6
CONTINUOUS
 10
3.60832983563551
 20
5.205544789913063
 30
0.0
 11
2.596566649299935
 21
6.217307976248638
 31
0.0
  0
LINE
  5
2408A
  8
0
  6
CONTINUOUS
 10
3.906418590481286
 20
5.580975244147473
 30
0.0
 11
2.894663213395203
 21
6.592730621233557
 31
0.0
  0
LINE
  5
2408B
  8
0
  6
CONTINUOUS
 10
4.204507345327062
 20
5.956405698381884
 30
0.0
 11
3.192759777490472
 21
6.968153266218474
 31
0.0
  0
LINE
  5
2408C
  8
0
  6
CONTINUOUS
 10
8.466032252791512
 20
2.368399999997621
 30
0.0
 11
6.948921506593081
 21
3.885510746196053
 31
0.0
  0
LINE
  5
2408D
  8
0
  6
CONTINUOUS
 10
9.139551461871699
 20
2.36839999999762
 30
0.0
 11
7.157104084324816
 21
4.350847377544504
 31
0.0
  0
LINE
  5
2408E
  8
0
  6
CONTINUOUS
 10
4.502596100172839
 20
6.331836152616295
 30
0.0
 11
3.49085634158574
 21
7.343575911203393
 31
0.0
  0
LINE
  5
2408F
  8
0
  6
CONTINUOUS
 10
4.800684855018615
 20
6.707266606850705
 30
0.0
 11
3.788952905681008
 21
7.718998556188312
 31
0.0
  0
LINE
  5
24090
  8
0
  6
CONTINUOUS
 10
12.18154012887317
 20
-0.0000694579236642
 30
0.0
 11
11.32140332908496
 21
0.8600673418645499
 31
0.0
  0
LINE
  5
24091
  8
0
  6
CONTINUOUS
 10
12.85501608323566
 20
-0.0000262032059659
 30
0.0
 11
10.77672456435345
 21
2.078265315676246
 31
0.0
  0
LINE
  5
24092
  8
0
  6
CONTINUOUS
 10
9.813070670951886
 20
2.36839999999762
 30
0.0
 11
8.51047067095321
 21
3.670999999996297
 31
0.0
  0
LINE
  5
24093
  8
0
  6
CONTINUOUS
 10
10.48658988003207
 20
2.36839999999762
 30
0.0
 11
9.183989880033396
 21
3.670999999996297
 31
0.0
  0
LINE
  5
24094
  8
0
  6
CONTINUOUS
 10
8.441048632286794
 20
3.740422038662712
 30
0.0
 11
7.365286662056551
 21
4.816184008892956
 31
0.0
  0
LINE
  5
24095
  8
0
  6
CONTINUOUS
 10
8.649187485808454
 20
4.205802394221237
 30
0.0
 11
7.573469239788285
 21
5.281520640241407
 31
0.0
  0
LINE
  5
24096
  8
0
  6
CONTINUOUS
 10
5.098773609864391
 20
7.082697061085115
 30
0.0
 11
4.087049469776277
 21
8.09442120117323
 31
0.0
  0
LINE
  5
24097
  8
0
  6
CONTINUOUS
 10
5.396862364710167
 20
7.458127515319526
 30
0.0
 11
4.385146033871544
 21
8.469843846158149
 31
0.0
  0
LINE
  5
24098
  8
0
  6
CONTINUOUS
 10
13.04801363231285
 20
0.4804954567970334
 30
0.0
 11
9.85750908911358
 21
3.670999999996297
 31
0.0
  0
LINE
  5
24099
  8
0
  6
CONTINUOUS
 10
8.857326339330116
 20
4.671182749779763
 30
0.0
 11
7.781651817520021
 21
5.746857271589858
 31
0.0
  0
LINE
  5
2409A
  8
0
  6
CONTINUOUS
 10
5.694951119555943
 20
7.833557969553937
 30
0.0
 11
4.765409089118624
 21
8.763099999991255
 31
0.0
  0
LINE
  5
2409B
  8
0
  6
CONTINUOUS
 10
12.50286117236978
 20
1.699167125820288
 30
0.0
 11
9.68611877250287
 21
4.515909525687196
 31
0.0
  0
LINE
  5
2409C
  8
0
  6
CONTINUOUS
 10
9.065465192851777
 20
5.136563105338288
 30
0.0
 11
7.989834395251757
 21
6.21219390293831
 31
0.0
  0
LINE
  5
2409D
  8
0
  6
CONTINUOUS
 10
5.993039874401719
 20
8.208988423788346
 30
0.0
 11
5.43892829819881
 21
8.763099999991255
 31
0.0
  0
LINE
  5
2409E
  8
0
  6
CONTINUOUS
 10
11.95770871242671
 20
2.917838794843543
 30
0.0
 11
8.19801697298349
 21
6.677530534286761
 31
0.0
  0
LINE
  5
2409F
  8
0
  6
CONTINUOUS
 10
6.291128629247495
 20
8.584418878022756
 30
0.0
 11
6.112447507278997
 21
8.763099999991255
 31
0.0
  0
LINE
  5
240A0
  8
0
  6
CONTINUOUS
 10
11.41255625248364
 20
4.136510463866797
 30
0.0
 11
8.406199550715227
 21
7.142867165635211
 31
0.0
  0
LINE
  5
240A1
  8
0
  6
CONTINUOUS
 10
10.86740379254057
 20
5.355182132890051
 30
0.0
 11
8.614382128446962
 21
7.608203796983664
 31
0.0
  0
LINE
  5
240A2
  8
0
  6
CONTINUOUS
 10
10.3222513325975
 20
6.573853801913305
 30
0.0
 11
8.822564706178696
 21
8.073540428332114
 31
0.0
  0
LINE
  5
240A3
  8
0
  6
CONTINUOUS
 10
9.777098872654436
 20
7.792525470936562
 30
0.0
 11
9.030747283910433
 21
8.538877059680566
 31
0.0
  0
ENDBLK
  5
241E5
  8
0
  0
BLOCK
  8
0
  2
*X236
 70
     1
 10
0.0
 20
0.0
 30
0.0
  3
*X236
  1

  0
LINE
  5
240A5
  8
0
  6
CONTINUOUS
 10
10.67292308101235
 20
8.445076852443387
 30
0.0
 11
10.99094622856022
 21
8.763099999991255
 31
0.0
  0
LINE
  5
240A6
  8
0
  6
CONTINUOUS
 10
10.87250383178748
 20
7.971138394138331
 30
0.0
 11
11.6644654376404
 21
8.763099999991255
 31
0.0
  0
LINE
  5
240A7
  8
0
  6
CONTINUOUS
 10
11.07208458256261
 20
7.497199935833273
 30
0.0
 11
12.12126590876355
 21
8.546381262034211
 31
0.0
  0
LINE
  5
240A8
  8
0
  6
CONTINUOUS
 10
11.27166533333774
 20
7.023261477528216
 30
0.0
 11
12.32085164573666
 21
8.072447789927136
 31
0.0
  0
LINE
  5
240A9
  8
0
  6
CONTINUOUS
 10
11.47124608411287
 20
6.549323019223158
 30
0.0
 11
12.52043738270977
 21
7.59851431782006
 31
0.0
  0
LINE
  5
240AA
  8
0
  6
CONTINUOUS
 10
11.670826834888
 20
6.075384560918101
 30
0.0
 11
12.72002311968288
 21
7.124580845712984
 31
0.0
  0
LINE
  5
240AB
  8
0
  6
CONTINUOUS
 10
11.87040758566313
 20
5.601446102613043
 30
0.0
 11
12.91960885665599
 21
6.650647373605907
 31
0.0
  0
LINE
  5
240AC
  8
0
  6
CONTINUOUS
 10
12.06998833643825
 20
5.127507644307986
 30
0.0
 11
13.1191945936291
 21
6.176713901498832
 31
0.0
  0
LINE
  5
240AD
  8
0
  6
CONTINUOUS
 10
12.26956908721338
 20
4.65356918600293
 30
0.0
 11
13.31878033060221
 21
5.702780429391757
 31
0.0
  0
LINE
  5
240AE
  8
0
  6
CONTINUOUS
 10
12.46914983798851
 20
4.179630727697873
 30
0.0
 11
13.51836606757532
 21
5.228846957284683
 31
0.0
  0
LINE
  5
240AF
  8
0
  6
CONTINUOUS
 10
12.66873058876364
 20
3.705692269392816
 30
0.0
 11
13.71795180454843
 21
4.754913485177607
 31
0.0
  0
LINE
  5
240B0
  8
0
  6
CONTINUOUS
 10
12.86831133953877
 20
3.231753811087759
 30
0.0
 11
13.91753754152154
 21
4.280980013070531
 31
0.0
  0
LINE
  5
240B1
  8
0
  6
CONTINUOUS
 10
13.0678920903139
 20
2.757815352782702
 30
0.0
 11
14.11712327849465
 21
3.807046540963456
 31
0.0
  0
LINE
  5
240B2
  8
0
  6
CONTINUOUS
 10
13.26747284108903
 20
2.283876894477644
 30
0.0
 11
14.31670901546777
 21
3.333113068856379
 31
0.0
  0
LINE
  5
240B3
  8
0
  6
CONTINUOUS
 10
16.36767838827179
 20
8.751678487061342
 30
0.0
 11
16.50332410898388
 21
8.887324207773432
 31
0.0
  0
LINE
  5
240B4
  8
0
  6
CONTINUOUS
 10
15.96190732182191
 20
7.67238821153127
 30
0.0
 11
16.68735328004734
 21
8.397834169756699
 31
0.0
  0
LINE
  5
240B5
  8
0
  6
CONTINUOUS
 10
15.55613625537202
 20
6.593097936001196
 30
0.0
 11
16.87138245111079
 21
7.908344131739965
 31
0.0
  0
LINE
  5
240B6
  8
0
  6
CONTINUOUS
 10
15.15036518892213
 20
5.513807660471122
 30
0.0
 11
17.05541162217424
 21
7.418854093723231
 31
0.0
  0
LINE
  5
240B7
  8
0
  6
CONTINUOUS
 10
14.74459412247225
 20
4.434517384941048
 30
0.0
 11
17.2394407932377
 21
6.929364055706499
 31
0.0
  0
LINE
  5
240B8
  8
0
  6
CONTINUOUS
 10
14.33882305602236
 20
3.355227109410975
 30
0.0
 11
17.42346996430115
 21
6.439874017689766
 31
0.0
  0
LINE
  5
240B9
  8
0
  6
CONTINUOUS
 10
13.46705359186416
 20
1.809938436172586
 30
0.0
 11
16.0819338255367
 21
4.424818669845129
 31
0.0
  0
LINE
  5
240BA
  8
0
  6
CONTINUOUS
 10
16.63283254238972
 20
4.975717386698149
 30
0.0
 11
17.60749913536461
 21
5.950383979673033
 31
0.0
  0
LINE
  5
240BB
  8
0
  6
CONTINUOUS
 10
13.66663434263929
 20
1.335999977867529
 30
0.0
 11
15.67604797733754
 21
3.345413612565779
 31
0.0
  0
LINE
  5
240BC
  8
0
  6
CONTINUOUS
 10
13.86621509341442
 20
0.8620615195624723
 30
0.0
 11
15.27016212913838
 21
2.26600855528643
 31
0.0
  0
LINE
  5
240BD
  8
0
  6
CONTINUOUS
 10
16.81682257348267
 20
4.486188208710908
 30
0.0
 11
17.79152830642806
 21
5.460893941656299
 31
0.0
  0
LINE
  5
240BE
  8
0
  6
CONTINUOUS
 10
17.00081260457561
 20
3.996659030723667
 30
0.0
 11
17.97555747749151
 21
4.971403903639565
 31
0.0
  0
LINE
  5
240BF
  8
0
  6
CONTINUOUS
 10
20.74362343514722
 20
8.412989070375462
 30
0.0
 11
21.09373436476302
 21
8.763099999991256
 31
0.0
  0
LINE
  5
240C0
  8
0
  6
CONTINUOUS
 10
20.25401257174777
 20
7.249858997895826
 30
0.0
 11
21.7672535738432
 21
8.763099999991255
 31
0.0
  0
LINE
  5
240C1
  8
0
  6
CONTINUOUS
 10
14.06579584418955
 20
0.3881230612574149
 30
0.0
 11
14.86427628093921
 21
1.186603498007082
 31
0.0
  0
LINE
  5
240C2
  8
0
  6
CONTINUOUS
 10
14.26537659496467
 20
-0.0858153970476412
 30
0.0
 11
14.45839043274005
 21
0.1071984407277329
 31
0.0
  0
LINE
  5
240C3
  8
0
  6
CONTINUOUS
 10
17.18480263566856
 20
3.507129852736426
 30
0.0
 11
18.15958664855496
 21
4.481913865622833
 31
0.0
  0
LINE
  5
240C4
  8
0
  6
CONTINUOUS
 10
17.3687926667615
 20
3.017600674749186
 30
0.0
 11
18.34361581961842
 21
3.9924238276061
 31
0.0
  0
LINE
  5
240C5
  8
0
  6
CONTINUOUS
 10
19.76440170834832
 20
6.086728925416191
 30
0.0
 11
22.33924590259489
 21
8.661573119662755
 31
0.0
  0
LINE
  5
240C6
  8
0
  6
CONTINUOUS
 10
19.27479084494887
 20
4.923598852936555
 30
0.0
 11
21.84929622842713
 21
7.498104236414807
 31
0.0
  0
LINE
  5
240C7
  8
0
  6
CONTINUOUS
 10
17.55278269785445
 20
2.528071496761945
 30
0.0
 11
18.52764499068187
 21
3.502933789589366
 31
0.0
  0
LINE
  5
240C8
  8
0
  6
CONTINUOUS
 10
18.78517998154942
 20
3.760468780456919
 30
0.0
 11
21.35934655425936
 21
6.33463535316686
 31
0.0
  0
LINE
  5
240C9
  8
0
  6
CONTINUOUS
 10
17.73677272894739
 20
2.038542318774704
 30
0.0
 11
20.8693968800916
 21
5.171166469918914
 31
0.0
  0
LINE
  5
240CA
  8
0
  6
CONTINUOUS
 10
17.92076276004034
 20
1.549013140787464
 30
0.0
 11
20.37944720592384
 21
4.007697586670968
 31
0.0
  0
LINE
  5
240CB
  8
0
  6
CONTINUOUS
 10
18.10475279113329
 20
1.059483962800223
 30
0.0
 11
19.88949753175608
 21
2.84422870342302
 31
0.0
  0
LINE
  5
240CC
  8
0
  6
CONTINUOUS
 10
18.28874282222623
 20
0.5699547848129822
 30
0.0
 11
19.39954785758832
 21
1.680759820175074
 31
0.0
  0
LINE
  5
240CD
  8
0
  6
CONTINUOUS
 10
18.47273285331918
 20
0.0804256068257416
 30
0.0
 11
18.90959818342056
 21
0.517290936927127
 31
0.0
  0
LINE
  5
240CE
  8
0
  6
CONTINUOUS
 10
14.3590401358224
 20
-0.1570118376323384
 30
0.0
 11
14.24903296539946
 21
-0.0470046672093929
 31
0.0
  0
LINE
  5
240CF
  8
0
  6
CONTINUOUS
 10
14.54309291258661
 20
0.332454594683643
 30
0.0
 11
13.75908329123172
 21
1.116464216038529
 31
0.0
  0
LINE
  5
240D0
  8
0
  6
CONTINUOUS
 10
14.72714568935081
 20
0.8219210269996244
 30
0.0
 11
13.26913361706399
 21
2.27993309928645
 31
0.0
  0
LINE
  5
240D1
  8
0
  6
CONTINUOUS
 10
14.91119846611502
 20
1.311387459315606
 30
0.0
 11
12.77918394289625
 21
3.443401982534371
 31
0.0
  0
LINE
  5
240D2
  8
0
  6
CONTINUOUS
 10
15.09525124287922
 20
1.800853891631587
 30
0.0
 11
12.28923426872852
 21
4.606870865782293
 31
0.0
  0
LINE
  5
240D3
  8
0
  6
CONTINUOUS
 10
15.27930401964343
 20
2.290320323947569
 30
0.0
 11
11.79928459456078
 21
5.770339749030213
 31
0.0
  0
LINE
  5
240D4
  8
0
  6
CONTINUOUS
 10
15.46335679640763
 20
2.77978675626355
 30
0.0
 11
14.48885470994921
 21
3.754288842721972
 31
0.0
  0
LINE
  5
240D5
  8
0
  6
CONTINUOUS
 10
13.88507249233704
 20
4.358071060334137
 30
0.0
 11
11.30933492039305
 21
6.933808632278135
 31
0.0
  0
LINE
  5
240D6
  8
0
  6
CONTINUOUS
 10
18.75840522805855
 20
0.1582575336928151
 30
0.0
 11
18.25383727664818
 21
0.6628254851031863
 31
0.0
  0
LINE
  5
240D7
  8
0
  6
CONTINUOUS
 10
15.64740957317184
 20
3.269253188579531
 30
0.0
 11
14.67288388101266
 21
4.243778880738705
 31
0.0
  0
LINE
  5
240D8
  8
0
  6
CONTINUOUS
 10
13.39509276772158
 20
5.521569994029786
 30
0.0
 11
10.81938524622531
 21
8.097277515526056
 31
0.0
  0
LINE
  5
240D9
  8
0
  6
CONTINUOUS
 10
18.95798597883369
 20
0.6321959919978686
 30
0.0
 11
17.84825644852853
 21
1.741925522303024
 31
0.0
  0
LINE
  5
240DA
  8
0
  6
CONTINUOUS
 10
19.15756672960882
 20
1.106134450302922
 30
0.0
 11
17.44267562040888
 21
2.821025559502861
 31
0.0
  0
LINE
  5
240DB
  8
0
  6
CONTINUOUS
 10
15.83146234993604
 20
3.758719620895513
 30
0.0
 11
14.85691305207612
 21
4.733268918755439
 31
0.0
  0
LINE
  5
240DC
  8
0
  6
CONTINUOUS
 10
16.01551512670025
 20
4.248186053211494
 30
0.0
 11
15.04094222313957
 21
5.222758956772172
 31
0.0
  0
LINE
  5
240DD
  8
0
  6
CONTINUOUS
 10
12.90511304310612
 20
6.685068927725435
 30
0.0
 11
10.8270819708403
 21
8.763099999991255
 31
0.0
  0
LINE
  5
240DE
  8
0
  6
CONTINUOUS
 10
12.41513331849066
 20
7.848567861421083
 30
0.0
 11
11.50060117992049
 21
8.763099999991255
 31
0.0
  0
LINE
  5
240DF
  8
0
  6
CONTINUOUS
 10
19.35714748038395
 20
1.580072908607975
 30
0.0
 11
17.03709479228923
 21
3.900125596702697
 31
0.0
  0
LINE
  5
240E0
  8
0
  6
CONTINUOUS
 10
19.55672823115909
 20
2.054011366913028
 30
0.0
 11
16.63151396416958
 21
4.979225633902534
 31
0.0
  0
LINE
  5
240E1
  8
0
  6
CONTINUOUS
 10
16.19956790346445
 20
4.737652485527476
 30
0.0
 11
15.22497139420302
 21
5.712248994788904
 31
0.0
  0
LINE
  5
240E2
  8
0
  6
CONTINUOUS
 10
16.38362068022866
 20
5.227118917843457
 30
0.0
 11
15.40900056526648
 21
6.201739032805637
 31
0.0
  0
LINE
  5
240E3
  8
0
  6
CONTINUOUS
 10
19.75630898193422
 20
2.527949825218081
 30
0.0
 11
18.70774536448286
 21
3.576513442669441
 31
0.0
  0
LINE
  5
240E4
  8
0
  6
CONTINUOUS
 10
19.95588973270936
 20
3.001888283523134
 30
0.0
 11
18.90726987211446
 21
4.050508144118028
 31
0.0
  0
LINE
  5
240E5
  8
0
  6
CONTINUOUS
 10
20.15547048348449
 20
3.475826741828186
 30
0.0
 11
19.10679437974606
 21
4.524502845566614
 31
0.0
  0
LINE
  5
240E6
  8
0
  6
CONTINUOUS
 10
20.35505123425962
 20
3.94976520013324
 30
0.0
 11
19.30631888737766
 21
4.998497547015201
 31
0.0
  0
LINE
  5
240E7
  8
0
  6
CONTINUOUS
 10
20.55463198503475
 20
4.423703658438292
 30
0.0
 11
19.50584339500926
 21
5.472492248463787
 31
0.0
  0
LINE
  5
240E8
  8
0
  6
CONTINUOUS
 10
18.37481191085755
 20
3.909446896294752
 30
0.0
 11
15.59302973632993
 21
6.691229070822371
 31
0.0
  0
LINE
  5
240E9
  8
0
  6
CONTINUOUS
 10
17.96904084440766
 20
4.988737171824825
 30
0.0
 11
15.77705890739338
 21
7.180719108839104
 31
0.0
  0
LINE
  5
240EA
  8
0
  6
CONTINUOUS
 10
17.56326977795777
 20
6.068027447354899
 30
0.0
 11
15.96108807845684
 21
7.670209146855838
 31
0.0
  0
LINE
  5
240EB
  8
0
  6
CONTINUOUS
 10
17.15749871150789
 20
7.147317722884972
 30
0.0
 11
16.14511724952029
 21
8.15969918487257
 31
0.0
  0
LINE
  5
240EC
  8
0
  6
CONTINUOUS
 10
16.751727645058
 20
8.226607998415046
 30
0.0
 11
16.32914642058374
 21
8.649189222889303
 31
0.0
  0
LINE
  5
240ED
  8
0
  6
CONTINUOUS
 10
20.75421273580989
 20
4.897642116743345
 30
0.0
 11
19.70536790264086
 21
5.946486949912374
 31
0.0
  0
LINE
  5
240EE
  8
0
  6
CONTINUOUS
 10
20.95379348658502
 20
5.371580575048398
 30
0.0
 11
19.90489241027246
 21
6.42048165136096
 31
0.0
  0
LINE
  5
240EF
  8
0
  6
CONTINUOUS
 10
21.15337423736015
 20
5.845519033353452
 30
0.0
 11
20.10441691790406
 21
6.894476352809547
 31
0.0
  0
LINE
  5
240F0
  8
0
  6
CONTINUOUS
 10
21.35295498813529
 20
6.319457491658505
 30
0.0
 11
20.30394142553566
 21
7.368471054258134
 31
0.0
  0
LINE
  5
240F1
  8
0
  6
CONTINUOUS
 10
21.55253573891042
 20
6.793395949963558
 30
0.0
 11
20.50346593316726
 21
7.842465755706721
 31
0.0
  0
LINE
  5
240F2
  8
0
  6
CONTINUOUS
 10
21.75211648968556
 20
7.267334408268612
 30
0.0
 11
20.70299044079886
 21
8.316460457155308
 31
0.0
  0
LINE
  5
240F3
  8
0
  6
CONTINUOUS
 10
21.95169724046069
 20
7.741272866573663
 30
0.0
 11
20.9298701070431
 21
8.763099999991256
 31
0.0
  0
LINE
  5
240F4
  8
0
  6
CONTINUOUS
 10
22.15127799123582
 20
8.215211324878716
 30
0.0
 11
21.60338931612328
 21
8.763099999991256
 31
0.0
  0
LINE
  5
240F5
  8
0
  6
CONTINUOUS
 10
22.35085874201096
 20
8.689149783183769
 30
0.0
 11
22.27690852520347
 21
8.763099999991255
 31
0.0
  0
ENDBLK
  5
241E7
  8
0
  0
BLOCK
  8
0
  2
*X237
 70
     1
 10
0.0
 20
0.0
 30
0.0
  3
*X237
  1

  0
LINE
  5
240F7
  8
0
  6
CONTINUOUS
 10
23.19462913593892
 20
8.169917934846424
 30
0.0
 11
23.70775465517246
 21
8.683043454079957
 31
0.0
  0
LINE
  5
240F8
  8
0
  6
CONTINUOUS
 10
22.64923161835078
 20
6.951001208178088
 30
0.0
 11
23.9159364069932
 21
8.217705996820516
 31
0.0
  0
LINE
  5
240F9
  8
0
  6
CONTINUOUS
 10
22.10383410076263
 20
5.732084481509751
 30
0.0
 11
24.12411815881395
 21
7.752368539561078
 31
0.0
  0
LINE
  5
240FA
  8
0
  6
CONTINUOUS
 10
21.55843658317447
 20
4.513167754841414
 30
0.0
 11
24.3322999106347
 21
7.287031082301639
 31
0.0
  0
LINE
  5
240FB
  8
0
  6
CONTINUOUS
 10
21.01303906558632
 20
3.294251028173077
 30
0.0
 11
24.54048166245544
 21
6.821693625042199
 31
0.0
  0
LINE
  5
240FC
  8
0
  6
CONTINUOUS
 10
20.46764154799817
 20
2.075334301504738
 30
0.0
 11
23.28571549467848
 21
4.89340824818505
 31
0.0
  0
LINE
  5
240FD
  8
0
  6
CONTINUOUS
 10
19.92224403041002
 20
0.8564175748364002
 30
0.0
 11
22.74075865492779
 21
3.674932199354171
 31
0.0
  0
LINE
  5
240FE
  8
0
  6
CONTINUOUS
 10
23.67305085490148
 20
5.280743608408048
 30
0.0
 11
24.74866341427619
 21
6.356356167782759
 31
0.0
  0
LINE
  5
240FF
  8
0
  6
CONTINUOUS
 10
23.88118970842314
 20
4.815363252849522
 30
0.0
 11
24.95684516609694
 21
5.89101871052332
 31
0.0
  0
LINE
  5
24100
  8
0
  6
CONTINUOUS
 10
19.73925852647308
 20
-0.0000871381807288
 30
0.0
 11
23.4103456646501
 21
3.670999999996297
 31
0.0
  0
LINE
  5
24101
  8
0
  6
CONTINUOUS
 10
24.0893285619448
 20
4.349982897290997
 30
0.0
 11
25.16502691791769
 21
5.42568125326388
 31
0.0
  0
LINE
  5
24102
  8
0
  6
CONTINUOUS
 10
20.41282099582748
 20
-0.0000438779065108
 30
0.0
 11
21.64944178675636
 21
1.236576913022366
 31
0.0
  0
LINE
  5
24103
  8
0
  6
CONTINUOUS
 10
22.78126487373161
 20
2.36839999999762
 30
0.0
 11
24.08386487373029
 21
3.670999999996297
 31
0.0
  0
LINE
  5
24104
  8
0
  6
CONTINUOUS
 10
24.29746741546646
 20
3.884602541732471
 30
0.0
 11
25.37320866973843
 21
4.960343796004441
 31
0.0
  0
LINE
  5
24105
  8
0
  6
CONTINUOUS
 10
21.08638346518189
 20
-0.0000006176322938
 30
0.0
 11
21.10379033335899
 21
0.0174062505448083
 31
0.0
  0
LINE
  5
24106
  8
0
  6
CONTINUOUS
 10
23.4547840828118
 20
2.36839999999762
 30
0.0
 11
25.58139042155918
 21
4.495006338745002
 31
0.0
  0
LINE
  5
24107
  8
0
  6
CONTINUOUS
 10
29.30199999996933
 20
8.215615917155148
 30
0.0
 11
29.84948408280543
 21
8.763099999991255
 31
0.0
  0
LINE
  5
24108
  8
0
  6
CONTINUOUS
 10
24.12830329189199
 20
2.36839999999762
 30
0.0
 11
25.78957217337993
 21
4.029668881485562
 31
0.0
  0
LINE
  5
24109
  8
0
  6
CONTINUOUS
 10
29.30199999996933
 20
7.54209670807496
 30
0.0
 11
30.52300329188562
 21
8.763099999991255
 31
0.0
  0
LINE
  5
2410A
  8
0
  6
CONTINUOUS
 10
24.80182250097217
 20
2.36839999999762
 30
0.0
 11
25.99775392520067
 21
3.564331424226122
 31
0.0
  0
LINE
  5
2410B
  8
0
  6
CONTINUOUS
 10
29.30199999996933
 20
6.868577498994774
 30
0.0
 11
30.74199999996926
 21
8.308577498994712
 31
0.0
  0
LINE
  5
2410C
  8
0
  6
CONTINUOUS
 10
25.13028238392013
 20
2.023340673865392
 30
0.0
 11
26.20593567702142
 21
3.098993966966683
 31
0.0
  0
LINE
  5
2410D
  8
0
  6
CONTINUOUS
 10
25.33838066033617
 20
1.557919741201244
 30
0.0
 11
26.41411742884217
 21
2.633656509707244
 31
0.0
  0
LINE
  5
2410E
  8
0
  6
CONTINUOUS
 10
25.54647893675221
 20
1.092498808537098
 30
0.0
 11
26.62229918066291
 21
2.168319052447804
 31
0.0
  0
LINE
  5
2410F
  8
0
  6
CONTINUOUS
 10
25.75457721316825
 20
0.62707787587295
 30
0.0
 11
26.83048093248366
 21
1.702981595188365
 31
0.0
  0
LINE
  5
24110
  8
0
  6
CONTINUOUS
 10
29.30199999996933
 20
6.195058289914587
 30
0.0
 11
30.74199999996926
 21
7.635058289914522
 31
0.0
  0
LINE
  5
24111
  8
0
  6
CONTINUOUS
 10
29.30199999996933
 20
5.521539080834401
 30
0.0
 11
30.74199999996926
 21
6.961539080834331
 31
0.0
  0
LINE
  5
24112
  8
0
  6
CONTINUOUS
 10
29.30199999996933
 20
4.848019871754214
 30
0.0
 11
30.74199999996925
 21
6.288019871754143
 31
0.0
  0
LINE
  5
24113
  8
0
  6
CONTINUOUS
 10
29.30199999996933
 20
4.174500662674028
 30
0.0
 11
30.74199999996925
 21
5.614500662673953
 31
0.0
  0
LINE
  5
24114
  8
0
  6
CONTINUOUS
 10
25.96267548958429
 20
0.1616569432088024
 30
0.0
 11
27.18411854636669
 21
1.383099999991207
 31
0.0
  0
LINE
  5
24115
  8
0
  6
CONTINUOUS
 10
29.30199999996933
 20
3.500981453593841
 30
0.0
 11
30.74199999996925
 21
4.940981453593762
 31
0.0
  0
LINE
  5
24116
  8
0
  6
CONTINUOUS
 10
26.50763775544691
 20
0.0330999999912356
 30
0.0
 11
27.85763775544689
 21
1.383099999991223
 31
0.0
  0
LINE
  5
24117
  8
0
  6
CONTINUOUS
 10
29.30199999996933
 20
2.827462244513656
 30
0.0
 11
30.74199999996925
 21
4.267462244513574
 31
0.0
  0
LINE
  5
24118
  8
0
  6
CONTINUOUS
 10
27.18115696452709
 20
0.0330999999912356
 30
0.0
 11
28.6224847300034
 21
1.474427765467545
 31
0.0
  0
LINE
  5
24119
  8
0
  6
CONTINUOUS
 10
29.21067223449293
 20
2.062615269957069
 30
0.0
 11
30.74199999996924
 21
3.593943035433383
 31
0.0
  0
LINE
  5
2411A
  8
0
  6
CONTINUOUS
 10
27.85467617360728
 20
0.0330999999912356
 30
0.0
 11
30.74199999996924
 21
2.920423826353195
 31
0.0
  0
LINE
  5
2411B
  8
0
  6
CONTINUOUS
 10
28.57438609860264
 20
0.0792907159064073
 30
0.0
 11
30.69580928405405
 21
2.200713901357819
 31
0.0
  0
LINE
  5
2411C
  8
0
  6
CONTINUOUS
 10
29.49443044814297
 20
0.3258158563665496
 30
0.0
 11
30.44928414359389
 21
1.280669551817477
 31
0.0
  0
LINE
  5
2411D
  8
0
  6
CONTINUOUS
 10
19.59027867740337
 20
-0.0000967065718083
 30
0.0
 11
19.55485265190471
 21
0.035329318926844
 31
0.0
  0
LINE
  5
2411E
  8
0
  6
CONTINUOUS
 10
20.26375463176586
 20
-0.0000534518541091
 30
0.0
 11
19.76305575737534
 21
0.5006454225364014
 31
0.0
  0
LINE
  5
2411F
  8
0
  6
CONTINUOUS
 10
20.93723058612834
 20
-0.0000101971364099
 30
0.0
 11
19.97125886284597
 21
0.965961526145958
 31
0.0
  0
LINE
  5
24120
  8
0
  6
CONTINUOUS
 10
21.25514828313686
 20
0.355591314935257
 30
0.0
 11
20.1794619683166
 21
1.431277629755512
 31
0.0
  0
LINE
  5
24121
  8
0
  6
CONTINUOUS
 10
21.46338838394921
 20
0.8208704232030986
 30
0.0
 11
20.38766507378723
 21
1.896593733365069
 31
0.0
  0
LINE
  5
24122
  8
0
  6
CONTINUOUS
 10
21.67162848476155
 20
1.28614953147094
 30
0.0
 11
20.59586817925786
 21
2.361909836974626
 31
0.0
  0
LINE
  5
24123
  8
0
  6
CONTINUOUS
 10
21.8798685855739
 20
1.751428639738782
 30
0.0
 11
20.80407128472849
 21
2.827225940584183
 31
0.0
  0
LINE
  5
24124
  8
0
  6
CONTINUOUS
 10
22.08810868638624
 20
2.216707748006623
 30
0.0
 11
21.01227439019912
 21
3.292542044193739
 31
0.0
  0
LINE
  5
24125
  8
0
  6
CONTINUOUS
 10
22.60993564347543
 20
2.36839999999762
 30
0.0
 11
21.22047749566975
 21
3.757858147803296
 31
0.0
  0
LINE
  5
24126
  8
0
  6
CONTINUOUS
 10
23.28345485255561
 20
2.36839999999762
 30
0.0
 11
21.42868060114038
 21
4.223174251412853
 31
0.0
  0
LINE
  5
24127
  8
0
  6
CONTINUOUS
 10
26.29227406164219
 20
0.0330999999912356
 30
0.0
 11
25.80009199592872
 21
0.5252820657046957
 31
0.0
  0
LINE
  5
24128
  8
0
  6
CONTINUOUS
 10
23.9569740616358
 20
2.36839999999762
 30
0.0
 11
21.63688370661101
 21
4.688490355022409
 31
0.0
  0
LINE
  5
24129
  8
0
  6
CONTINUOUS
 10
26.96579327072237
 20
0.0330999999912356
 30
0.0
 11
25.2554132311971
 21
1.743480039516508
 31
0.0
  0
LINE
  5
2412A
  8
0
  6
CONTINUOUS
 10
24.63049327071599
 20
2.36839999999762
 30
0.0
 11
23.32789327071731
 21
3.670999999996297
 31
0.0
  0
LINE
  5
2412B
  8
0
  6
CONTINUOUS
 10
22.92098674744635
 20
4.077906523267254
 30
0.0
 11
21.84508681208164
 21
5.153806458631966
 31
0.0
  0
LINE
  5
2412C
  8
0
  6
CONTINUOUS
 10
27.63931247980256
 20
0.0330999999912356
 30
0.0
 11
24.0014124797975
 21
3.670999999996297
 31
0.0
  0
LINE
  5
2412D
  8
0
  6
CONTINUOUS
 10
23.129125600968
 20
4.5432868788258
 30
0.0
 11
22.05328991755227
 21
5.619122562241522
 31
0.0
  0
LINE
  5
2412E
  8
0
  6
CONTINUOUS
 10
28.31283168888275
 20
0.0330999999912356
 30
0.0
 11
24.16488385994816
 21
4.181047828925828
 31
0.0
  0
LINE
  5
2412F
  8
0
  6
CONTINUOUS
 10
23.33726445448964
 20
5.008667234384345
 30
0.0
 11
22.2614930230229
 21
6.084438665851079
 31
0.0
  0
LINE
  5
24130
  8
0
  6
CONTINUOUS
 10
28.86286302309502
 20
0.1565878748591523
 30
0.0
 11
27.63635089796295
 21
1.383099999991217
 31
0.0
  0
LINE
  5
24131
  8
0
  6
CONTINUOUS
 10
26.43704649509776
 20
2.582404402856405
 30
0.0
 11
23.61992702019732
 21
5.399523877756844
 31
0.0
  0
LINE
  5
24132
  8
0
  6
CONTINUOUS
 10
23.54540330801128
 20
5.47404758994289
 30
0.0
 11
22.46969612849353
 21
6.549754769460635
 31
0.0
  0
LINE
  5
24133
  8
0
  6
CONTINUOUS
 10
29.39405087596853
 20
0.2989192310658284
 30
0.0
 11
28.30987010704312
 21
1.383099999991234
 31
0.0
  0
LINE
  5
24134
  8
0
  6
CONTINUOUS
 10
25.89179548232307
 20
3.801174624711282
 30
0.0
 11
22.67789923396416
 21
7.015070873070191
 31
0.0
  0
LINE
  5
24135
  8
0
  6
CONTINUOUS
 10
29.79594438047407
 20
0.570544935640473
 30
0.0
 11
28.81310432793121
 21
1.553384988183336
 31
0.0
  0
LINE
  5
24136
  8
0
  6
CONTINUOUS
 10
25.34654446954838
 20
5.01994484656616
 30
0.0
 11
22.88610233943479
 21
7.480386976679748
 31
0.0
  0
LINE
  5
24137
  8
0
  6
CONTINUOUS
 10
30.13270398501416
 20
0.9073045401805646
 30
0.0
 11
29.14234640337737
 21
1.897662121817355
 31
0.0
  0
LINE
  5
24138
  8
0
  6
CONTINUOUS
 10
24.80129345677369
 20
6.238715068421037
 30
0.0
 11
23.09430544490542
 21
7.945703080289305
 31
0.0
  0
LINE
  5
24139
  8
0
  6
CONTINUOUS
 10
30.44581292956759
 20
1.26771480470732
 30
0.0
 11
29.30199999996933
 21
2.411527734305588
 31
0.0
  0
LINE
  5
2413A
  8
0
  6
CONTINUOUS
 10
30.58814428577427
 20
1.798902657580827
 30
0.0
 11
29.30199999996933
 21
3.085046943385775
 31
0.0
  0
LINE
  5
2413B
  8
0
  6
CONTINUOUS
 10
24.256042443999
 20
7.457485290275915
 30
0.0
 11
23.30250855037605
 21
8.411019183898862
 31
0.0
  0
LINE
  5
2413C
  8
0
  6
CONTINUOUS
 10
23.71079143122431
 20
8.676255512130794
 30
0.0
 11
23.51071165584668
 21
8.876335287508418
 31
0.0
  0
LINE
  5
2413D
  8
0
  6
CONTINUOUS
 10
30.73047564198095
 20
2.330090510454333
 30
0.0
 11
29.30199999996933
 21
3.758566152465961
 31
0.0
  0
LINE
  5
2413E
  8
0
  6
CONTINUOUS
 10
30.74199999996924
 20
2.992085361546236
 30
0.0
 11
29.30199999996933
 21
4.432085361546148
 31
0.0
  0
LINE
  5
2413F
  8
0
  6
CONTINUOUS
 10
30.74199999996924
 20
3.665604570626419
 30
0.0
 11
29.30199999996933
 21
5.105604570626333
 31
0.0
  0
LINE
  5
24140
  8
0
  6
CONTINUOUS
 10
30.74199999996925
 20
4.339123779706602
 30
0.0
 11
29.30199999996933
 21
5.77912377970652
 31
0.0
  0
LINE
  5
24141
  8
0
  6
CONTINUOUS
 10
30.74199999996925
 20
5.012642988786785
 30
0.0
 11
29.30199999996933
 21
6.452642988786707
 31
0.0
  0
LINE
  5
24142
  8
0
  6
CONTINUOUS
 10
30.74199999996925
 20
5.68616219786697
 30
0.0
 11
29.30199999996933
 21
7.126162197866894
 31
0.0
  0
LINE
  5
24143
  8
0
  6
CONTINUOUS
 10
30.74199999996925
 20
6.359681406947153
 30
0.0
 11
29.30199999996933
 21
7.799681406947081
 31
0.0
  0
LINE
  5
24144
  8
0
  6
CONTINUOUS
 10
30.74199999996926
 20
7.033200616027337
 30
0.0
 11
29.30199999996933
 21
8.473200616027269
 31
0.0
  0
LINE
  5
24145
  8
0
  6
CONTINUOUS
 10
30.74199999996926
 20
7.706719825107518
 30
0.0
 11
29.68561982508552
 21
8.763099999991255
 31
0.0
  0
LINE
  5
24146
  8
0
  6
CONTINUOUS
 10
30.74199999996926
 20
8.380239034187703
 30
0.0
 11
30.35913903416571
 21
8.763099999991255
 31
0.0
  0
ENDBLK
  5
241E9
  8
0
  0
BLOCK
  8
0
  2
*X238
 70
     1
 10
0.0
 20
0.0
 30
0.0
  3
*X238
  1

  0
LINE
  5
24148
  8
0
  6
CONTINUOUS
 10
31.64199999996833
 20
8.5350582899136
 30
0.0
 11
31.87004171004599
 21
8.763099999991255
 31
0.0
  0
LINE
  5
24149
  8
0
  6
CONTINUOUS
 10
31.64199999996833
 20
7.861539080833413
 30
0.0
 11
32.54356091912618
 21
8.763099999991255
 31
0.0
  0
LINE
  5
2414A
  8
0
  6
CONTINUOUS
 10
31.64199999996833
 20
7.188019871753227
 30
0.0
 11
33.08199999996839
 21
8.628019871753281
 31
0.0
  0
LINE
  5
2414B
  8
0
  6
CONTINUOUS
 10
31.64199999996833
 20
6.514500662673041
 30
0.0
 11
33.08199999996839
 21
7.954500662673095
 31
0.0
  0
LINE
  5
2414C
  8
0
  6
CONTINUOUS
 10
31.64199999996833
 20
5.840981453592855
 30
0.0
 11
33.08199999996839
 21
7.28098145359291
 31
0.0
  0
LINE
  5
2414D
  8
0
  6
CONTINUOUS
 10
31.64199999996833
 20
5.167462244512668
 30
0.0
 11
33.08199999996839
 21
6.607462244512723
 31
0.0
  0
LINE
  5
2414E
  8
0
  6
CONTINUOUS
 10
31.64199999996833
 20
4.493943035432482
 30
0.0
 11
33.08199999996839
 21
5.933943035432536
 31
0.0
  0
LINE
  5
2414F
  8
0
  6
CONTINUOUS
 10
31.64199999996833
 20
3.820423826352294
 30
0.0
 11
33.08199999996839
 21
5.260423826352349
 31
0.0
  0
LINE
  5
24150
  8
0
  6
CONTINUOUS
 10
31.64199999996833
 20
3.146904617272108
 30
0.0
 11
33.08199999996839
 21
4.586904617272163
 31
0.0
  0
LINE
  5
24151
  8
0
  6
CONTINUOUS
 10
36.23199999996837
 20
8.410423826352327
 30
0.0
 11
36.58467617360729
 21
8.763099999991255
 31
0.0
  0
LINE
  5
24152
  8
0
  6
CONTINUOUS
 10
36.23199999996837
 20
7.73690461727214
 30
0.0
 11
37.25819538268748
 21
8.763099999991255
 31
0.0
  0
LINE
  5
24153
  8
0
  6
CONTINUOUS
 10
31.64323424774199
 20
2.474619655965573
 30
0.0
 11
33.08199999996839
 21
3.913385408191976
 31
0.0
  0
LINE
  5
24154
  8
0
  6
CONTINUOUS
 10
31.74419223861915
 20
1.902058437762552
 30
0.0
 11
33.08199999996839
 21
3.239866199111789
 31
0.0
  0
LINE
  5
24155
  8
0
  6
CONTINUOUS
 10
36.23199999996837
 20
7.063385408191953
 30
0.0
 11
37.67199999996831
 21
8.503385408191894
 31
0.0
  0
LINE
  5
24156
  8
0
  6
CONTINUOUS
 10
36.23199999996837
 20
6.389866199111767
 30
0.0
 11
37.67199999996831
 21
7.829866199111708
 31
0.0
  0
LINE
  5
24157
  8
0
  6
CONTINUOUS
 10
31.91111233414976
 20
1.39545932421297
 30
0.0
 11
33.08199999996839
 21
2.566346990031603
 31
0.0
  0
LINE
  5
24158
  8
0
  6
CONTINUOUS
 10
36.23199999996837
 20
5.71634699003158
 30
0.0
 11
37.67199999996831
 21
7.156346990031522
 31
0.0
  0
LINE
  5
24159
  8
0
  6
CONTINUOUS
 10
32.1576374746103
 20
0.9684652555933289
 30
0.0
 11
33.20642631446081
 21
2.017254095443838
 31
0.0
  0
LINE
  5
2415A
  8
0
  6
CONTINUOUS
 10
36.23199999996837
 20
5.042827780951393
 30
0.0
 11
37.67199999996831
 21
6.482827780951334
 31
0.0
  0
LINE
  5
2415B
  8
0
  6
CONTINUOUS
 10
32.47774023927325
 20
0.6150488111760914
 30
0.0
 11
33.49903056428258
 21
1.636339136185419
 31
0.0
  0
LINE
  5
2415C
  8
0
  6
CONTINUOUS
 10
36.23199999996837
 20
4.369308571871207
 30
0.0
 11
37.67199999996831
 21
5.809308571871148
 31
0.0
  0
LINE
  5
2415D
  8
0
  6
CONTINUOUS
 10
32.84396249154443
 20
0.3077518543670883
 30
0.0
 11
33.93324121824649
 21
1.397030581069146
 31
0.0
  0
LINE
  5
2415E
  8
0
  6
CONTINUOUS
 10
36.23199999996837
 20
3.695789362791021
 30
0.0
 11
37.67199999996831
 21
5.135789362790963
 31
0.0
  0
LINE
  5
2415F
  8
0
  6
CONTINUOUS
 10
33.30186329036846
 20
0.0921334441109263
 30
0.0
 11
34.46442907112041
 21
1.254699224862875
 31
0.0
  0
LINE
  5
24160
  8
0
  6
CONTINUOUS
 10
36.23199999996837
 20
3.022270153710834
 30
0.0
 11
37.67199999996831
 21
4.462270153710776
 31
0.0
  0
LINE
  5
24161
  8
0
  6
CONTINUOUS
 10
33.79565647746294
 20
-0.0875925778747773
 30
0.0
 11
35.24350171668284
 21
1.360252661345124
 31
0.0
  0
LINE
  5
24162
  8
0
  6
CONTINUOUS
 10
36.18336676155003
 20
2.300117706212308
 30
0.0
 11
37.67199999996831
 21
3.788750944630589
 31
0.0
  0
LINE
  5
24163
  8
0
  6
CONTINUOUS
 10
34.37182574910968
 20
-0.184942515308224
 30
0.0
 11
37.67199999996831
 21
3.115231735550402
 31
0.0
  0
LINE
  5
24164
  8
0
  6
CONTINUOUS
 10
35.0453449581892
 20
-0.1849425153088955
 30
0.0
 11
37.66345697088136
 21
2.433169497383271
 31
0.0
  0
LINE
  5
24165
  8
0
  6
CONTINUOUS
 10
35.98667157609191
 20
0.0828648935136398
 30
0.0
 11
37.51927401744566
 21
1.615467334867382
 31
0.0
  0
LINE
  5
24166
  8
0
  6
CONTINUOUS
 10
32.27747408544484
 20
0.7830920669904482
 30
0.0
 11
32.24716210471949
 21
0.8134040477157893
 31
0.0
  0
LINE
  5
24167
  8
0
  6
CONTINUOUS
 10
33.83656881101902
 20
-0.1024834495035494
 30
0.0
 11
31.72538911593758
 21
2.008696245577891
 31
0.0
  0
LINE
  5
24168
  8
0
  6
CONTINUOUS
 10
34.5925470859041
 20
-0.1849425153084434
 30
0.0
 11
31.64199999996833
 21
2.765604570627322
 31
0.0
  0
LINE
  5
24169
  8
0
  6
CONTINUOUS
 10
35.26201302775981
 20
-0.1808892480839752
 30
0.0
 11
31.64199999996833
 21
3.439123779707508
 31
0.0
  0
LINE
  5
2416A
  8
0
  6
CONTINUOUS
 10
35.75580621485512
 20
-0.0011632260990879
 30
0.0
 11
34.51294304365551
 21
1.241699945100514
 31
0.0
  0
LINE
  5
2416B
  8
0
  6
CONTINUOUS
 10
33.08199999996839
 20
2.672642988787641
 30
0.0
 11
31.64199999996833
 21
4.112642988787695
 31
0.0
  0
LINE
  5
2416C
  8
0
  6
CONTINUOUS
 10
36.24959940195042
 20
0.1785627958857976
 30
0.0
 11
35.10501653033629
 21
1.323145667499924
 31
0.0
  0
LINE
  5
2416D
  8
0
  6
CONTINUOUS
 10
33.08199999996839
 20
3.346162197867827
 30
0.0
 11
31.64199999996833
 21
4.786162197867881
 31
0.0
  0
LINE
  5
2416E
  8
0
  6
CONTINUOUS
 10
36.64615197150552
 20
0.4555294354108876
 30
0.0
 11
35.6362043832099
 21
1.465477023706505
 31
0.0
  0
LINE
  5
2416F
  8
0
  6
CONTINUOUS
 10
33.08199999996839
 20
4.019681406948013
 30
0.0
 11
31.64199999996833
 21
5.459681406948068
 31
0.0
  0
LINE
  5
24170
  8
0
  6
CONTINUOUS
 10
37.0123742237774
 20
0.7628263922191891
 30
0.0
 11
35.97691545773309
 21
1.798285158263504
 31
0.0
  0
LINE
  5
24171
  8
0
  6
CONTINUOUS
 10
33.08199999996839
 20
4.6932006160282
 30
0.0
 11
31.64199999996833
 21
6.133200616028255
 31
0.0
  0
LINE
  5
24172
  8
0
  6
CONTINUOUS
 10
37.27491524157143
 20
1.173804583505349
 30
0.0
 11
36.17602012811361
 21
2.272699696963169
 31
0.0
  0
LINE
  5
24173
  8
0
  6
CONTINUOUS
 10
33.08199999996839
 20
5.366719825108387
 30
0.0
 11
31.64199999996833
 21
6.806719825108441
 31
0.0
  0
LINE
  5
24174
  8
0
  6
CONTINUOUS
 10
37.51739996707661
 20
1.604839067080355
 30
0.0
 11
36.23199999996837
 21
2.890239034188595
 31
0.0
  0
LINE
  5
24175
  8
0
  6
CONTINUOUS
 10
37.6183579579535
 20
2.177400285283649
 30
0.0
 11
36.23199999996837
 21
3.563758243268782
 31
0.0
  0
LINE
  5
24176
  8
0
  6
CONTINUOUS
 10
33.08199999996839
 20
6.040239034188573
 30
0.0
 11
31.64199999996833
 21
7.480239034188628
 31
0.0
  0
LINE
  5
24177
  8
0
  6
CONTINUOUS
 10
33.08199999996839
 20
6.713758243268759
 30
0.0
 11
31.64199999996833
 21
8.153758243268815
 31
0.0
  0
LINE
  5
24178
  8
0
  6
CONTINUOUS
 10
37.67199999996831
 20
2.797277452349027
 30
0.0
 11
36.23199999996837
 21
4.237277452348969
 31
0.0
  0
LINE
  5
24179
  8
0
  6
CONTINUOUS
 10
37.67199999996831
 20
3.470796661429214
 30
0.0
 11
36.23199999996837
 21
4.910796661429155
 31
0.0
  0
LINE
  5
2417A
  8
0
  6
CONTINUOUS
 10
37.67199999996831
 20
4.1443158705094
 30
0.0
 11
36.23199999996837
 21
5.584315870509341
 31
0.0
  0
LINE
  5
2417B
  8
0
  6
CONTINUOUS
 10
33.08199999996839
 20
7.387277452348946
 30
0.0
 11
31.70617745232608
 21
8.763099999991255
 31
0.0
  0
LINE
  5
2417C
  8
0
  6
CONTINUOUS
 10
33.08199999996839
 20
8.060796661429134
 30
0.0
 11
32.37969666140626
 21
8.763099999991255
 31
0.0
  0
LINE
  5
2417D
  8
0
  6
CONTINUOUS
 10
33.08199999996839
 20
8.734315870509318
 30
0.0
 11
33.05321587048645
 21
8.763099999991255
 31
0.0
  0
LINE
  5
2417E
  8
0
  6
CONTINUOUS
 10
37.67199999996831
 20
4.817835079589586
 30
0.0
 11
36.23199999996837
 21
6.257835079589528
 31
0.0
  0
LINE
  5
2417F
  8
0
  6
CONTINUOUS
 10
37.67199999996831
 20
5.491354288669772
 30
0.0
 11
36.23199999996837
 21
6.931354288669715
 31
0.0
  0
LINE
  5
24180
  8
0
  6
CONTINUOUS
 10
37.67199999996831
 20
6.164873497749959
 30
0.0
 11
36.23199999996837
 21
7.6048734977499
 31
0.0
  0
LINE
  5
24181
  8
0
  6
CONTINUOUS
 10
37.67199999996831
 20
6.838392706830145
 30
0.0
 11
36.23199999996837
 21
8.278392706830086
 31
0.0
  0
LINE
  5
24182
  8
0
  6
CONTINUOUS
 10
37.67199999996831
 20
7.511911915910333
 30
0.0
 11
36.42081191588738
 21
8.763099999991255
 31
0.0
  0
LINE
  5
24183
  8
0
  6
CONTINUOUS
 10
37.67199999996831
 20
8.185431124990519
 30
0.0
 11
37.09433112496757
 21
8.763099999991255
 31
0.0
  0
ENDBLK
  5
241EB
  8
0
  0
BLOCK
  8
0
  2
*X239
 70
     1
 10
0.0
 20
0.0
 30
0.0
  3
*X239
  1

  0
LINE
  5
24185
  8
0
  6
CONTINUOUS
 10
38.60499999996136
 20
8.762866199104765
 30
0.0
 11
38.71672554182345
 21
8.874591740966855
 31
0.0
  0
LINE
  5
24186
  8
0
  6
CONTINUOUS
 10
38.60499999996136
 20
8.089346990024577
 30
0.0
 11
39.03418785440363
 21
8.518534844466847
 31
0.0
  0
LINE
  5
24187
  8
0
  6
CONTINUOUS
 10
38.60499999996136
 20
7.41582778094439
 30
0.0
 11
39.35165016698382
 21
8.16247794796684
 31
0.0
  0
LINE
  5
24188
  8
0
  6
CONTINUOUS
 10
38.60499999996136
 20
6.742308571864204
 30
0.0
 11
39.66911247956399
 21
7.806421051466834
 31
0.0
  0
LINE
  5
24189
  8
0
  6
CONTINUOUS
 10
38.60499999996136
 20
6.068789362784018
 30
0.0
 11
39.98657479214418
 21
7.450364154966827
 31
0.0
  0
LINE
  5
2418A
  8
0
  6
CONTINUOUS
 10
38.60499999996136
 20
5.395270153703832
 30
0.0
 11
40.30403710472435
 21
7.09430725846682
 31
0.0
  0
LINE
  5
2418B
  8
0
  6
CONTINUOUS
 10
38.60499999996136
 20
4.721750944623645
 30
0.0
 11
40.62149941730453
 21
6.738250361966813
 31
0.0
  0
LINE
  5
2418C
  8
0
  6
CONTINUOUS
 10
38.60499999996136
 20
4.048231735543458
 30
0.0
 11
40.93896172988471
 21
6.382193465466806
 31
0.0
  0
LINE
  5
2418D
  8
0
  6
CONTINUOUS
 10
38.60499999996136
 20
3.374712526463272
 30
0.0
 11
40.02599999995994
 21
4.795712526461843
 31
0.0
  0
LINE
  5
2418E
  8
0
  6
CONTINUOUS
 10
38.60499999996136
 20
2.701193317383085
 30
0.0
 11
40.02599999995994
 21
4.122193317381657
 31
0.0
  0
LINE
  5
2418F
  8
0
  6
CONTINUOUS
 10
40.28339754687704
 20
5.053110073378947
 30
0.0
 11
41.25642404246489
 21
6.026136568966799
 31
0.0
  0
LINE
  5
24190
  8
0
  6
CONTINUOUS
 10
40.60085985945722
 20
4.697053176878939
 30
0.0
 11
41.57388635504507
 21
5.670079672466793
 31
0.0
  0
LINE
  5
24191
  8
0
  6
CONTINUOUS
 10
43.57899999995641
 20
8.348712526458318
 30
0.0
 11
43.99338747348935
 21
8.763099999991255
 31
0.0
  0
LINE
  5
24192
  8
0
  6
CONTINUOUS
 10
43.57899999995641
 20
7.675193317378131
 30
0.0
 11
44.66690668256953
 21
8.763099999991255
 31
0.0
  0
LINE
  5
24193
  8
0
  6
CONTINUOUS
 10
38.60499999996136
 20
2.027674108302898
 30
0.0
 11
40.02599999995994
 21
3.44867410830147
 31
0.0
  0
LINE
  5
24194
  8
0
  6
CONTINUOUS
 10
38.60499999996136
 20
1.354154899222712
 30
0.0
 11
40.02599999995994
 21
2.775154899221284
 31
0.0
  0
LINE
  5
24195
  8
0
  6
CONTINUOUS
 10
38.60499999996136
 20
0.6806356901425255
 30
0.0
 11
40.02599999995994
 21
2.101635690141098
 31
0.0
  0
LINE
  5
24196
  8
0
  6
CONTINUOUS
 10
38.60499999996136
 20
0.0071164810623383
 30
0.0
 11
40.02599999995994
 21
1.428116481060911
 31
0.0
  0
LINE
  5
24197
  8
0
  6
CONTINUOUS
 10
40.9183221720374
 20
4.340996280378933
 30
0.0
 11
41.89134866762525
 21
5.314022775966786
 31
0.0
  0
LINE
  5
24198
  8
0
  6
CONTINUOUS
 10
41.23578448461758
 20
3.984939383878926
 30
0.0
 11
42.20881098020543
 21
4.957965879466778
 31
0.0
  0
LINE
  5
24199
  8
0
  6
CONTINUOUS
 10
41.55324679719776
 20
3.628882487378919
 30
0.0
 11
42.52627329278561
 21
4.601908982966772
 31
0.0
  0
LINE
  5
2419A
  8
0
  6
CONTINUOUS
 10
41.87070910977793
 20
3.272825590878912
 30
0.0
 11
42.84373560536579
 21
4.245852086466765
 31
0.0
  0
LINE
  5
2419B
  8
0
  6
CONTINUOUS
 10
43.57899999995641
 20
7.001674108297943
 30
0.0
 11
44.99999999995498
 21
8.422674108296516
 31
0.0
  0
LINE
  5
2419C
  8
0
  6
CONTINUOUS
 10
43.57899999995641
 20
6.328154899217758
 30
0.0
 11
44.99999999995498
 21
7.749154899216329
 31
0.0
  0
LINE
  5
2419D
  8
0
  6
CONTINUOUS
 10
43.57899999995641
 20
5.654635690137571
 30
0.0
 11
44.99999999995498
 21
7.075635690136142
 31
0.0
  0
LINE
  5
2419E
  8
0
  6
CONTINUOUS
 10
43.57899999995641
 20
4.981116481057384
 30
0.0
 11
44.99999999995498
 21
6.402116481055955
 31
0.0
  0
LINE
  5
2419F
  8
0
  6
CONTINUOUS
 10
39.27140272797921
 20
-0.0000000000000009
 30
0.0
 11
40.02599999995994
 21
0.7545972719807246
 31
0.0
  0
LINE
  5
241A0
  8
0
  6
CONTINUOUS
 10
39.9449219370594
 20
-0.0000000000000009
 30
0.0
 11
40.02599999995994
 21
0.0810780629005379
 31
0.0
  0
LINE
  5
241A1
  8
0
  6
CONTINUOUS
 10
42.18817142235812
 20
2.916768694378905
 30
0.0
 11
43.16119791794597
 21
3.889795189966758
 31
0.0
  0
LINE
  5
241A2
  8
0
  6
CONTINUOUS
 10
42.50563373493829
 20
2.560711797878898
 30
0.0
 11
43.47866023052615
 21
3.533738293466751
 31
0.0
  0
LINE
  5
241A3
  8
0
  6
CONTINUOUS
 10
43.57899999995641
 20
4.307597271977198
 30
0.0
 11
44.99999999995498
 21
5.728597271975769
 31
0.0
  0
LINE
  5
241A4
  8
0
  6
CONTINUOUS
 10
43.57899999995641
 20
3.634078062897011
 30
0.0
 11
44.99999999995498
 21
5.055078062895582
 31
0.0
  0
LINE
  5
241A5
  8
0
  6
CONTINUOUS
 10
42.82309604751848
 20
2.204654901378891
 30
0.0
 11
44.99999999995498
 21
4.381558853815395
 31
0.0
  0
LINE
  5
241A6
  8
0
  6
CONTINUOUS
 10
43.14055836009865
 20
1.848598004878885
 30
0.0
 11
44.99999999995498
 21
3.70803964473521
 31
0.0
  0
LINE
  5
241A7
  8
0
  6
CONTINUOUS
 10
43.45802067267883
 20
1.492541108378878
 30
0.0
 11
44.99999999995498
 21
3.034520435655023
 31
0.0
  0
LINE
  5
241A8
  8
0
  6
CONTINUOUS
 10
43.77548298525902
 20
1.136484211878871
 30
0.0
 11
44.99999999995498
 21
2.361001226574837
 31
0.0
  0
LINE
  5
241A9
  8
0
  6
CONTINUOUS
 10
44.09294529783919
 20
0.7804273153788639
 30
0.0
 11
44.99999999995498
 21
1.687482017494649
 31
0.0
  0
LINE
  5
241AA
  8
0
  6
CONTINUOUS
 10
44.41040761041938
 20
0.4243704188788566
 30
0.0
 11
44.99999999995498
 21
1.013962808414463
 31
0.0
  0
LINE
  5
241AB
  8
0
  6
CONTINUOUS
 10
44.72786992299955
 20
0.0683135223788494
 30
0.0
 11
44.99999999995498
 21
0.340443599334276
 31
0.0
  0
LINE
  5
241AC
  8
0
  6
CONTINUOUS
 10
39.12223903415696
 20
-0.0000000000000009
 30
0.0
 11
38.60499999996136
 21
0.5172390341955961
 31
0.0
  0
LINE
  5
241AD
  8
0
  6
CONTINUOUS
 10
39.79575824323715
 20
-0.0000000000000009
 30
0.0
 11
38.60499999996136
 21
1.190758243275783
 31
0.0
  0
LINE
  5
241AE
  8
0
  6
CONTINUOUS
 10
40.02599999995994
 20
0.443277452357397
 30
0.0
 11
38.60499999996136
 21
1.864277452355969
 31
0.0
  0
LINE
  5
241AF
  8
0
  6
CONTINUOUS
 10
40.02599999995994
 20
1.116796661437583
 30
0.0
 11
38.60499999996136
 21
2.537796661436155
 31
0.0
  0
LINE
  5
241B0
  8
0
  6
CONTINUOUS
 10
40.02599999995994
 20
1.79031587051777
 30
0.0
 11
38.60499999996136
 21
3.211315870516341
 31
0.0
  0
LINE
  5
241B1
  8
0
  6
CONTINUOUS
 10
40.02599999995994
 20
2.463835079597956
 30
0.0
 11
38.60499999996136
 21
3.884835079596527
 31
0.0
  0
LINE
  5
241B2
  8
0
  6
CONTINUOUS
 10
40.02599999995994
 20
3.137354288678143
 30
0.0
 11
38.60499999996136
 21
4.558354288676714
 31
0.0
  0
LINE
  5
241B3
  8
0
  6
CONTINUOUS
 10
40.02599999995994
 20
3.810873497758329
 30
0.0
 11
38.60499999996136
 21
5.2318734977569
 31
0.0
  0
LINE
  5
241B4
  8
0
  6
CONTINUOUS
 10
40.02599999995994
 20
4.484392706838515
 30
0.0
 11
38.60499999996136
 21
5.905392706837086
 31
0.0
  0
LINE
  5
241B5
  8
0
  6
CONTINUOUS
 10
44.99999999995498
 20
0.183911915923658
 30
0.0
 11
41.53858364506288
 21
3.64532827081576
 31
0.0
  0
LINE
  5
241B6
  8
0
  6
CONTINUOUS
 10
40.02599999995994
 20
5.157911915918703
 30
0.0
 11
38.60499999996136
 21
6.578911915917274
 31
0.0
  0
LINE
  5
241B7
  8
0
  6
CONTINUOUS
 10
44.99999999995498
 20
0.8574311250038447
 30
0.0
 11
38.60499999996136
 21
7.25243112499746
 31
0.0
  0
LINE
  5
241B8
  8
0
  6
CONTINUOUS
 10
44.99999999995498
 20
1.530950334084031
 30
0.0
 11
38.60499999996136
 21
7.925950334077647
 31
0.0
  0
LINE
  5
241B9
  8
0
  6
CONTINUOUS
 10
44.99999999995498
 20
2.204469543164218
 30
0.0
 11
43.57899999995641
 21
3.625469543162789
 31
0.0
  0
LINE
  5
241BA
  8
0
  6
CONTINUOUS
 10
41.89876730984767
 20
5.305702233271528
 30
0.0
 11
38.60499999996136
 21
8.599469543157834
 31
0.0
  0
LINE
  5
241BB
  8
0
  6
CONTINUOUS
 10
44.99999999995498
 20
2.877988752244405
 30
0.0
 11
43.57899999995641
 21
4.298988752242975
 31
0.0
  0
LINE
  5
241BC
  8
0
  6
CONTINUOUS
 10
44.99999999995498
 20
3.551507961324591
 30
0.0
 11
43.57899999995641
 21
4.972507961323163
 31
0.0
  0
LINE
  5
241BD
  8
0
  6
CONTINUOUS
 10
44.99999999995498
 20
4.225027170404777
 30
0.0
 11
43.57899999995641
 21
5.646027170403348
 31
0.0
  0
LINE
  5
241BE
  8
0
  6
CONTINUOUS
 10
44.99999999995498
 20
4.898546379484964
 30
0.0
 11
43.57899999995641
 21
6.319546379483535
 31
0.0
  0
LINE
  5
241BF
  8
0
  6
CONTINUOUS
 10
44.99999999995498
 20
5.572065588565151
 30
0.0
 11
43.57899999995641
 21
6.993065588563722
 31
0.0
  0
LINE
  5
241C0
  8
0
  6
CONTINUOUS
 10
44.99999999995498
 20
6.245584797645336
 30
0.0
 11
43.57899999995641
 21
7.666584797643908
 31
0.0
  0
LINE
  5
241C1
  8
0
  6
CONTINUOUS
 10
44.99999999995498
 20
6.919104006725522
 30
0.0
 11
43.57899999995641
 21
8.340104006724093
 31
0.0
  0
LINE
  5
241C2
  8
0
  6
CONTINUOUS
 10
44.99999999995498
 20
7.592623215805709
 30
0.0
 11
43.82952321576943
 21
8.763099999991255
 31
0.0
  0
LINE
  5
241C3
  8
0
  6
CONTINUOUS
 10
44.99999999995498
 20
8.266142424885896
 30
0.0
 11
44.50304242484962
 21
8.763099999991255
 31
0.0
  0
ENDBLK
  5
241ED
  8
0
  0
BLOCK
  8
0
  2
*X240
 70
     1
 10
0.0
 20
0.0
 30
0.0
  3
*X240
  1

  0
LINE
  5
241C5
  8
0
  6
CONTINUOUS
 10
0.0
 20
8.548461116714023
 30
0.0
 11
0.2146388832772324
 21
8.763099999991255
 31
0.0
  0
LINE
  5
241C6
  8
0
  6
CONTINUOUS
 10
-0.0000000000000002
 20
7.874941907633837
 30
0.0
 11
0.8881580923574184
 21
8.763099999991255
 31
0.0
  0
LINE
  5
241C7
  8
0
  6
CONTINUOUS
 10
0.0
 20
7.20142269855365
 30
0.0
 11
1.420999999998572
 21
8.622422698552223
 31
0.0
  0
LINE
  5
241C8
  8
0
  6
CONTINUOUS
 10
-0.0000000000000001
 20
6.527903489473465
 30
0.0
 11
1.420999999998571
 21
7.948903489472036
 31
0.0
  0
LINE
  5
241C9
  8
0
  6
CONTINUOUS
 10
-0.0000000000000002
 20
5.854384280393278
 30
0.0
 11
1.420999999998571
 21
7.275384280391849
 31
0.0
  0
LINE
  5
241CA
  8
0
  6
CONTINUOUS
 10
-0.0000000000000002
 20
5.180865071313091
 30
0.0
 11
1.420999999998571
 21
6.601865071311663
 31
0.0
  0
LINE
  5
241CB
  8
0
  6
CONTINUOUS
 10
0.0
 20
4.507345862232905
 30
0.0
 11
1.420999999998571
 21
5.928345862231477
 31
0.0
  0
LINE
  5
241CC
  8
0
  6
CONTINUOUS
 10
-0.0000000000000003
 20
3.833826653152718
 30
0.0
 11
1.420999999998571
 21
5.25482665315129
 31
0.0
  0
LINE
  5
241CD
  8
0
  6
CONTINUOUS
 10
-0.0000000000000002
 20
3.160307444072532
 30
0.0
 11
1.420999999998571
 21
4.581307444071103
 31
0.0
  0
LINE
  5
241CE
  8
0
  6
CONTINUOUS
 10
-0.0000000000000001
 20
2.486788234992345
 30
0.0
 11
1.420999999998571
 21
3.907788234990917
 31
0.0
  0
LINE
  5
241CF
  8
0
  6
CONTINUOUS
 10
-0.0000000000000006
 20
1.813269025912159
 30
0.0
 11
1.420999999998571
 21
3.234269025910731
 31
0.0
  0
LINE
  5
241D0
  8
0
  6
CONTINUOUS
 10
0.0
 20
1.139749816831973
 30
0.0
 11
1.420999999998571
 21
2.560749816830544
 31
0.0
  0
LINE
  5
241D1
  8
0
  6
CONTINUOUS
 10
0.0000000000000002
 20
0.466230607751787
 30
0.0
 11
1.420999999998571
 21
1.887230607750358
 31
0.0
  0
LINE
  5
241D2
  8
0
  6
CONTINUOUS
 10
0.2072886013284003
 20
-0.0000000000000009
 30
0.0
 11
1.420999999998571
 21
1.213711398670171
 31
0.0
  0
LINE
  5
241D3
  8
0
  6
CONTINUOUS
 10
0.8808078104085864
 20
-0.0000000000000009
 30
0.0
 11
1.420999999998571
 21
0.5401921895899839
 31
0.0
  0
LINE
  5
241D4
  8
0
  6
CONTINUOUS
 10
0.0581249075061505
 20
-0.0000000000000009
 30
0.0
 11
-0.0000000000000002
 21
0.0581249075061496
 31
0.0
  0
LINE
  5
241D5
  8
0
  6
CONTINUOUS
 10
0.7316441165863372
 20
-0.0000000000000009
 30
0.0
 11
-0.0000000000000002
 21
0.7316441165863363
 31
0.0
  0
LINE
  5
241D6
  8
0
  6
CONTINUOUS
 10
1.405163325666523
 20
-0.0000000000000009
 30
0.0
 11
-0.0000000000000002
 21
1.405163325666523
 31
0.0
  0
LINE
  5
241D7
  8
0
  6
CONTINUOUS
 10
1.420999999998572
 20
0.6576825347481381
 30
0.0
 11
-0.0000000000000001
 21
2.07868253474671
 31
0.0
  0
LINE
  5
241D8
  8
0
  6
CONTINUOUS
 10
1.420999999998571
 20
1.331201743828324
 30
0.0
 11
-0.0000000000000001
 21
2.752201743826896
 31
0.0
  0
LINE
  5
241D9
  8
0
  6
CONTINUOUS
 10
1.420999999998571
 20
2.004720952908511
 30
0.0
 11
-0.0000000000000002
 21
3.425720952907082
 31
0.0
  0
LINE
  5
241DA
  8
0
  6
CONTINUOUS
 10
1.420999999998571
 20
2.678240161988697
 30
0.0
 11
-0.0000000000000001
 21
4.099240161987269
 31
0.0
  0
LINE
  5
241DB
  8
0
  6
CONTINUOUS
 10
1.420999999998572
 20
3.351759371068884
 30
0.0
 11
0.0
 21
4.772759371067455
 31
0.0
  0
LINE
  5
241DC
  8
0
  6
CONTINUOUS
 10
1.420999999998571
 20
4.02527858014907
 30
0.0
 11
-0.0000000000000003
 21
5.446278580147642
 31
0.0
  0
LINE
  5
241DD
  8
0
  6
CONTINUOUS
 10
1.420999999998571
 20
4.698797789229257
 30
0.0
 11
0.0
 21
6.119797789227828
 31
0.0
  0
LINE
  5
241DE
  8
0
  6
CONTINUOUS
 10
1.420999999998571
 20
5.372316998309444
 30
0.0
 11
-0.0000000000000001
 21
6.793316998308015
 31
0.0
  0
LINE
  5
241DF
  8
0
  6
CONTINUOUS
 10
1.420999999998572
 20
6.045836207389629
 30
0.0
 11
-0.0000000000000004
 21
7.466836207388202
 31
0.0
  0
LINE
  5
241E0
  8
0
  6
CONTINUOUS
 10
1.420999999998571
 20
6.719355416469816
 30
0.0
 11
0.0
 21
8.140355416468388
 31
0.0
  0
LINE
  5
241E1
  8
0
  6
CONTINUOUS
 10
1.420999999998571
 20
7.392874625550003
 30
0.0
 11
0.0507746255573185
 21
8.763099999991255
 31
0.0
  0
LINE
  5
241E2
  8
0
  6
CONTINUOUS
 10
1.420999999998571
 20
8.06639383463019
 30
0.0
 11
0.7242938346375052
 21
8.763099999991255
 31
0.0
  0
LINE
  5
241E3
  8
0
  6
CONTINUOUS
 10
1.420999999998571
 20
8.739913043710375
 30
0.0
 11
1.397813043717691
 21
8.763099999991255
 31
0.0
  0
ENDBLK
  5
241EF
  8
0
  0
ENDSEC
  0
SECTION
  2
ENTITIES
  0
LINE
  5
23154
  8
01
  6
CONTINUOUS
 10
1343.0
 20
-399.6858983848679
 30
0.0000000000019679
 11
1340.299999999999
 21
-399.6858983848679
 31
0.0000000000019679
  0
ARC
  5
23155
  8
01
  6
CONTINUOUS
 10
1340.299999999999
 20
-399.3858983848677
 30
0.0000000000019679
 40
0.3000000000000114
 50
180.0
 51
270.0
  0
LINE
  5
23156
  8
01
  6
CONTINUOUS
 10
1340.299999999999
 20
-396.1858983848679
 30
0.0000000000019322
 11
1343.0
 21
-396.1858983848679
 31
0.0000000000019322
  0
ARC
  5
23157
  8
01
  6
CONTINUOUS
 10
1340.299999999999
 20
-396.4858983848681
 30
0.0000000000019322
 40
0.2999999999999972
 50
90.0
 51
180.0
  0
LINE
  5
23158
  8
01
  6
CONTINUOUS
 10
1600.0
 20
-396.4858983848681
 30
0.0000000000019322
 11
1600.0
 21
-398.8858983848677
 31
0.0000000000019322
  0
LINE
  5
23159
  8
01
  6
CONTINUOUS
 10
1340.0
 20
-399.2666595693254
 30
0.0000000000019322
 11
1340.0
 21
-396.4858983848681
 31
0.0000000000019322
  0
LINE
  5
2315A
  8
01
  6
CONTINUOUS
 10
1597.0
 20
-399.6858983848679
 30
0.0000000000019679
 11
1343.0
 21
-399.6858983848679
 31
0.0000000000019679
  0
LINE
  5
2315B
  8
01
  6
CONTINUOUS
 10
1343.0
 20
-396.1858983848679
 30
0.0000000000019322
 11
1597.0
 21
-396.1858983848679
 31
0.0000000000019322
  0
LINE
  5
2315C
  8
01
  6
CONTINUOUS
 10
1597.0
 20
-396.1858983848679
 30
0.0000000000019322
 11
1599.700000000001
 21
-396.1858983848679
 31
0.0000000000019322
  0
ARC
  5
2315D
  8
01
  6
CONTINUOUS
 10
1599.700000000001
 20
-396.4858983848681
 30
0.0000000000019322
 40
0.2999999999999829
 50
0.0
 51
90.0
  0
LINE
  5
2315E
  8
01
  6
CONTINUOUS
 10
1599.700000000001
 20
-399.6858983848679
 30
0.0000000000019679
 11
1597.0
 21
-399.6858983848679
 31
0.0000000000019679
  0
ARC
  5
2315F
  8
01
  6
CONTINUOUS
 10
1599.700000000001
 20
-399.3858983848677
 30
0.0000000000019679
 40
0.3000000000000114
 50
270.0
 51
0.0
  0
LINE
  5
23161
  8
01
  6
CONTINUOUS
 10
1600.0
 20
-398.8858983848677
 30
0.0000000000019322
 11
1600.0
 21
-399.2666595693254
 31
0.0000000000019322
  0
LINE
  5
23163
  8
01
  6
CONTINUOUS
 10
1340.0
 20
-399.7666595693254
 30
0.0000000000019679
 11
1340.0
 21
-399.3858983848677
 31
0.0000000000019679
  0
LINE
  5
23166
  8
01
  6
CONTINUOUS
 10
1600.0
 20
-399.2666595693254
 30
0.0000000000019322
 11
1600.0
 21
-404.6808731316987
 31
0.0000000000019322
  0
LINE
  5
23168
  8
01
  6
CONTINUOUS
 10
1340.0
 20
-404.6808731316987
 30
0.0000000000019322
 11
1340.0
 21
-399.2666595693254
 31
0.0000000000019322
  0
LINE
  5
2316B
  8
01
 10
1600.0
 20
-404.6808731316987
 30
0.0000000000019322
 11
1600.0
 21
-405.6001119472412
 31
0.0000000000019322
  0
LINE
  5
2316E
  8
01
 10
1340.0
 20
-406.0143255096136
 30
0.0000000000107703
 11
1340.0
 21
-404.3879799128849
 31
0.0000000000107703
  0
LINE
  5
2316F
  8
01
 10
1340.299999999999
 20
-432.2716848224945
 30
0.0000000000108401
 11
1599.700000000001
 21
-432.2716848224945
 31
0.0000000000108401
  0
CIRCLE
  5
23170
  8
01
  6
CONTINUOUS
 10
1470.0
 20
-416.1858983848679
 30
0.0000000000019322
 40
4.250000000000014
  0
CIRCLE
  5
23171
  8
01
  6
CONTINUOUS
 10
1380.0
 20
-416.1858983848679
 30
0.0000000000019322
 40
4.250000000000014
  0
CIRCLE
  5
23172
  8
01
  6
CONTINUOUS
 10
1560.0
 20
-416.1858983848679
 30
0.0000000000019322
 40
4.250000000000014
  0
LINE
  5
23173
  8
01
 10
1599.700000000001
 20
-432.2716848224945
 30
0.0000000000108401
 11
1600.0
 21
-432.2716848224945
 31
0.0000000000108401
  0
LINE
  5
23174
  8
01
  6
CONTINUOUS
 10
1600.0
 20
-405.6001119472412
 30
0.0000000000019322
 11
1600.0
 21
-432.7716848224945
 31
0.0000000000019322
  0
LINE
  5
23176
  8
01
 10
1340.299999999999
 20
-432.2716848224945
 30
0.0000000000108401
 11
1340.0
 21
-432.2716848224945
 31
0.0000000000108401
  0
LINE
  5
23177
  8
01
  6
CONTINUOUS
 10
1340.0
 20
-432.7716848224945
 30
0.0000000000019322
 11
1340.0
 21
-405.6001119472412
 31
0.0000000000019322
  0
LINE
  5
23179
  8
01
 10
1600.0
 20
-432.7716848224945
 30
0.0000000000019322
 11
1600.0
 21
-433.2666595693254
 31
0.0000000000019322
  0
LINE
  5
2317B
  8
01
 10
1340.0
 20
-433.2666595693254
 30
0.0000000000019322
 11
1340.0
 21
-432.7716848224945
 31
0.0000000000019322
  0
LINE
  5
2317D
  8
01
 10
1340.0
 20
-435.6808731316987
 30
0.0000000000019322
 11
1340.0
 21
-433.2666595693254
 31
0.0000000000019322
  0
LINE
  5
2317F
  8
01
 10
1600.0
 20
-433.2666595693254
 30
0.0000000000019322
 11
1600.0
 21
-435.6808731316987
 31
0.0000000000019322
  0
ARC
  5
23184
  8
01
 10
1599.700000000001
 20
-435.8858983848677
 30
0.0000000000019322
 40
0.3000000000000114
 50
270.0
 51
0.0
  0
LINE
  5
23185
  8
01
 10
1600.0
 20
-435.6808731316987
 30
0.0000000000019322
 11
1600.0
 21
-435.8858983848677
 31
0.0000000000019322
  0
ARC
  5
23186
  8
01
 10
1340.299999999999
 20
-435.8858983848677
 30
0.0000000000019322
 40
0.3000000000000114
 50
180.0
 51
270.0
  0
LINE
  5
23187
  8
01
 10
1340.0
 20
-435.8858983848677
 30
0.0000000000019322
 11
1340.0
 21
-435.6808731316987
 31
0.0000000000019322
  0
LINE
  5
23188
  8
01
 10
1599.700000000001
 20
-436.1858983848679
 30
0.0000000000019322
 11
1340.299999999999
 21
-436.1858983848679
 31
0.0000000000019322
  0
LINE
  5
23189
  8
01
  6
CONTINUOUS
 10
1599.700000000001
 20
-224.0728671137767
 30
0.0000000000019322
 11
1600.0
 21
-224.0728671137767
 31
0.0000000000019322
  0
LINE
  5
2318A
  8
01
  6
CONTINUOUS
 10
1600.0
 20
-224.0728671137767
 30
0.0000000000019322
 11
1600.0
 21
-301.0728671137767
 31
0.0000000000019322
  0
LINE
  5
2318B
  8
01
  6
CONTINUOUS
 10
1340.0
 20
-301.0728671137767
 30
0.0000000000019322
 11
1340.0
 21
-224.0728671137767
 31
0.0000000000019322
  0
LINE
  5
2318C
  8
01
  6
CONTINUOUS
 10
1340.0
 20
-224.0728671137767
 30
0.0000000000019322
 11
1340.299999999999
 21
-224.0728671137767
 31
0.0000000000019322
  0
LINE
  5
23190
  8
01
  6
CONTINUOUS
 10
1340.299999999999
 20
-224.0728671137767
 30
0.0000000000019322
 11
1599.700000000001
 21
-224.0728671137767
 31
0.0000000000019322
  0
ARC
  5
23191
  8
01
  6
CONTINUOUS
 10
1343.0
 20
-301.0728671137767
 30
0.0000000000019322
 40
3.000000000000004
 50
180.0
 51
270.0
  0
ARC
  5
23192
  8
01
  6
CONTINUOUS
 10
1597.0
 20
-301.0728671137767
 30
0.0000000000019322
 40
3.0
 50
270.0
 51
0.0
  0
LINE
  5
23193
  8
01
  6
CONTINUOUS
 10
1597.0
 20
-304.0728671137767
 30
0.0000000000019322
 11
1343.0
 21
-304.0728671137767
 31
0.0000000000019322
  0
LINE
  5
23197
  8
01
  6
CONTINUOUS
 10
1773.931791595587
 20
-435.8930051660564
 30
0.0000000000019322
 11
1771.017578033212
 21
-432.9787916036819
 31
0.0000000000019322
  0
LINE
  5
23198
  8
01
  6
CONTINUOUS
 10
1775.224684814399
 20
-436.1858983848679
 30
0.0000000000019322
 11
1774.638898376772
 21
-436.1858983848688
 31
0.0000000000019322
  0
LINE
  5
23199
  8
01
  6
CONTINUOUS
 10
1775.224684814399
 20
-435.8858983848677
 30
0.0000000000019322
 11
1775.224684814399
 21
-436.1858983848679
 31
0.0000000000019322
  0
ARC
  5
2319A
  8
01
  6
CONTINUOUS
 10
1774.638898376772
 20
-435.1858983848679
 30
0.0000000000019322
 40
1.000000000000038
 50
224.9999999998457
 51
270.0
  0
LINE
  5
2319B
  8
01
  6
CONTINUOUS
 10
1698.224684814399
 20
-396.1858983848679
 30
0.0000000000019322
 11
1775.224684814399
 21
-396.1858983848679
 31
0.0000000000019322
  0
LINE
  5
2319C
  8
01
  6
CONTINUOUS
 10
1775.224684814399
 20
-396.1858983848679
 30
0.0000000000019322
 11
1775.224684814399
 21
-396.4858983848681
 31
0.0000000000019322
  0
LINE
  5
2319E
  8
01
  6
CONTINUOUS
 10
1775.224684814399
 20
-396.4858983848681
 30
0.0000000000019322
 11
1775.224684814399
 21
-435.8858983848677
 31
0.0000000000019322
  0
LINE
  5
231A3
  8
01
  6
CONTINUOUS
 10
1695.224684814399
 20
-398.6858983848679
 30
0.0000000000019322
 11
1695.224684814399
 21
-397.1858983848679
 31
0.0000000000019322
  0
LINE
  5
231A4
  8
01
  6
CONTINUOUS
 10
1696.224684814399
 20
-396.1858983848679
 30
0.0000000000019322
 11
1698.224684814399
 21
-396.1858983848679
 31
0.0000000000019322
  0
LINE
  5
231A6
  8
1CENTER
 10
1359.0
 20
-274.0728534968603
 30
0.0000000000010589
 11
1401.0
 21
-274.0728534968603
 31
0.0000000000010589
  0
LINE
  5
231A7
  8
1CENTER
 10
1380.0
 20
-295.0728534968603
 30
0.0000000000010589
 11
1380.0
 21
-253.0728534968603
 31
0.0000000000010589
  0
LINE
  5
231A8
  8
1CENTER
 10
1449.0
 20
-274.0728534968603
 30
0.0000000000010589
 11
1491.0
 21
-274.0728534968603
 31
0.0000000000010589
  0
LINE
  5
231A9
  8
1CENTER
 10
1470.0
 20
-295.0728534968603
 30
0.0000000000010589
 11
1470.0
 21
-253.0728534968603
 31
0.0000000000010589
  0
LINE
  5
231AA
  8
1CENTER
 10
1539.0
 20
-274.0728534968603
 30
0.0000000000010589
 11
1581.0
 21
-274.0728534968603
 31
0.0000000000010589
  0
LINE
  5
231AB
  8
1CENTER
 10
1560.0
 20
-295.0728534968603
 30
0.0000000000010589
 11
1560.0
 21
-253.0728534968603
 31
0.0000000000010589
  0
LINE
  5
231B2
  8
1CENTER
 10
1553.625
 20
-416.185902207606
 30
0.0000000000008971
 11
1566.375
 21
-416.185902207606
 31
0.0000000000008971
  0
LINE
  5
231B3
  8
1CENTER
 10
1560.0
 20
-422.560902207606
 30
0.0000000000008971
 11
1560.0
 21
-409.810902207606
 31
0.0000000000008971
  0
LINE
  5
231B4
  8
1CENTER
 10
1463.625
 20
-416.185902207606
 30
0.0000000000008971
 11
1476.375
 21
-416.185902207606
 31
0.0000000000008971
  0
LINE
  5
231B5
  8
1CENTER
 10
1470.0
 20
-422.560902207606
 30
0.0000000000008971
 11
1470.0
 21
-409.810902207606
 31
0.0000000000008971
  0
LINE
  5
231B6
  8
1CENTER
 10
1373.625
 20
-416.185902207606
 30
0.0000000000008971
 11
1386.375
 21
-416.185902207606
 31
0.0000000000008971
  0
LINE
  5
231B7
  8
1CENTER
 10
1380.0
 20
-422.560902207606
 30
0.0000000000008971
 11
1380.0
 21
-409.810902207606
 31
0.0000000000008971
  0
LINE
  5
231BE
  8
1DIM
  6
PHANTOM2
 10
1775.224684814399
 20
-396.1858983848679
 30
0.0000000000019322
 11
1775.224684814399
 21
-392.1858983848679
 31
0.0000000000019322
  0
LINE
  5
231C2
  8
1DIM
  6
PHANTOM2
 10
1775.224684814399
 20
-436.1858983848679
 30
0.0000000000019322
 11
1775.224684814399
 21
-439.6858983848679
 31
0.0000000000019322
  0
ARC
  5
231CF
  8
01
  6
CONTINUOUS
 10
1696.224684814399
 20
-397.1858983848679
 30
0.0000000000019322
 40
1.0
 50
90.0
 51
180.0
  0
LINE
  5
235A4
  8
01
 10
1784.224684814399
 20
-376.1858983848681
 30
0.0000000000019322
 11
1784.224684814399
 21
-456.1858983848676
 31
0.0000000000019322
  0
LINE
  5
235A6
  8
01
 10
1775.224684814399
 20
-376.1858983848681
 30
0.0000000000019322
 11
1775.224684814399
 21
-456.1858983848676
 31
0.0000000000019322
  0
TEXT
  5
235AB
  8
1TEXT
 10
1705.667450199089
 20
-251.9043897105298
 30
0.0
 40
8.0
  1
表面処理：
 72
     1
 11
1727.267450199088
 21
-251.9043897105298
 31
0.0
  0
LINE
  5
235AD
  8
1DIM
 10
1692.467450199087
 20
-240.9043897105298
 30
0.0
 11
1832.467450199087
 21
-240.9043897105298
 31
0.0
  0
LINE
  5
235AE
  8
1DIM
 10
1692.467450199087
 20
-268.9043897105298
 30
0.0
 11
1832.467450199087
 21
-268.9043897105298
 31
0.0
  0
LINE
  5
235AF
  8
1DIM
 10
1692.467450199087
 20
-254.9043897105298
 30
0.0
 11
1832.467450199087
 21
-254.9043897105298
 31
0.0
  0
LINE
  5
235B0
  8
1DIM
 10
1762.467450199087
 20
-240.9043897105298
 30
0.0
 11
1762.467450199087
 21
-282.9043897105298
 31
0.0
  0
TEXT
  5
235B2
  8
1TEXT
 10
1783.534116865755
 20
-251.9043897105298
 30
0.0
 40
8.0
  1
コード
 72
     1
 11
1797.267450199088
 21
-251.9043897105298
 31
0.0
  0
LINE
  5
235B3
  8
1DIM
 10
1692.467450199087
 20
-282.9043897105298
 30
0.0
 11
1692.467450199087
 21
-240.9043897105298
 31
0.0
  0
LINE
  5
235B4
  8
1DIM
 10
1832.467450199087
 20
-282.9043897105298
 30
0.0
 11
1832.467450199087
 21
-240.9043897105298
 31
0.0
  0
TEXT
  5
235B5
  8
1TEXT
 10
1692.467450199087
 20
-230.90438971053
 30
0.0
 40
16.0
  1
SE-60H-XXL
  0
CIRCLE
  5
23774
  8
01
 10
1380.0
 20
-416.1858983848679
 30
0.0000000000019322
 40
4.0
  0
CIRCLE
  5
23776
  8
01
 10
1470.0
 20
-416.1858983848679
 30
0.0000000000019322
 40
4.0
  0
CIRCLE
  5
23778
  8
01
 10
1560.0
 20
-416.1858983848679
 30
0.0000000000019322
 40
4.0
  0
TEXT
  5
23786
  8
1TEXT
 10
1697.507450199088
 20
-265.5749670295785
 30
0.0
 40
8.0
  1
ブラストシルバー
 41
0.8
 72
     1
 11
1727.267450199088
 21
-265.5749670295785
 31
0.0
  0
TEXT
  5
23787
  8
1TEXT
 10
1768.746616865755
 20
-266.3331036778285
 30
0.0
 40
8.0
  1
SE-60H-XSL
 41
0.75
 72
     1
 11
1797.267450199088
 21
-266.3331036778285
 31
0.0
  0
ARC
  5
23A1D
  8
01
 10
1771.724684814399
 20
-432.2716848224945
 30
0.0
 40
1.0
 50
180.0
 51
225.0000000001013
  0
ARC
  5
23A1E
  8
01
 10
1768.724684814399
 20
-406.0143255096136
 30
0.0
 40
2.000000000000006
 50
0.0
 51
44.99999999998158
  0
LINE
  5
23A1F
  8
01
 10
1770.138898376772
 20
-404.6001119472407
 30
0.0
 11
1765.810471252025
 21
-400.2716848224945
 31
0.0
  0
ARC
  5
23A20
  8
01
 10
1764.396257689652
 20
-401.6858983848679
 30
0.0
 40
2.000000000000016
 50
45.0
 51
90.0
  0
LINE
  5
23A21
  8
01
 10
1770.724684814399
 20
-432.2716848224945
 30
0.0
 11
1770.724684814399
 21
-406.0143255096136
 31
0.0
  0
LINE
  5
23A22
  8
01
 10
1764.396257689652
 20
-399.6858983848679
 30
0.0
 11
1698.224684814399
 21
-399.6858983848679
 31
0.0
  0
LINE
  5
23A23
  8
01
 10
1698.224684814399
 20
-399.6858983848679
 30
0.0
 11
1696.224684814399
 21
-399.6858983848679
 31
0.0
  0
ARC
  5
23A24
  8
01
 10
1696.224684814399
 20
-398.6858983848679
 30
0.0
 40
1.0
 50
180.0
 51
270.0
  0
LINE
  5
23A2D
  8
1DIM
 10
1692.467450199087
 20
-282.9043897105298
 30
0.0
 11
1832.467450199087
 21
-282.9043897105298
 31
0.0
  0
LINE
  5
23A2E
  8
1DIM
 10
1692.467450199087
 20
-268.9043897105298
 30
0.0
 11
1832.467450199087
 21
-268.9043897105298
 31
0.0
  0
TEXT
  5
23A2F
  8
1TEXT
 10
1697.507450199088
 20
-279.5749670295785
 30
0.0
 40
8.0
  1
ブラストブラック
 41
0.8
 72
     1
 11
1727.267450199088
 21
-279.5749670295785
 31
0.0
  0
TEXT
  5
23A30
  8
1TEXT
 10
1768.746616865755
 20
-280.3331036778285
 30
0.0
 40
8.0
  1
SE-60H-XKL
 41
0.75
 72
     1
 11
1797.267450199088
 21
-280.3331036778285
 31
0.0
  0
CIRCLE
  5
23A37
  8
01
 10
1369.077912101425
 20
-503.3689910032591
 30
0.0
 40
19.5
  0
CIRCLE
  5
23A38
  8
01
 10
1369.077912101425
 20
-503.3689910032591
 30
0.0
 40
14.0
  0
CIRCLE
  5
23A3B
  8
01
 10
1538.165032602342
 20
-503.3689910032591
 30
0.0
 40
19.5
  0
CIRCLE
  5
23A3C
  8
01
 10
1538.165032602342
 20
-503.3689910032591
 30
0.0
 40
12.0
  0
CIRCLE
  5
23A3D
  8
01
 10
1380.0
 20
-274.0728575966641
 30
0.0000000000008305
 40
19.75
  0
CIRCLE
  5
23A3E
  8
01
 10
1470.0
 20
-274.0728575966641
 30
0.0000000000008305
 40
19.75000000000003
  0
CIRCLE
  5
23A3F
  8
01
 10
1560.0
 20
-274.0728575966641
 30
0.0000000000008305
 40
19.75
  0
CIRCLE
  5
23A40
  8
01
 10
1560.0
 20
-274.0728575966641
 30
0.0000000000008305
 40
16.24999999999997
  0
CIRCLE
  5
23A41
  8
01
 10
1470.0
 20
-274.0728575966641
 30
0.0000000000008305
 40
16.24999999999997
  0
CIRCLE
  5
23A42
  8
01
 10
1380.0
 20
-274.0728575966641
 30
0.0000000000008305
 40
16.25
  0
LINE
  5
23E0F
  8
01
 10
1793.224684814399
 20
-376.1858983848681
 30
0.0000000000019322
 11
1793.224684814399
 21
-456.1858983848676
 31
0.0000000000019322
  0
CIRCLE
  5
23E10
  8
01
 10
1410.077912101425
 20
-503.3689910032591
 30
0.0
 40
19.5
  0
CIRCLE
  5
23E11
  8
01
 10
1410.077912101425
 20
-503.3689910032591
 30
0.0
 40
14.0
  0
CIRCLE
  5
23E12
  8
01
 10
1451.077912101425
 20
-503.3689910032591
 30
0.0
 40
19.5
  0
CIRCLE
  5
23E13
  8
01
 10
1451.077912101425
 20
-503.3689910032591
 30
0.0
 40
14.0
  0
CIRCLE
  5
23E14
  8
01
 10
1579.165032602342
 20
-503.3689910032591
 30
0.0
 40
19.5
  0
CIRCLE
  5
23E15
  8
01
 10
1579.165032602342
 20
-503.3689910032591
 30
0.0
 40
12.0
  0
CIRCLE
  5
23E16
  8
01
 10
1620.165032602342
 20
-503.3689910032591
 30
0.0
 40
19.5
  0
CIRCLE
  5
23E17
  8
01
 10
1620.165032602342
 20
-503.3689910032591
 30
0.0
 40
12.0
  0
LINE
  5
23E38
  8
1CENTER
  6
PHANTOM2
 10
1470.0
 20
-191.1683845400552
 30
0.0000000000008733
 11
1470.0
 21
-229.00151758743
 31
0.0000000000008733
  0
LINE
  5
23E39
  8
01
  6
PHANTOM2
 10
1471.499953464102
 20
-199.822877240716
 30
0.0000000000008733
 11
1471.999953464102
 21
-199.7228760773189
 31
0.0000000000008733
  0
LINE
  5
23E3A
  8
01
  6
PHANTOM2
 10
1471.999953464102
 20
-199.7228760773189
 30
0.0000000000008733
 11
1467.999953464102
 21
-198.9228853844963
 31
0.0000000000008733
  0
LINE
  5
23E3B
  8
01
  6
PHANTOM2
 10
1467.999953464102
 20
-198.9228853844963
 30
0.0000000000008733
 11
1468.499953464102
 21
-198.8228842210992
 31
0.0000000000008733
  0
LINE
  5
23E3C
  8
01
  6
PHANTOM2
 10
1471.499953464102
 20
-201.422877240716
 30
0.0000000000008733
 11
1471.999953464102
 21
-201.3228760773189
 31
0.0000000000008733
  0
LINE
  5
23E3D
  8
01
  6
PHANTOM2
 10
1467.999953464102
 20
-200.5228853844964
 30
0.0000000000008733
 11
1468.499953464102
 21
-200.4228842210993
 31
0.0000000000008733
  0
LINE
  5
23E3E
  8
01
  6
PHANTOM2
 10
1471.999953464102
 20
-201.3228760773189
 30
0.0000000000008733
 11
1467.999953464102
 21
-200.5228853844964
 31
0.0000000000008733
  0
LINE
  5
23E3F
  8
01
  6
PHANTOM2
 10
1471.499953464102
 20
-203.0228772407161
 30
0.0000000000008733
 11
1471.999953464102
 21
-202.922876077319
 31
0.0000000000008733
  0
LINE
  5
23E40
  8
01
  6
PHANTOM2
 10
1471.999953464102
 20
-202.922876077319
 30
0.0000000000008733
 11
1467.999953464102
 21
-202.1228853844964
 31
0.0000000000008733
  0
LINE
  5
23E41
  8
01
  6
PHANTOM2
 10
1467.999953464102
 20
-202.1228853844964
 30
0.0000000000008733
 11
1468.499953464102
 21
-202.0228842210993
 31
0.0000000000008733
  0
LINE
  5
23E42
  8
01
  6
PHANTOM2
 10
1471.499953464102
 20
-211.0228772407162
 30
0.0000000000008733
 11
1471.999953464102
 21
-210.9228760773191
 31
0.0000000000008733
  0
LINE
  5
23E43
  8
01
  6
PHANTOM2
 10
1467.999953464102
 20
-210.1228853844965
 30
0.0000000000008733
 11
1468.499953464102
 21
-210.0228842210993
 31
0.0000000000008733
  0
LINE
  5
23E44
  8
01
  6
PHANTOM2
 10
1467.999953464102
 20
-208.5228853844964
 30
0.0000000000008733
 11
1468.499953464102
 21
-208.4228842210993
 31
0.0000000000008733
  0
LINE
  5
23E45
  8
01
  6
PHANTOM2
 10
1471.499953464102
 20
-209.422877240716
 30
0.0000000000008733
 11
1471.999953464102
 21
-209.3228760773189
 31
0.0000000000008733
  0
LINE
  5
23E46
  8
01
  6
PHANTOM2
 10
1471.499953464102
 20
-207.8228772407161
 30
0.0000000000008733
 11
1471.999953464102
 21
-207.722876077319
 31
0.0000000000008733
  0
LINE
  5
23E47
  8
01
  6
PHANTOM2
 10
1471.999953464102
 20
-209.3228760773189
 30
0.0000000000008733
 11
1467.999953464102
 21
-208.5228853844964
 31
0.0000000000008733
  0
LINE
  5
23E48
  8
01
  6
PHANTOM2
 10
1471.999953464102
 20
-210.9228760773191
 30
0.0000000000008733
 11
1467.999953464102
 21
-210.1228853844965
 31
0.0000000000008733
  0
LINE
  5
23E49
  8
01
  6
PHANTOM2
 10
1471.499953464102
 20
-206.2228772407162
 30
0.0000000000008733
 11
1471.999953464102
 21
-206.122876077319
 31
0.0000000000008733
  0
LINE
  5
23E4A
  8
01
  6
PHANTOM2
 10
1471.499953464102
 20
-198.0228772407162
 30
0.0000000000008733
 11
1471.999953464102
 21
-197.9228760773191
 31
0.0000000000008733
  0
LINE
  5
23E4B
  8
01
  6
PHANTOM2
 10
1471.999953464102
 20
-197.9228760773191
 30
0.0000000000008733
 11
1468.226360516306
 21
-197.1228848576938
 31
0.0000000000008733
  0
LINE
  5
23E4C
  8
01
  6
PHANTOM2
 10
1468.226360516306
 20
-197.1228848576938
 30
0.0000000000008733
 11
1468.762954251577
 21
-196.9936141600639
 31
0.0000000000008733
  0
LINE
  5
23E4D
  8
01
  6
PHANTOM2
 10
1467.999953464102
 20
-205.3228853844964
 30
0.0000000000008733
 11
1468.499953464102
 21
-205.2228842210994
 31
0.0000000000008733
  0
LINE
  5
23E4E
  8
01
  6
PHANTOM2
 10
1467.999953464102
 20
-203.7228853844964
 30
0.0000000000008733
 11
1468.499953464102
 21
-203.6228842210993
 31
0.0000000000008733
  0
LINE
  5
23E4F
  8
01
  6
PHANTOM2
 10
1471.499953464102
 20
-204.6228772407161
 30
0.0000000000008733
 11
1471.999953464102
 21
-204.522876077319
 31
0.0000000000008733
  0
LINE
  5
23E50
  8
01
  6
PHANTOM2
 10
1471.999953464102
 20
-204.522876077319
 30
0.0000000000008733
 11
1467.999953464102
 21
-203.7228853844964
 31
0.0000000000008733
  0
LINE
  5
23E51
  8
01
  6
PHANTOM2
 10
1471.999953464102
 20
-206.122876077319
 30
0.0000000000008733
 11
1467.999953464102
 21
-205.3228853844964
 31
0.0000000000008733
  0
LINE
  5
23E52
  8
01
  6
PHANTOM2
 10
1471.547137322043
 20
-196.3228771309292
 30
0.0000000000008733
 11
1468.679174620713
 21
-195.5228838040881
 31
0.0000000000008733
  0
LINE
  5
23E53
  8
01
  6
PHANTOM2
 10
1471.094323813995
 20
-194.7228781845335
 30
0.0000000000008733
 11
1469.13198872512
 21
-193.9228827504825
 31
0.0000000000008733
  0
LINE
  5
23E54
  8
01
  6
PHANTOM2
 10
1468.679174620713
 20
-195.5228838040881
 30
0.0000000000008733
 11
1469.230924084516
 21
-195.3401196614601
 31
0.0000000000008733
  0
LINE
  5
23E55
  8
01
  6
PHANTOM2
 10
1470.637151973364
 20
-194.8743139809739
 30
0.0000000000008733
 11
1471.094323813995
 21
-194.7228781845335
 31
0.0000000000008733
  0
LINE
  5
23E56
  8
01
  6
PHANTOM2
 10
1469.13198872512
 20
-193.9228827504825
 30
0.0000000000008733
 11
1469.720265300162
 21
-193.6111128942304
 31
0.0000000000008733
  0
LINE
  5
23E57
  8
01
  6
PHANTOM2
 10
1471.079038866893
 20
-196.4356466432793
 30
0.0000000000008733
 11
1471.547137322043
 21
-196.3228771309292
 31
0.0000000000008733
  0
LINE
  5
23E58
  8
01
  6
PHANTOM2
 10
1467.999953464102
 20
-206.9228853844965
 30
0.0000000000008733
 11
1468.499953464102
 21
-206.8228842210992
 31
0.0000000000008733
  0
LINE
  5
23E59
  8
01
  6
PHANTOM2
 10
1471.999953464102
 20
-207.722876077319
 30
0.0000000000008733
 11
1467.999953464102
 21
-206.9228853844965
 31
0.0000000000008733
  0
LINE
  5
23E5A
  8
01
  6
PHANTOM2
 10
1468.499953464102
 20
-224.6228842211162
 30
0.0000000000008733
 11
1467.999953464102
 21
-224.5228853845139
 31
0.0000000000008733
  0
LINE
  5
23E5B
  8
01
  6
PHANTOM2
 10
1471.999953464102
 20
-223.7228760773278
 30
0.0000000000008733
 11
1467.999953464102
 21
-222.9228853845095
 31
0.0000000000008733
  0
LINE
  5
23E5C
  8
01
  6
PHANTOM2
 10
1471.999953464102
 20
-220.5228760773277
 30
0.0000000000008733
 11
1467.999953464102
 21
-219.7228853845095
 31
0.0000000000008733
  0
LINE
  5
23E5D
  8
01
  6
PHANTOM2
 10
1467.999953464102
 20
-219.7228853845095
 30
0.0000000000008733
 11
1468.499953464102
 21
-219.6228842211118
 31
0.0000000000008733
  0
LINE
  5
23E5E
  8
01
  6
PHANTOM2
 10
1467.999953464102
 20
-222.9228853845095
 30
0.0000000000008733
 11
1468.499953464102
 21
-222.8228842211118
 31
0.0000000000008733
  0
LINE
  5
23E5F
  8
01
  6
PHANTOM2
 10
1471.499953464102
 20
-222.2228772407256
 30
0.0000000000008733
 11
1471.999953464102
 21
-222.1228760773279
 31
0.0000000000008733
  0
LINE
  5
23E60
  8
01
  6
PHANTOM2
 10
1467.999953464102
 20
-221.3228853845096
 30
0.0000000000008733
 11
1468.499953464102
 21
-221.2228842211119
 31
0.0000000000008733
  0
LINE
  5
23E61
  8
01
  6
PHANTOM2
 10
1471.999953464102
 20
-222.1228760773279
 30
0.0000000000008733
 11
1467.999953464102
 21
-221.3228853845096
 31
0.0000000000008733
  0
LINE
  5
23E62
  8
01
  6
PHANTOM2
 10
1471.499953464102
 20
-220.6228772407254
 30
0.0000000000008733
 11
1471.999953464102
 21
-220.5228760773277
 31
0.0000000000008733
  0
LINE
  5
23E63
  8
01
  6
PHANTOM2
 10
1467.999953464102
 20
-224.5228853845139
 30
0.0000000000008733
 11
1468.499953464102
 21
-224.4228842211162
 31
0.0000000000008733
  0
LINE
  5
23E64
  8
01
  6
PHANTOM2
 10
1471.499953464102
 20
-223.8228772407255
 30
0.0000000000008733
 11
1471.999953464102
 21
-223.7228760773278
 31
0.0000000000008733
  0
LINE
  5
23E65
  8
01
  6
PHANTOM2
 10
1474.0
 20
-227.3228714235127
 30
0.0000000000008733
 11
1466.0
 21
-227.3228900378717
 31
0.0000000000008733
  0
LINE
  5
23E66
  8
01
  6
PHANTOM2
 10
1471.499953464102
 20
-219.0228772407211
 30
0.0000000000008733
 11
1471.999953464102
 21
-218.9228760773234
 31
0.0000000000008733
  0
LINE
  5
23E67
  8
01
  6
PHANTOM2
 10
1471.499953464102
 20
-217.4228772407167
 30
0.0000000000008733
 11
1471.999953464102
 21
-217.3228760773191
 31
0.0000000000008733
  0
LINE
  5
23E68
  8
01
  6
PHANTOM2
 10
1467.999953464102
 20
-218.1228853845051
 30
0.0000000000008733
 11
1468.499953464102
 21
-218.0228842211075
 31
0.0000000000008733
  0
LINE
  5
23E69
  8
01
  6
PHANTOM2
 10
1471.499953464102
 20
-214.2228772407167
 30
0.0000000000008733
 11
1471.999953464102
 21
-214.122876077319
 31
0.0000000000008733
  0
LINE
  5
23E6A
  8
01
  6
PHANTOM2
 10
1471.999953464102
 20
-215.7228760773191
 30
0.0000000000008733
 11
1467.999953464102
 21
-214.9228853845009
 31
0.0000000000008733
  0
LINE
  5
23E6B
  8
01
  6
PHANTOM2
 10
1467.999953464102
 20
-214.9228853845009
 30
0.0000000000008733
 11
1468.499953464102
 21
-214.8228842211032
 31
0.0000000000008733
  0
LINE
  5
23E6C
  8
01
  6
PHANTOM2
 10
1471.499953464102
 20
-215.8228772407168
 30
0.0000000000008733
 11
1471.999953464102
 21
-215.7228760773191
 31
0.0000000000008733
  0
LINE
  5
23E6D
  8
01
  6
PHANTOM2
 10
1467.999953464102
 20
-216.5228853845008
 30
0.0000000000008733
 11
1468.499953464102
 21
-216.4228842211031
 31
0.0000000000008733
  0
LINE
  5
23E6E
  8
01
  6
PHANTOM2
 10
1467.999953464102
 20
-211.7228853844964
 30
0.0000000000008733
 11
1468.499953464102
 21
-211.6228842210993
 31
0.0000000000008733
  0
LINE
  5
23E6F
  8
01
  6
PHANTOM2
 10
1467.999953464102
 20
-213.3228853845008
 30
0.0000000000008733
 11
1468.499953464102
 21
-213.2228842211031
 31
0.0000000000008733
  0
LINE
  5
23E70
  8
01
  6
PHANTOM2
 10
1471.499953464102
 20
-212.6228772407168
 30
0.0000000000008733
 11
1471.999953464102
 21
-212.522876077319
 31
0.0000000000008733
  0
LINE
  5
23E71
  8
01
  6
PHANTOM2
 10
1471.999953464102
 20
-212.522876077319
 30
0.0000000000008733
 11
1467.999953464102
 21
-211.7228853844964
 31
0.0000000000008733
  0
LINE
  5
23E72
  8
01
  6
PHANTOM2
 10
1471.999953464102
 20
-214.122876077319
 30
0.0000000000008733
 11
1467.999953464102
 21
-213.3228853845008
 31
0.0000000000008733
  0
LINE
  5
23E73
  8
01
  6
PHANTOM2
 10
1471.999953464102
 20
-217.3228760773191
 30
0.0000000000008733
 11
1467.999953464102
 21
-216.5228853845008
 31
0.0000000000008733
  0
LINE
  5
23E74
  8
01
  6
PHANTOM2
 10
1471.999953464102
 20
-218.9228760773234
 30
0.0000000000008733
 11
1467.999953464102
 21
-218.1228853845051
 31
0.0000000000008733
  0
LINE
  5
23E76
  8
1CENTER
  6
PHANTOM2
 10
1560.0
 20
-191.1683709231387
 30
0.0
 11
1560.0
 21
-229.0015039705135
 31
0.0
  0
LINE
  5
23E77
  8
01
  6
PHANTOM2
 10
1561.499953464102
 20
-199.8228636237995
 30
0.0
 11
1561.999953464102
 21
-199.7228624604024
 31
0.0
  0
LINE
  5
23E78
  8
01
  6
PHANTOM2
 10
1561.999953464102
 20
-199.7228624604024
 30
0.0
 11
1557.999953464102
 21
-198.9228717675799
 31
0.0
  0
LINE
  5
23E79
  8
01
  6
PHANTOM2
 10
1557.999953464102
 20
-198.9228717675799
 30
0.0
 11
1558.499953464102
 21
-198.8228706041828
 31
0.0
  0
LINE
  5
23E7A
  8
01
  6
PHANTOM2
 10
1561.499953464102
 20
-201.4228636237996
 30
0.0
 11
1561.999953464102
 21
-201.3228624604025
 31
0.0
  0
LINE
  5
23E7B
  8
01
  6
PHANTOM2
 10
1557.999953464102
 20
-200.5228717675799
 30
0.0
 11
1558.499953464102
 21
-200.4228706041828
 31
0.0
  0
LINE
  5
23E7C
  8
01
  6
PHANTOM2
 10
1561.999953464102
 20
-201.3228624604025
 30
0.0
 11
1557.999953464102
 21
-200.5228717675799
 31
0.0
  0
LINE
  5
23E7D
  8
01
  6
PHANTOM2
 10
1561.499953464102
 20
-203.0228636237996
 30
0.0
 11
1561.999953464102
 21
-202.9228624604025
 31
0.0
  0
LINE
  5
23E7E
  8
01
  6
PHANTOM2
 10
1561.999953464102
 20
-202.9228624604025
 30
0.0
 11
1557.999953464102
 21
-202.1228717675799
 31
0.0
  0
LINE
  5
23E7F
  8
01
  6
PHANTOM2
 10
1557.999953464102
 20
-202.1228717675799
 30
0.0
 11
1558.499953464102
 21
-202.0228706041828
 31
0.0
  0
LINE
  5
23E80
  8
01
  6
PHANTOM2
 10
1561.499953464102
 20
-211.0228636237997
 30
0.0
 11
1561.999953464102
 21
-210.9228624604026
 31
0.0
  0
LINE
  5
23E81
  8
01
  6
PHANTOM2
 10
1557.999953464102
 20
-210.12287176758
 30
0.0
 11
1558.499953464102
 21
-210.0228706041828
 31
0.0
  0
LINE
  5
23E82
  8
01
  6
PHANTOM2
 10
1557.999953464102
 20
-208.5228717675799
 30
0.0
 11
1558.499953464102
 21
-208.4228706041828
 31
0.0
  0
LINE
  5
23E83
  8
01
  6
PHANTOM2
 10
1561.499953464102
 20
-209.4228636237996
 30
0.0
 11
1561.999953464102
 21
-209.3228624604025
 31
0.0
  0
LINE
  5
23E84
  8
01
  6
PHANTOM2
 10
1561.499953464102
 20
-207.8228636237997
 30
0.0
 11
1561.999953464102
 21
-207.7228624604026
 31
0.0
  0
LINE
  5
23E85
  8
01
  6
PHANTOM2
 10
1561.999953464102
 20
-209.3228624604025
 30
0.0
 11
1557.999953464102
 21
-208.5228717675799
 31
0.0
  0
LINE
  5
23E86
  8
01
  6
PHANTOM2
 10
1561.999953464102
 20
-210.9228624604026
 30
0.0
 11
1557.999953464102
 21
-210.12287176758
 31
0.0
  0
LINE
  5
23E87
  8
01
  6
PHANTOM2
 10
1561.499953464102
 20
-206.2228636237998
 30
0.0
 11
1561.999953464102
 21
-206.1228624604025
 31
0.0
  0
LINE
  5
23E88
  8
01
  6
PHANTOM2
 10
1561.499953464102
 20
-198.0228636237997
 30
0.0
 11
1561.999953464102
 21
-197.9228624604026
 31
0.0
  0
LINE
  5
23E89
  8
01
  6
PHANTOM2
 10
1561.999953464102
 20
-197.9228624604026
 30
0.0
 11
1558.226360516306
 21
-197.1228712407773
 31
0.0
  0
LINE
  5
23E8A
  8
01
  6
PHANTOM2
 10
1558.226360516306
 20
-197.1228712407773
 30
0.0
 11
1558.762954251577
 21
-196.9936005431474
 31
0.0
  0
LINE
  5
23E8B
  8
01
  6
PHANTOM2
 10
1557.999953464102
 20
-205.32287176758
 30
0.0
 11
1558.499953464102
 21
-205.222870604183
 31
0.0
  0
LINE
  5
23E8C
  8
01
  6
PHANTOM2
 10
1557.999953464102
 20
-203.7228717675799
 30
0.0
 11
1558.499953464102
 21
-203.6228706041828
 31
0.0
  0
LINE
  5
23E8D
  8
01
  6
PHANTOM2
 10
1561.499953464102
 20
-204.6228636237996
 30
0.0
 11
1561.999953464102
 21
-204.5228624604025
 31
0.0
  0
LINE
  5
23E8E
  8
01
  6
PHANTOM2
 10
1561.999953464102
 20
-204.5228624604025
 30
0.0
 11
1557.999953464102
 21
-203.7228717675799
 31
0.0
  0
LINE
  5
23E8F
  8
01
  6
PHANTOM2
 10
1561.999953464102
 20
-206.1228624604025
 30
0.0
 11
1557.999953464102
 21
-205.32287176758
 31
0.0
  0
LINE
  5
23E90
  8
01
  6
PHANTOM2
 10
1561.547137322043
 20
-196.3228635140128
 30
0.0
 11
1558.679174620713
 21
-195.5228701871717
 31
0.0
  0
LINE
  5
23E91
  8
01
  6
PHANTOM2
 10
1561.094323813995
 20
-194.722864567617
 30
0.0
 11
1559.13198872512
 21
-193.922869133566
 31
0.0
  0
LINE
  5
23E92
  8
01
  6
PHANTOM2
 10
1558.679174620713
 20
-195.5228701871717
 30
0.0
 11
1559.230924084516
 21
-195.3401060445437
 31
0.0
  0
LINE
  5
23E93
  8
01
  6
PHANTOM2
 10
1560.637151973364
 20
-194.8743003640574
 30
0.0
 11
1561.094323813995
 21
-194.722864567617
 31
0.0
  0
LINE
  5
23E94
  8
01
  6
PHANTOM2
 10
1559.13198872512
 20
-193.922869133566
 30
0.0
 11
1559.720265300162
 21
-193.6110992773139
 31
0.0
  0
LINE
  5
23E95
  8
01
  6
PHANTOM2
 10
1561.079038866893
 20
-196.4356330263628
 30
0.0
 11
1561.547137322043
 21
-196.3228635140128
 31
0.0
  0
LINE
  5
23E96
  8
01
  6
PHANTOM2
 10
1557.999953464102
 20
-206.92287176758
 30
0.0
 11
1558.499953464102
 21
-206.8228706041828
 31
0.0
  0
LINE
  5
23E97
  8
01
  6
PHANTOM2
 10
1561.999953464102
 20
-207.7228624604026
 30
0.0
 11
1557.999953464102
 21
-206.92287176758
 31
0.0
  0
LINE
  5
23E98
  8
01
  6
PHANTOM2
 10
1558.499953464102
 20
-224.6228706041997
 30
0.0
 11
1557.999953464102
 21
-224.5228717675974
 31
0.0
  0
LINE
  5
23E99
  8
01
  6
PHANTOM2
 10
1561.999953464102
 20
-223.7228624604113
 30
0.0
 11
1557.999953464102
 21
-222.9228717675931
 31
0.0
  0
LINE
  5
23E9A
  8
01
  6
PHANTOM2
 10
1561.999953464102
 20
-220.5228624604113
 30
0.0
 11
1557.999953464102
 21
-219.722871767593
 31
0.0
  0
LINE
  5
23E9B
  8
01
  6
PHANTOM2
 10
1557.999953464102
 20
-219.722871767593
 30
0.0
 11
1558.499953464102
 21
-219.6228706041953
 31
0.0
  0
LINE
  5
23E9C
  8
01
  6
PHANTOM2
 10
1557.999953464102
 20
-222.9228717675931
 30
0.0
 11
1558.499953464102
 21
-222.8228706041954
 31
0.0
  0
LINE
  5
23E9D
  8
01
  6
PHANTOM2
 10
1561.499953464102
 20
-222.2228636238091
 30
0.0
 11
1561.999953464102
 21
-222.1228624604114
 31
0.0
  0
LINE
  5
23E9E
  8
01
  6
PHANTOM2
 10
1557.999953464102
 20
-221.3228717675931
 30
0.0
 11
1558.499953464102
 21
-221.2228706041955
 31
0.0
  0
LINE
  5
23E9F
  8
01
  6
PHANTOM2
 10
1561.999953464102
 20
-222.1228624604114
 30
0.0
 11
1557.999953464102
 21
-221.3228717675931
 31
0.0
  0
LINE
  5
23EA0
  8
01
  6
PHANTOM2
 10
1561.499953464102
 20
-220.6228636238089
 30
0.0
 11
1561.999953464102
 21
-220.5228624604113
 31
0.0
  0
LINE
  5
23EA1
  8
01
  6
PHANTOM2
 10
1557.999953464102
 20
-224.5228717675974
 30
0.0
 11
1558.499953464102
 21
-224.4228706041997
 31
0.0
  0
LINE
  5
23EA2
  8
01
  6
PHANTOM2
 10
1561.499953464102
 20
-223.822863623809
 30
0.0
 11
1561.999953464102
 21
-223.7228624604113
 31
0.0
  0
LINE
  5
23EA3
  8
01
  6
PHANTOM2
 10
1564.0
 20
-227.3228578065962
 30
0.0
 11
1556.0
 21
-227.3228764209553
 31
0.0
  0
LINE
  5
23EA4
  8
01
  6
PHANTOM2
 10
1561.499953464102
 20
-219.0228636238046
 30
0.0
 11
1561.999953464102
 21
-218.9228624604069
 31
0.0
  0
LINE
  5
23EA5
  8
01
  6
PHANTOM2
 10
1561.499953464102
 20
-217.4228636238003
 30
0.0
 11
1561.999953464102
 21
-217.3228624604026
 31
0.0
  0
LINE
  5
23EA6
  8
01
  6
PHANTOM2
 10
1557.999953464102
 20
-218.1228717675887
 30
0.0
 11
1558.499953464102
 21
-218.022870604191
 31
0.0
  0
LINE
  5
23EA7
  8
01
  6
PHANTOM2
 10
1561.499953464102
 20
-214.2228636238002
 30
0.0
 11
1561.999953464102
 21
-214.1228624604025
 31
0.0
  0
LINE
  5
23EA8
  8
01
  6
PHANTOM2
 10
1561.999953464102
 20
-215.7228624604027
 30
0.0
 11
1557.999953464102
 21
-214.9228717675844
 31
0.0
  0
LINE
  5
23EA9
  8
01
  6
PHANTOM2
 10
1557.999953464102
 20
-214.9228717675844
 30
0.0
 11
1558.499953464102
 21
-214.8228706041867
 31
0.0
  0
LINE
  5
23EAA
  8
01
  6
PHANTOM2
 10
1561.499953464102
 20
-215.8228636238003
 30
0.0
 11
1561.999953464102
 21
-215.7228624604027
 31
0.0
  0
LINE
  5
23EAB
  8
01
  6
PHANTOM2
 10
1557.999953464102
 20
-216.5228717675843
 30
0.0
 11
1558.499953464102
 21
-216.4228706041866
 31
0.0
  0
LINE
  5
23EAC
  8
01
  6
PHANTOM2
 10
1557.999953464102
 20
-211.7228717675799
 30
0.0
 11
1558.499953464102
 21
-211.6228706041828
 31
0.0
  0
LINE
  5
23EAD
  8
01
  6
PHANTOM2
 10
1557.999953464102
 20
-213.3228717675843
 30
0.0
 11
1558.499953464102
 21
-213.2228706041866
 31
0.0
  0
LINE
  5
23EAE
  8
01
  6
PHANTOM2
 10
1561.499953464102
 20
-212.6228636238003
 30
0.0
 11
1561.999953464102
 21
-212.5228624604025
 31
0.0
  0
LINE
  5
23EAF
  8
01
  6
PHANTOM2
 10
1561.999953464102
 20
-212.5228624604025
 30
0.0
 11
1557.999953464102
 21
-211.7228717675799
 31
0.0
  0
LINE
  5
23EB0
  8
01
  6
PHANTOM2
 10
1561.999953464102
 20
-214.1228624604025
 30
0.0
 11
1557.999953464102
 21
-213.3228717675843
 31
0.0
  0
LINE
  5
23EB1
  8
01
  6
PHANTOM2
 10
1561.999953464102
 20
-217.3228624604026
 30
0.0
 11
1557.999953464102
 21
-216.5228717675843
 31
0.0
  0
LINE
  5
23EB2
  8
01
  6
PHANTOM2
 10
1561.999953464102
 20
-218.9228624604069
 30
0.0
 11
1557.999953464102
 21
-218.1228717675887
 31
0.0
  0
LINE
  5
23EB4
  8
1CENTER
  6
PHANTOM2
 10
1380.0
 20
-191.1683845400552
 30
0.0000000000008733
 11
1380.0
 21
-229.00151758743
 31
0.0000000000008733
  0
LINE
  5
23EB5
  8
01
  6
PHANTOM2
 10
1381.499953464102
 20
-199.822877240716
 30
0.0000000000008733
 11
1381.999953464102
 21
-199.7228760773189
 31
0.0000000000008733
  0
LINE
  5
23EB6
  8
01
  6
PHANTOM2
 10
1381.999953464102
 20
-199.7228760773189
 30
0.0000000000008733
 11
1377.999953464102
 21
-198.9228853844963
 31
0.0000000000008733
  0
LINE
  5
23EB7
  8
01
  6
PHANTOM2
 10
1377.999953464102
 20
-198.9228853844963
 30
0.0000000000008733
 11
1378.499953464102
 21
-198.8228842210992
 31
0.0000000000008733
  0
LINE
  5
23EB8
  8
01
  6
PHANTOM2
 10
1381.499953464102
 20
-201.422877240716
 30
0.0000000000008733
 11
1381.999953464102
 21
-201.3228760773189
 31
0.0000000000008733
  0
LINE
  5
23EB9
  8
01
  6
PHANTOM2
 10
1377.999953464102
 20
-200.5228853844964
 30
0.0000000000008733
 11
1378.499953464102
 21
-200.4228842210993
 31
0.0000000000008733
  0
LINE
  5
23EBA
  8
01
  6
PHANTOM2
 10
1381.999953464102
 20
-201.3228760773189
 30
0.0000000000008733
 11
1377.999953464102
 21
-200.5228853844964
 31
0.0000000000008733
  0
LINE
  5
23EBB
  8
01
  6
PHANTOM2
 10
1381.499953464102
 20
-203.0228772407161
 30
0.0000000000008733
 11
1381.999953464102
 21
-202.922876077319
 31
0.0000000000008733
  0
LINE
  5
23EBC
  8
01
  6
PHANTOM2
 10
1381.999953464102
 20
-202.922876077319
 30
0.0000000000008733
 11
1377.999953464102
 21
-202.1228853844964
 31
0.0000000000008733
  0
LINE
  5
23EBD
  8
01
  6
PHANTOM2
 10
1377.999953464102
 20
-202.1228853844964
 30
0.0000000000008733
 11
1378.499953464102
 21
-202.0228842210993
 31
0.0000000000008733
  0
LINE
  5
23EBE
  8
01
  6
PHANTOM2
 10
1381.499953464102
 20
-211.0228772407162
 30
0.0000000000008733
 11
1381.999953464102
 21
-210.9228760773191
 31
0.0000000000008733
  0
LINE
  5
23EBF
  8
01
  6
PHANTOM2
 10
1377.999953464102
 20
-210.1228853844965
 30
0.0000000000008733
 11
1378.499953464102
 21
-210.0228842210993
 31
0.0000000000008733
  0
LINE
  5
23EC0
  8
01
  6
PHANTOM2
 10
1377.999953464102
 20
-208.5228853844964
 30
0.0000000000008733
 11
1378.499953464102
 21
-208.4228842210993
 31
0.0000000000008733
  0
LINE
  5
23EC1
  8
01
  6
PHANTOM2
 10
1381.499953464102
 20
-209.422877240716
 30
0.0000000000008733
 11
1381.999953464102
 21
-209.3228760773189
 31
0.0000000000008733
  0
LINE
  5
23EC2
  8
01
  6
PHANTOM2
 10
1381.499953464102
 20
-207.8228772407161
 30
0.0000000000008733
 11
1381.999953464102
 21
-207.722876077319
 31
0.0000000000008733
  0
LINE
  5
23EC3
  8
01
  6
PHANTOM2
 10
1381.999953464102
 20
-209.3228760773189
 30
0.0000000000008733
 11
1377.999953464102
 21
-208.5228853844964
 31
0.0000000000008733
  0
LINE
  5
23EC4
  8
01
  6
PHANTOM2
 10
1381.999953464102
 20
-210.9228760773191
 30
0.0000000000008733
 11
1377.999953464102
 21
-210.1228853844965
 31
0.0000000000008733
  0
LINE
  5
23EC5
  8
01
  6
PHANTOM2
 10
1381.499953464102
 20
-206.2228772407162
 30
0.0000000000008733
 11
1381.999953464102
 21
-206.122876077319
 31
0.0000000000008733
  0
LINE
  5
23EC6
  8
01
  6
PHANTOM2
 10
1381.499953464102
 20
-198.0228772407162
 30
0.0000000000008733
 11
1381.999953464102
 21
-197.9228760773191
 31
0.0000000000008733
  0
LINE
  5
23EC7
  8
01
  6
PHANTOM2
 10
1381.999953464102
 20
-197.9228760773191
 30
0.0000000000008733
 11
1378.226360516306
 21
-197.1228848576938
 31
0.0000000000008733
  0
LINE
  5
23EC8
  8
01
  6
PHANTOM2
 10
1378.226360516306
 20
-197.1228848576938
 30
0.0000000000008733
 11
1378.762954251577
 21
-196.9936141600639
 31
0.0000000000008733
  0
LINE
  5
23EC9
  8
01
  6
PHANTOM2
 10
1377.999953464102
 20
-205.3228853844964
 30
0.0000000000008733
 11
1378.499953464102
 21
-205.2228842210994
 31
0.0000000000008733
  0
LINE
  5
23ECA
  8
01
  6
PHANTOM2
 10
1377.999953464102
 20
-203.7228853844964
 30
0.0000000000008733
 11
1378.499953464102
 21
-203.6228842210993
 31
0.0000000000008733
  0
LINE
  5
23ECB
  8
01
  6
PHANTOM2
 10
1381.499953464102
 20
-204.6228772407161
 30
0.0000000000008733
 11
1381.999953464102
 21
-204.522876077319
 31
0.0000000000008733
  0
LINE
  5
23ECC
  8
01
  6
PHANTOM2
 10
1381.999953464102
 20
-204.522876077319
 30
0.0000000000008733
 11
1377.999953464102
 21
-203.7228853844964
 31
0.0000000000008733
  0
LINE
  5
23ECD
  8
01
  6
PHANTOM2
 10
1381.999953464102
 20
-206.122876077319
 30
0.0000000000008733
 11
1377.999953464102
 21
-205.3228853844964
 31
0.0000000000008733
  0
LINE
  5
23ECE
  8
01
  6
PHANTOM2
 10
1381.547137322043
 20
-196.3228771309292
 30
0.0000000000008733
 11
1378.679174620713
 21
-195.5228838040881
 31
0.0000000000008733
  0
LINE
  5
23ECF
  8
01
  6
PHANTOM2
 10
1381.094323813995
 20
-194.7228781845335
 30
0.0000000000008733
 11
1379.13198872512
 21
-193.9228827504825
 31
0.0000000000008733
  0
LINE
  5
23ED0
  8
01
  6
PHANTOM2
 10
1378.679174620713
 20
-195.5228838040881
 30
0.0000000000008733
 11
1379.230924084516
 21
-195.3401196614601
 31
0.0000000000008733
  0
LINE
  5
23ED1
  8
01
  6
PHANTOM2
 10
1380.637151973364
 20
-194.8743139809739
 30
0.0000000000008733
 11
1381.094323813995
 21
-194.7228781845335
 31
0.0000000000008733
  0
LINE
  5
23ED2
  8
01
  6
PHANTOM2
 10
1379.13198872512
 20
-193.9228827504825
 30
0.0000000000008733
 11
1379.720265300162
 21
-193.6111128942304
 31
0.0000000000008733
  0
LINE
  5
23ED3
  8
01
  6
PHANTOM2
 10
1381.079038866893
 20
-196.4356466432793
 30
0.0000000000008733
 11
1381.547137322043
 21
-196.3228771309292
 31
0.0000000000008733
  0
LINE
  5
23ED4
  8
01
  6
PHANTOM2
 10
1377.999953464102
 20
-206.9228853844965
 30
0.0000000000008733
 11
1378.499953464102
 21
-206.8228842210992
 31
0.0000000000008733
  0
LINE
  5
23ED5
  8
01
  6
PHANTOM2
 10
1381.999953464102
 20
-207.722876077319
 30
0.0000000000008733
 11
1377.999953464102
 21
-206.9228853844965
 31
0.0000000000008733
  0
LINE
  5
23ED6
  8
01
  6
PHANTOM2
 10
1378.499953464102
 20
-224.6228842211162
 30
0.0000000000008733
 11
1377.999953464102
 21
-224.5228853845139
 31
0.0000000000008733
  0
LINE
  5
23ED7
  8
01
  6
PHANTOM2
 10
1381.999953464102
 20
-223.7228760773278
 30
0.0000000000008733
 11
1377.999953464102
 21
-222.9228853845095
 31
0.0000000000008733
  0
LINE
  5
23ED8
  8
01
  6
PHANTOM2
 10
1381.999953464102
 20
-220.5228760773277
 30
0.0000000000008733
 11
1377.999953464102
 21
-219.7228853845095
 31
0.0000000000008733
  0
LINE
  5
23ED9
  8
01
  6
PHANTOM2
 10
1377.999953464102
 20
-219.7228853845095
 30
0.0000000000008733
 11
1378.499953464102
 21
-219.6228842211118
 31
0.0000000000008733
  0
LINE
  5
23EDA
  8
01
  6
PHANTOM2
 10
1377.999953464102
 20
-222.9228853845095
 30
0.0000000000008733
 11
1378.499953464102
 21
-222.8228842211118
 31
0.0000000000008733
  0
LINE
  5
23EDB
  8
01
  6
PHANTOM2
 10
1381.499953464102
 20
-222.2228772407256
 30
0.0000000000008733
 11
1381.999953464102
 21
-222.1228760773279
 31
0.0000000000008733
  0
LINE
  5
23EDC
  8
01
  6
PHANTOM2
 10
1377.999953464102
 20
-221.3228853845096
 30
0.0000000000008733
 11
1378.499953464102
 21
-221.2228842211119
 31
0.0000000000008733
  0
LINE
  5
23EDD
  8
01
  6
PHANTOM2
 10
1381.999953464102
 20
-222.1228760773279
 30
0.0000000000008733
 11
1377.999953464102
 21
-221.3228853845096
 31
0.0000000000008733
  0
LINE
  5
23EDE
  8
01
  6
PHANTOM2
 10
1381.499953464102
 20
-220.6228772407254
 30
0.0000000000008733
 11
1381.999953464102
 21
-220.5228760773277
 31
0.0000000000008733
  0
LINE
  5
23EDF
  8
01
  6
PHANTOM2
 10
1377.999953464102
 20
-224.5228853845139
 30
0.0000000000008733
 11
1378.499953464102
 21
-224.4228842211162
 31
0.0000000000008733
  0
LINE
  5
23EE0
  8
01
  6
PHANTOM2
 10
1381.499953464102
 20
-223.8228772407255
 30
0.0000000000008733
 11
1381.999953464102
 21
-223.7228760773278
 31
0.0000000000008733
  0
LINE
  5
23EE1
  8
01
  6
PHANTOM2
 10
1384.0
 20
-227.3228714235127
 30
0.0000000000008733
 11
1376.0
 21
-227.3228900378717
 31
0.0000000000008733
  0
LINE
  5
23EE2
  8
01
  6
PHANTOM2
 10
1381.499953464102
 20
-219.0228772407211
 30
0.0000000000008733
 11
1381.999953464102
 21
-218.9228760773234
 31
0.0000000000008733
  0
LINE
  5
23EE3
  8
01
  6
PHANTOM2
 10
1381.499953464102
 20
-217.4228772407167
 30
0.0000000000008733
 11
1381.999953464102
 21
-217.3228760773191
 31
0.0000000000008733
  0
LINE
  5
23EE4
  8
01
  6
PHANTOM2
 10
1377.999953464102
 20
-218.1228853845051
 30
0.0000000000008733
 11
1378.499953464102
 21
-218.0228842211075
 31
0.0000000000008733
  0
LINE
  5
23EE5
  8
01
  6
PHANTOM2
 10
1381.499953464102
 20
-214.2228772407167
 30
0.0000000000008733
 11
1381.999953464102
 21
-214.122876077319
 31
0.0000000000008733
  0
LINE
  5
23EE6
  8
01
  6
PHANTOM2
 10
1381.999953464102
 20
-215.7228760773191
 30
0.0000000000008733
 11
1377.999953464102
 21
-214.9228853845009
 31
0.0000000000008733
  0
LINE
  5
23EE7
  8
01
  6
PHANTOM2
 10
1377.999953464102
 20
-214.9228853845009
 30
0.0000000000008733
 11
1378.499953464102
 21
-214.8228842211032
 31
0.0000000000008733
  0
LINE
  5
23EE8
  8
01
  6
PHANTOM2
 10
1381.499953464102
 20
-215.8228772407168
 30
0.0000000000008733
 11
1381.999953464102
 21
-215.7228760773191
 31
0.0000000000008733
  0
LINE
  5
23EE9
  8
01
  6
PHANTOM2
 10
1377.999953464102
 20
-216.5228853845008
 30
0.0000000000008733
 11
1378.499953464102
 21
-216.4228842211031
 31
0.0000000000008733
  0
LINE
  5
23EEA
  8
01
  6
PHANTOM2
 10
1377.999953464102
 20
-211.7228853844964
 30
0.0000000000008733
 11
1378.499953464102
 21
-211.6228842210993
 31
0.0000000000008733
  0
LINE
  5
23EEB
  8
01
  6
PHANTOM2
 10
1377.999953464102
 20
-213.3228853845008
 30
0.0000000000008733
 11
1378.499953464102
 21
-213.2228842211031
 31
0.0000000000008733
  0
LINE
  5
23EEC
  8
01
  6
PHANTOM2
 10
1381.499953464102
 20
-212.6228772407168
 30
0.0000000000008733
 11
1381.999953464102
 21
-212.522876077319
 31
0.0000000000008733
  0
LINE
  5
23EED
  8
01
  6
PHANTOM2
 10
1381.999953464102
 20
-212.522876077319
 30
0.0000000000008733
 11
1377.999953464102
 21
-211.7228853844964
 31
0.0000000000008733
  0
LINE
  5
23EEE
  8
01
  6
PHANTOM2
 10
1381.999953464102
 20
-214.122876077319
 30
0.0000000000008733
 11
1377.999953464102
 21
-213.3228853845008
 31
0.0000000000008733
  0
LINE
  5
23EEF
  8
01
  6
PHANTOM2
 10
1381.999953464102
 20
-217.3228760773191
 30
0.0000000000008733
 11
1377.999953464102
 21
-216.5228853845008
 31
0.0000000000008733
  0
LINE
  5
23EF0
  8
01
  6
PHANTOM2
 10
1381.999953464102
 20
-218.9228760773234
 30
0.0000000000008733
 11
1377.999953464102
 21
-218.1228853845051
 31
0.0000000000008733
  0
LINE
  5
23EF2
  8
1CENTER
  6
PHANTOM2
 10
1808.129190312215
 20
-416.1858983848679
 30
0.0
 11
1770.296057264841
 21
-416.1858983848679
 31
0.0
  0
LINE
  5
23EF3
  8
01
  6
PHANTOM2
 10
1799.474697611554
 20
-417.6858518489699
 30
0.0
 11
1799.574698774951
 21
-418.1858518489699
 31
0.0
  0
LINE
  5
23EF4
  8
01
  6
PHANTOM2
 10
1799.574698774951
 20
-418.1858518489699
 30
0.0
 11
1800.374689467774
 21
-414.1858518489699
 31
0.0
  0
LINE
  5
23EF5
  8
01
  6
PHANTOM2
 10
1800.374689467774
 20
-414.1858518489699
 30
0.0
 11
1800.474690631171
 21
-414.6858518489699
 31
0.0
  0
LINE
  5
23EF6
  8
01
  6
PHANTOM2
 10
1797.874697611554
 20
-417.6858518489699
 30
0.0
 11
1797.974698774952
 21
-418.1858518489699
 31
0.0
  0
LINE
  5
23EF7
  8
01
  6
PHANTOM2
 10
1798.774689467774
 20
-414.1858518489699
 30
0.0
 11
1798.874690631171
 21
-414.6858518489699
 31
0.0
  0
LINE
  5
23EF8
  8
01
  6
PHANTOM2
 10
1797.974698774952
 20
-418.1858518489699
 30
0.0
 11
1798.774689467774
 21
-414.1858518489699
 31
0.0
  0
LINE
  5
23EF9
  8
01
  6
PHANTOM2
 10
1796.274697611554
 20
-417.6858518489699
 30
0.0
 11
1796.374698774951
 21
-418.1858518489699
 31
0.0
  0
LINE
  5
23EFA
  8
01
  6
PHANTOM2
 10
1796.374698774951
 20
-418.1858518489699
 30
0.0
 11
1797.174689467774
 21
-414.1858518489699
 31
0.0
  0
LINE
  5
23EFB
  8
01
  6
PHANTOM2
 10
1797.174689467774
 20
-414.1858518489699
 30
0.0
 11
1797.274690631171
 21
-414.6858518489699
 31
0.0
  0
LINE
  5
23EFC
  8
01
  6
PHANTOM2
 10
1788.274697611554
 20
-417.6858518489699
 30
0.0
 11
1788.374698774951
 21
-418.1858518489699
 31
0.0
  0
LINE
  5
23EFD
  8
01
  6
PHANTOM2
 10
1789.174689467774
 20
-414.1858518489699
 30
0.0
 11
1789.274690631171
 21
-414.6858518489699
 31
0.0
  0
LINE
  5
23EFE
  8
01
  6
PHANTOM2
 10
1790.774689467774
 20
-414.1858518489699
 30
0.0
 11
1790.874690631171
 21
-414.6858518489699
 31
0.0
  0
LINE
  5
23EFF
  8
01
  6
PHANTOM2
 10
1789.874697611554
 20
-417.6858518489699
 30
0.0
 11
1789.974698774952
 21
-418.1858518489699
 31
0.0
  0
LINE
  5
23F00
  8
01
  6
PHANTOM2
 10
1791.474697611554
 20
-417.6858518489699
 30
0.0
 11
1791.574698774951
 21
-418.1858518489699
 31
0.0
  0
LINE
  5
23F01
  8
01
  6
PHANTOM2
 10
1789.974698774952
 20
-418.1858518489699
 30
0.0
 11
1790.774689467774
 21
-414.1858518489699
 31
0.0
  0
LINE
  5
23F02
  8
01
  6
PHANTOM2
 10
1788.374698774951
 20
-418.1858518489699
 30
0.0
 11
1789.174689467774
 21
-414.1858518489699
 31
0.0
  0
LINE
  5
23F03
  8
01
  6
PHANTOM2
 10
1793.074697611554
 20
-417.6858518489699
 30
0.0
 11
1793.174698774951
 21
-418.1858518489699
 31
0.0
  0
LINE
  5
23F04
  8
01
  6
PHANTOM2
 10
1801.274697611554
 20
-417.6858518489699
 30
0.0
 11
1801.374698774951
 21
-418.1858518489699
 31
0.0
  0
LINE
  5
23F05
  8
01
  6
PHANTOM2
 10
1801.374698774951
 20
-418.1858518489699
 30
0.0
 11
1802.174689994577
 21
-414.4122589011739
 31
0.0
  0
LINE
  5
23F06
  8
01
  6
PHANTOM2
 10
1802.174689994577
 20
-414.4122589011739
 30
0.0
 11
1802.303960692207
 21
-414.9488526364451
 31
0.0
  0
LINE
  5
23F07
  8
01
  6
PHANTOM2
 10
1793.974689467774
 20
-414.1858518489699
 30
0.0
 11
1794.074690631171
 21
-414.6858518489699
 31
0.0
  0
LINE
  5
23F08
  8
01
  6
PHANTOM2
 10
1795.574689467774
 20
-414.1858518489699
 30
0.0
 11
1795.674690631171
 21
-414.6858518489699
 31
0.0
  0
LINE
  5
23F09
  8
01
  6
PHANTOM2
 10
1794.674697611554
 20
-417.6858518489699
 30
0.0
 11
1794.774698774952
 21
-418.1858518489699
 31
0.0
  0
LINE
  5
23F0A
  8
01
  6
PHANTOM2
 10
1794.774698774952
 20
-418.1858518489699
 30
0.0
 11
1795.574689467774
 21
-414.1858518489699
 31
0.0
  0
LINE
  5
23F0B
  8
01
  6
PHANTOM2
 10
1793.174698774951
 20
-418.1858518489699
 30
0.0
 11
1793.974689467774
 21
-414.1858518489699
 31
0.0
  0
LINE
  5
23F0C
  8
01
  6
PHANTOM2
 10
1802.974697721341
 20
-417.7330357069112
 30
0.0
 11
1803.774691048182
 21
-414.8650730055807
 31
0.0
  0
LINE
  5
23F0D
  8
01
  6
PHANTOM2
 10
1804.574696667737
 20
-417.2802221988629
 30
0.0
 11
1805.374692101788
 21
-415.3178871099875
 31
0.0
  0
LINE
  5
23F0E
  8
01
  6
PHANTOM2
 10
1803.774691048182
 20
-414.8650730055807
 30
0.0
 11
1803.95745519081
 21
-415.416822469384
 31
0.0
  0
LINE
  5
23F0F
  8
01
  6
PHANTOM2
 10
1804.423260871297
 20
-416.8230503582319
 30
0.0
 11
1804.574696667737
 21
-417.2802221988629
 31
0.0
  0
LINE
  5
23F10
  8
01
  6
PHANTOM2
 10
1805.374692101788
 20
-415.3178871099875
 30
0.0
 11
1805.68646195804
 21
-415.9061636850299
 31
0.0
  0
LINE
  5
23F11
  8
01
  6
PHANTOM2
 10
1802.861928208991
 20
-417.2649372517612
 30
0.0
 11
1802.974697721341
 21
-417.7330357069112
 31
0.0
  0
LINE
  5
23F12
  8
01
  6
PHANTOM2
 10
1792.374689467774
 20
-414.1858518489699
 30
0.0
 11
1792.474690631171
 21
-414.6858518489699
 31
0.0
  0
LINE
  5
23F13
  8
01
  6
PHANTOM2
 10
1791.574698774951
 20
-418.1858518489699
 30
0.0
 11
1792.374689467774
 21
-414.1858518489699
 31
0.0
  0
LINE
  5
23F14
  8
01
  6
PHANTOM2
 10
1774.674690631154
 20
-414.6858518489699
 30
0.0
 11
1774.774689467757
 21
-414.1858518489699
 31
0.0
  0
LINE
  5
23F15
  8
01
  6
PHANTOM2
 10
1775.574698774943
 20
-418.1858518489699
 30
0.0
 11
1776.374689467761
 21
-414.1858518489699
 31
0.0
  0
LINE
  5
23F16
  8
01
  6
PHANTOM2
 10
1778.774698774943
 20
-418.1858518489699
 30
0.0
 11
1779.574689467761
 21
-414.1858518489699
 31
0.0
  0
LINE
  5
23F17
  8
01
  6
PHANTOM2
 10
1779.574689467761
 20
-414.1858518489699
 30
0.0
 11
1779.674690631159
 21
-414.6858518489699
 31
0.0
  0
LINE
  5
23F18
  8
01
  6
PHANTOM2
 10
1776.374689467761
 20
-414.1858518489699
 30
0.0
 11
1776.474690631159
 21
-414.6858518489699
 31
0.0
  0
LINE
  5
23F19
  8
01
  6
PHANTOM2
 10
1777.074697611545
 20
-417.6858518489699
 30
0.0
 11
1777.174698774942
 21
-418.1858518489699
 31
0.0
  0
LINE
  5
23F1A
  8
01
  6
PHANTOM2
 10
1777.974689467761
 20
-414.1858518489699
 30
0.0
 11
1778.074690631159
 21
-414.6858518489699
 31
0.0
  0
LINE
  5
23F1B
  8
01
  6
PHANTOM2
 10
1777.174698774942
 20
-418.1858518489699
 30
0.0
 11
1777.974689467761
 21
-414.1858518489699
 31
0.0
  0
LINE
  5
23F1C
  8
01
  6
PHANTOM2
 10
1778.674697611545
 20
-417.6858518489699
 30
0.0
 11
1778.774698774943
 21
-418.1858518489699
 31
0.0
  0
LINE
  5
23F1D
  8
01
  6
PHANTOM2
 10
1774.774689467757
 20
-414.1858518489699
 30
0.0
 11
1774.874690631154
 21
-414.6858518489699
 31
0.0
  0
LINE
  5
23F1E
  8
01
  6
PHANTOM2
 10
1775.474697611545
 20
-417.6858518489699
 30
0.0
 11
1775.574698774943
 21
-418.1858518489699
 31
0.0
  0
LINE
  5
23F1F
  8
01
  6
PHANTOM2
 10
1771.974703428758
 20
-420.1858983848679
 30
0.0
 11
1771.974684814399
 21
-412.1858983848679
 31
0.0
  0
LINE
  5
23F20
  8
01
  6
PHANTOM2
 10
1780.274697611549
 20
-417.6858518489699
 30
0.0
 11
1780.374698774947
 21
-418.1858518489699
 31
0.0
  0
LINE
  5
23F21
  8
01
  6
PHANTOM2
 10
1781.874697611554
 20
-417.6858518489699
 30
0.0
 11
1781.974698774951
 21
-418.1858518489699
 31
0.0
  0
LINE
  5
23F22
  8
01
  6
PHANTOM2
 10
1781.174689467765
 20
-414.1858518489699
 30
0.0
 11
1781.274690631163
 21
-414.6858518489699
 31
0.0
  0
LINE
  5
23F23
  8
01
  6
PHANTOM2
 10
1785.074697611554
 20
-417.6858518489699
 30
0.0
 11
1785.174698774951
 21
-418.1858518489699
 31
0.0
  0
LINE
  5
23F24
  8
01
  6
PHANTOM2
 10
1783.574698774951
 20
-418.1858518489699
 30
0.0
 11
1784.374689467769
 21
-414.1858518489699
 31
0.0
  0
LINE
  5
23F25
  8
01
  6
PHANTOM2
 10
1784.374689467769
 20
-414.1858518489699
 30
0.0
 11
1784.474690631167
 21
-414.6858518489699
 31
0.0
  0
LINE
  5
23F26
  8
01
  6
PHANTOM2
 10
1783.474697611554
 20
-417.6858518489699
 30
0.0
 11
1783.574698774951
 21
-418.1858518489699
 31
0.0
  0
LINE
  5
23F27
  8
01
  6
PHANTOM2
 10
1782.77468946777
 20
-414.1858518489699
 30
0.0
 11
1782.874690631167
 21
-414.6858518489699
 31
0.0
  0
LINE
  5
23F28
  8
01
  6
PHANTOM2
 10
1787.574689467774
 20
-414.1858518489699
 30
0.0
 11
1787.674690631171
 21
-414.6858518489699
 31
0.0
  0
LINE
  5
23F29
  8
01
  6
PHANTOM2
 10
1785.97468946777
 20
-414.1858518489699
 30
0.0
 11
1786.074690631167
 21
-414.6858518489699
 31
0.0
  0
LINE
  5
23F2A
  8
01
  6
PHANTOM2
 10
1786.674697611554
 20
-417.6858518489699
 30
0.0
 11
1786.774698774952
 21
-418.1858518489699
 31
0.0
  0
LINE
  5
23F2B
  8
01
  6
PHANTOM2
 10
1786.774698774952
 20
-418.1858518489699
 30
0.0
 11
1787.574689467774
 21
-414.1858518489699
 31
0.0
  0
LINE
  5
23F2C
  8
01
  6
PHANTOM2
 10
1785.174698774951
 20
-418.1858518489699
 30
0.0
 11
1785.97468946777
 21
-414.1858518489699
 31
0.0
  0
LINE
  5
23F2D
  8
01
  6
PHANTOM2
 10
1781.974698774951
 20
-418.1858518489699
 30
0.0
 11
1782.77468946777
 21
-414.1858518489699
 31
0.0
  0
LINE
  5
23F2E
  8
01
  6
PHANTOM2
 10
1780.374698774947
 20
-418.1858518489699
 30
0.0
 11
1781.174689467765
 21
-414.1858518489699
 31
0.0
  0
LINE
  5
23F2F
  8
01
  6
PHANTOM2
 10
1774.47473251343
 20
-417.6858518489699
 30
0.0
 11
1801.374697611554
 21
-417.6858518489699
 31
0.0
  0
LINE
  5
23F30
  8
01
  6
PHANTOM2
 10
1801.374697611554
 20
-417.6858518489699
 30
0.0
 11
1806.674694121415
 21
-416.1858518489699
 31
0.0
  0
LINE
  5
23F31
  8
01
  6
PHANTOM2
 10
1806.674694121415
 20
-416.1858518489699
 30
0.0
 11
1801.374690631169
 21
-414.6858518489699
 31
0.0
  0
LINE
  5
23F32
  8
01
  6
PHANTOM2
 10
1801.374690631169
 20
-414.6858518489699
 30
0.0
 11
1774.474667363065
 21
-414.6858518489699
 31
0.0
  0
LINE
  5
23F33
  8
01
  6
PHANTOM2
 10
1774.474667363065
 20
-414.6858518489699
 30
0.0
 11
1771.974684814399
 21
-412.1858983848679
 31
0.0
  0
LINE
  5
23F34
  8
01
  6
PHANTOM2
 10
1771.974684814399
 20
-412.1858983848679
 30
0.0
 11
1771.674684814398
 21
-412.1858983848679
 31
0.0
  0
LINE
  5
23F35
  8
01
  6
PHANTOM2
 10
1771.674684814398
 20
-412.1858983848679
 30
0.0
 11
1771.674703428757
 21
-420.1858983848679
 31
0.0
  0
LINE
  5
23F36
  8
01
  6
PHANTOM2
 10
1771.674703428757
 20
-420.1858983848679
 30
0.0
 11
1771.974703428758
 21
-420.1858983848679
 31
0.0
  0
LINE
  5
23F37
  8
01
  6
PHANTOM2
 10
1771.974703428758
 20
-420.1858983848679
 30
0.0
 11
1774.47473251343
 21
-417.6858518489699
 31
0.0
  0
LINE
  5
23F3C
  8
01
 10
1600.0
 20
-405.2489586448837
 30
0.0
 11
1340.0
 21
-405.2489586448837
 31
0.0
  0
TEXT
  5
23F3E
  8
01
  6
CONTINUOUS
 10
1747.666040281211
 20
-360.3505637698672
 30
0.0000000000019322
 40
7.0
  1
PB
  0
LINE
  5
23F3F
  8
01
 10
1382.126199868529
 20
-415.5587805517332
 30
0.0000000000019322
 11
1380.627163496201
 21
-415.5587700878827
 31
0.0000000000019322
  0
LINE
  5
23F40
  8
01
 10
1380.627153032412
 20
-414.0597424706326
 30
0.0000000000019322
 11
1379.372913136706
 21
-414.0597337155556
 31
0.0000000000019322
  0
LINE
  5
23F41
  8
01
 10
1380.627153032412
 20
-414.0597424706326
 30
0.0000000000019322
 11
1380.627163496201
 21
-415.5587700878827
 31
0.0000000000019322
  0
LINE
  5
23F42
  8
01
 10
1382.126191113452
 20
-416.8130204474395
 30
0.0000000000019322
 11
1382.126199868529
 21
-415.5587805517332
 31
0.0000000000019322
  0
LINE
  5
23F43
  8
01
 10
1382.126191113452
 20
-416.8130204474395
 30
0.0000000000019322
 11
1380.627172251424
 21
-416.8130309111679
 31
0.0000000000019322
  0
LINE
  5
23F44
  8
01
 10
1380.627172251424
 20
-416.8130309111679
 30
0.0000000000019322
 11
1380.627182715275
 21
-418.3120672837633
 31
0.0000000000019322
  0
LINE
  5
23F45
  8
01
 10
1379.372893917571
 20
-416.8130396665131
 30
0.0000000000019322
 11
1377.873866300321
 21
-416.8130501303025
 31
0.0000000000019322
  0
LINE
  5
23F46
  8
01
 10
1379.372893917571
 20
-416.8130396665131
 30
0.0000000000019322
 11
1379.372883453843
 21
-418.3120585282719
 31
0.0000000000019322
  0
LINE
  5
23F47
  8
01
 10
1379.372883453843
 20
-418.3120585282719
 30
0.0000000000019322
 11
1380.627182715275
 21
-418.3120672837633
 31
0.0000000000019322
  0
LINE
  5
23F48
  8
01
 10
1379.372902672916
 20
-415.5587613326596
 30
0.0000000000019322
 11
1377.873875055812
 21
-415.5587508688702
 31
0.0000000000019322
  0
LINE
  5
23F49
  8
01
 10
1377.873875055812
 20
-415.5587508688702
 30
0.0000000000019322
 11
1377.873866300321
 21
-416.8130501303025
 31
0.0000000000019322
  0
LINE
  5
23F4A
  8
01
 10
1379.372913136706
 20
-414.0597337155556
 30
0.0000000000019322
 11
1379.372902672916
 21
-415.5587613326596
 31
0.0000000000019322
  0
LINE
  5
23F4B
  8
01
 10
1472.126199868529
 20
-415.5587805517332
 30
0.0000000000019322
 11
1470.627163496201
 21
-415.5587700878827
 31
0.0000000000019322
  0
LINE
  5
23F4C
  8
01
 10
1470.627153032412
 20
-414.0597424706326
 30
0.0000000000019322
 11
1469.372913136706
 21
-414.0597337155556
 31
0.0000000000019322
  0
LINE
  5
23F4D
  8
01
 10
1470.627153032412
 20
-414.0597424706326
 30
0.0000000000019322
 11
1470.627163496201
 21
-415.5587700878827
 31
0.0000000000019322
  0
LINE
  5
23F4E
  8
01
 10
1472.126191113452
 20
-416.8130204474395
 30
0.0000000000019322
 11
1472.126199868529
 21
-415.5587805517332
 31
0.0000000000019322
  0
LINE
  5
23F4F
  8
01
 10
1472.126191113452
 20
-416.8130204474395
 30
0.0000000000019322
 11
1470.627172251424
 21
-416.8130309111679
 31
0.0000000000019322
  0
LINE
  5
23F50
  8
01
 10
1470.627172251424
 20
-416.8130309111679
 30
0.0000000000019322
 11
1470.627182715275
 21
-418.3120672837633
 31
0.0000000000019322
  0
LINE
  5
23F51
  8
01
 10
1469.372893917571
 20
-416.8130396665131
 30
0.0000000000019322
 11
1467.873866300321
 21
-416.8130501303025
 31
0.0000000000019322
  0
LINE
  5
23F52
  8
01
 10
1469.372893917571
 20
-416.8130396665131
 30
0.0000000000019322
 11
1469.372883453843
 21
-418.3120585282719
 31
0.0000000000019322
  0
LINE
  5
23F53
  8
01
 10
1469.372883453843
 20
-418.3120585282719
 30
0.0000000000019322
 11
1470.627182715275
 21
-418.3120672837633
 31
0.0000000000019322
  0
LINE
  5
23F54
  8
01
 10
1469.372902672916
 20
-415.5587613326596
 30
0.0000000000019322
 11
1467.873875055812
 21
-415.5587508688702
 31
0.0000000000019322
  0
LINE
  5
23F55
  8
01
 10
1467.873875055812
 20
-415.5587508688702
 30
0.0000000000019322
 11
1467.873866300321
 21
-416.8130501303025
 31
0.0000000000019322
  0
LINE
  5
23F56
  8
01
 10
1469.372913136706
 20
-414.0597337155556
 30
0.0000000000019322
 11
1469.372902672916
 21
-415.5587613326596
 31
0.0000000000019322
  0
LINE
  5
23F57
  8
01
 10
1562.126199868529
 20
-415.5587805517332
 30
0.0000000000019322
 11
1560.627163496201
 21
-415.5587700878827
 31
0.0000000000019322
  0
LINE
  5
23F58
  8
01
 10
1560.627153032412
 20
-414.0597424706326
 30
0.0000000000019322
 11
1559.372913136706
 21
-414.0597337155556
 31
0.0000000000019322
  0
LINE
  5
23F59
  8
01
 10
1560.627153032412
 20
-414.0597424706326
 30
0.0000000000019322
 11
1560.627163496201
 21
-415.5587700878827
 31
0.0000000000019322
  0
LINE
  5
23F5A
  8
01
 10
1562.126191113452
 20
-416.8130204474395
 30
0.0000000000019322
 11
1562.126199868529
 21
-415.5587805517332
 31
0.0000000000019322
  0
LINE
  5
23F5B
  8
01
 10
1562.126191113452
 20
-416.8130204474395
 30
0.0000000000019322
 11
1560.627172251424
 21
-416.8130309111679
 31
0.0000000000019322
  0
LINE
  5
23F5C
  8
01
 10
1560.627172251424
 20
-416.8130309111679
 30
0.0000000000019322
 11
1560.627182715275
 21
-418.3120672837633
 31
0.0000000000019322
  0
LINE
  5
23F5D
  8
01
 10
1559.372893917571
 20
-416.8130396665131
 30
0.0000000000019322
 11
1557.873866300321
 21
-416.8130501303025
 31
0.0000000000019322
  0
LINE
  5
23F5E
  8
01
 10
1559.372893917571
 20
-416.8130396665131
 30
0.0000000000019322
 11
1559.372883453843
 21
-418.3120585282719
 31
0.0000000000019322
  0
LINE
  5
23F5F
  8
01
 10
1559.372883453843
 20
-418.3120585282719
 30
0.0000000000019322
 11
1560.627182715275
 21
-418.3120672837633
 31
0.0000000000019322
  0
LINE
  5
23F60
  8
01
 10
1559.372902672916
 20
-415.5587613326596
 30
0.0000000000019322
 11
1557.873875055812
 21
-415.5587508688702
 31
0.0000000000019322
  0
LINE
  5
23F61
  8
01
 10
1557.873875055812
 20
-415.5587508688702
 30
0.0000000000019322
 11
1557.873866300321
 21
-416.8130501303025
 31
0.0000000000019322
  0
LINE
  5
23F62
  8
01
 10
1559.372913136706
 20
-414.0597337155556
 30
0.0000000000019322
 11
1559.372902672916
 21
-415.5587613326596
 31
0.0000000000019322
  0
LINE
  5
23F63
  8
01
  6
PHANTOM2
 10
1471.499953464102
 20
-197.9228772407167
 30
0.0000000000008733
 11
1471.499953464102
 21
-224.8228423388405
 31
0.0000000000008733
  0
LINE
  5
23F64
  8
01
  6
PHANTOM2
 10
1469.999953464102
 20
-192.6228807308557
 30
0.0000000000008733
 11
1471.499953464102
 21
-197.9228772407168
 31
0.0000000000008733
  0
LINE
  5
23F65
  8
01
  6
PHANTOM2
 10
1469.999953464102
 20
-192.6228807308557
 30
0.0000000000008733
 11
1468.499953464102
 21
-197.922884221101
 31
0.0000000000008733
  0
LINE
  5
23F66
  8
01
  6
PHANTOM2
 10
1468.499953464102
 20
-197.922884221101
 30
0.0000000000008733
 11
1468.499953464102
 21
-224.8229074892057
 31
0.0000000000008733
  0
LINE
  5
23F67
  8
01
  6
PHANTOM2
 10
1466.0
 20
-227.3228900378717
 30
0.0000000000008733
 11
1468.499953464102
 21
-224.8229074892057
 31
0.0000000000008733
  0
LINE
  5
23F68
  8
01
  6
PHANTOM2
 10
1466.0
 20
-227.3228900378717
 30
0.0000000000008733
 11
1466.0
 21
-227.6228900378728
 31
0.0000000000008733
  0
LINE
  5
23F69
  8
01
  6
PHANTOM2
 10
1474.0
 20
-227.6228714235136
 30
0.0000000000008733
 11
1466.0
 21
-227.6228900378727
 31
0.0000000000008733
  0
LINE
  5
23F6A
  8
01
  6
PHANTOM2
 10
1474.0
 20
-227.3228714235127
 30
0.0000000000008733
 11
1474.0
 21
-227.6228714235136
 31
0.0000000000008733
  0
LINE
  5
23F6B
  8
01
  6
PHANTOM2
 10
1474.0
 20
-227.3228714235127
 30
0.0000000000008733
 11
1471.499953464102
 21
-224.8228423388405
 31
0.0000000000008733
  0
LINE
  5
23F6C
  8
01
  6
PHANTOM2
 10
1561.499953464102
 20
-197.9228636238002
 30
0.0
 11
1561.499953464102
 21
-224.8228287219241
 31
0.0
  0
LINE
  5
23F6D
  8
01
  6
PHANTOM2
 10
1559.999953464102
 20
-192.6228671139392
 30
0.0
 11
1561.499953464102
 21
-197.9228636238003
 31
0.0
  0
LINE
  5
23F6E
  8
01
  6
PHANTOM2
 10
1559.999953464102
 20
-192.6228671139392
 30
0.0
 11
1558.499953464102
 21
-197.9228706041845
 31
0.0
  0
LINE
  5
23F6F
  8
01
  6
PHANTOM2
 10
1558.499953464102
 20
-197.9228706041845
 30
0.0
 11
1558.499953464102
 21
-224.8228938722893
 31
0.0
  0
LINE
  5
23F70
  8
01
  6
PHANTOM2
 10
1556.0
 20
-227.3228764209553
 30
0.0
 11
1558.499953464102
 21
-224.8228938722893
 31
0.0
  0
LINE
  5
23F71
  8
01
  6
PHANTOM2
 10
1556.0
 20
-227.3228764209553
 30
0.0
 11
1556.0
 21
-227.6228764209563
 31
0.0
  0
LINE
  5
23F72
  8
01
  6
PHANTOM2
 10
1564.0
 20
-227.6228578065972
 30
0.0
 11
1556.0
 21
-227.6228764209562
 31
0.0
  0
LINE
  5
23F73
  8
01
  6
PHANTOM2
 10
1564.0
 20
-227.3228578065962
 30
0.0
 11
1564.0
 21
-227.6228578065972
 31
0.0
  0
LINE
  5
23F74
  8
01
  6
PHANTOM2
 10
1564.0
 20
-227.3228578065962
 30
0.0
 11
1561.499953464102
 21
-224.8228287219241
 31
0.0
  0
LINE
  5
23F75
  8
01
  6
PHANTOM2
 10
1381.499953464102
 20
-197.9228772407167
 30
0.0000000000008733
 11
1381.499953464102
 21
-224.8228423388405
 31
0.0000000000008733
  0
LINE
  5
23F76
  8
01
  6
PHANTOM2
 10
1379.999953464102
 20
-192.6228807308557
 30
0.0000000000008733
 11
1381.499953464102
 21
-197.9228772407168
 31
0.0000000000008733
  0
LINE
  5
23F77
  8
01
  6
PHANTOM2
 10
1379.999953464102
 20
-192.6228807308557
 30
0.0000000000008733
 11
1378.499953464102
 21
-197.922884221101
 31
0.0000000000008733
  0
LINE
  5
23F78
  8
01
  6
PHANTOM2
 10
1378.499953464102
 20
-197.922884221101
 30
0.0000000000008733
 11
1378.499953464102
 21
-224.8229074892057
 31
0.0000000000008733
  0
LINE
  5
23F79
  8
01
  6
PHANTOM2
 10
1376.0
 20
-227.3228900378717
 30
0.0000000000008733
 11
1378.499953464102
 21
-224.8229074892057
 31
0.0000000000008733
  0
LINE
  5
23F7A
  8
01
  6
PHANTOM2
 10
1376.0
 20
-227.3228900378717
 30
0.0000000000008733
 11
1376.0
 21
-227.6228900378728
 31
0.0000000000008733
  0
LINE
  5
23F7B
  8
01
  6
PHANTOM2
 10
1384.0
 20
-227.6228714235136
 30
0.0000000000008733
 11
1376.0
 21
-227.6228900378727
 31
0.0000000000008733
  0
LINE
  5
23F7C
  8
01
  6
PHANTOM2
 10
1384.0
 20
-227.3228714235127
 30
0.0000000000008733
 11
1384.0
 21
-227.6228714235136
 31
0.0000000000008733
  0
LINE
  5
23F7D
  8
01
  6
PHANTOM2
 10
1384.0
 20
-227.3228714235127
 30
0.0000000000008733
 11
1381.499953464102
 21
-224.8228423388405
 31
0.0000000000008733
  0
LINE
  5
23F7E
  8
1DIM
 10
1600.0
 20
-224.0728534968603
 30
0.0
 11
1643.950000000001
 21
-224.0728534968603
 31
0.0
1001
ACAD
1000
DSTYLE
1002
{
1070
    40
1040
2.0
1002
}
  0
LINE
  5
23F7F
  8
1DIM
 10
1581.0
 20
-274.0728534968603
 30
0.0
 11
1643.950000000001
 21
-274.0728534968603
 31
0.0
1001
ACAD
1000
DSTYLE
1002
{
1070
    40
1040
2.0
1002
}
  0
LINE
  5
23F80
  8
1DIM
 10
1641.950000000001
 20
-228.0728534968603
 30
0.0
 11
1641.950000000001
 21
-270.0728534968603
 31
0.0
1001
ACAD
1000
DSTYLE
1002
{
1070
    40
1040
2.0
1002
}
  0
LINE
  5
23F84
  8
1DIM
 10
1380.0
 20
-409.810902207606
 30
0.0
 11
1380.0
 21
-377.410902207606
 31
0.0
1001
ACAD
1000
DSTYLE
1002
{
1070
    40
1040
2.0
1002
}
  0
LINE
  5
23F85
  8
1DIM
 10
1470.0
 20
-409.810902207606
 30
0.0
 11
1470.0
 21
-377.410902207606
 31
0.0
1001
ACAD
1000
DSTYLE
1002
{
1070
    40
1040
2.0
1002
}
  0
LINE
  5
23F86
  8
1DIM
 10
1384.0
 20
-379.410902207606
 30
0.0
 11
1466.0
 21
-379.410902207606
 31
0.0
1001
ACAD
1000
DSTYLE
1002
{
1070
    40
1040
2.0
1002
}
  0
LINE
  5
23F8A
  8
1DIM
 10
1470.0
 20
-409.810902207606
 30
0.0
 11
1470.0
 21
-377.410902207606
 31
0.0
1001
ACAD
1000
DSTYLE
1002
{
1070
    40
1040
2.0
1002
}
  0
LINE
  5
23F8B
  8
1DIM
 10
1560.0
 20
-409.810902207606
 30
0.0
 11
1560.0
 21
-377.410902207606
 31
0.0
1001
ACAD
1000
DSTYLE
1002
{
1070
    40
1040
2.0
1002
}
  0
LINE
  5
23F8C
  8
1DIM
 10
1474.0
 20
-379.410902207606
 30
0.0
 11
1556.0
 21
-379.410902207606
 31
0.0
1001
ACAD
1000
DSTYLE
1002
{
1070
    40
1040
2.0
1002
}
  0
LINE
  5
23F90
  8
1DIM
 10
1775.224684814399
 20
-396.1858983848679
 30
0.0
 11
1823.253721284248
 21
-396.1858983848679
 31
0.0
1001
ACAD
1000
DSTYLE
1002
{
1070
    40
1040
2.0
1002
}
  0
LINE
  5
23F91
  8
1DIM
 10
1808.129190312215
 20
-416.1858983848679
 30
0.0
 11
1823.253721284248
 21
-416.1858983848679
 31
0.0
1001
ACAD
1000
DSTYLE
1002
{
1070
    40
1040
2.0
1002
}
  0
LINE
  5
23F92
  8
1DIM
 10
1821.253721284248
 20
-400.1858983848679
 30
0.0
 11
1821.253721284248
 21
-412.1858983848679
 31
0.0
1001
ACAD
1000
DSTYLE
1002
{
1070
    40
1040
2.0
1002
}
  0
LINE
  5
23F96
  8
1DIM
 10
1715.474684814399
 20
-396.1858983848679
 30
0.0
 11
1713.474684814399
 21
-396.1858983848679
 31
0.0
1001
ACAD
1000
DSTYLE
1002
{
1070
    40
1040
2.0
1002
}
  0
LINE
  5
23F97
  8
1DIM
 10
1715.474684814399
 20
-399.6858983848679
 30
0.0
 11
1713.474684814399
 21
-399.6858983848679
 31
0.0
1001
ACAD
1000
DSTYLE
1002
{
1070
    40
1040
2.0
1002
}
  0
LINE
  5
23F98
  8
1DIM
 10
1715.474684814399
 20
-399.6858983848679
 30
0.0
 11
1715.474684814399
 21
-425.1525650515346
 31
0.0
1001
ACAD
1000
DSTYLE
1002
{
1070
    40
1040
2.0
1002
}
  0
LINE
  5
23F99
  8
1DIM
 10
1715.474684814399
 20
-396.1858983848679
 30
0.0
 11
1715.474684814399
 21
-399.6858983848679
 31
0.0
1001
ACAD
1000
DSTYLE
1002
{
1070
    40
1040
2.0
1002
}
  0
LINE
  5
23F9A
  8
1DIM
 10
1715.474684814399
 20
-392.1858983848679
 30
0.0
 11
1715.474684814399
 21
-388.1858983848679
 31
0.0
1001
ACAD
1000
DSTYLE
1002
{
1070
    40
1040
2.0
1002
}
  0
LINE
  5
23F9B
  8
1DIM
 10
1715.474684814399
 20
-403.6858983848679
 30
0.0
 11
1715.474684814399
 21
-407.6858983848679
 31
0.0
1001
ACAD
1000
DSTYLE
1002
{
1070
    40
1040
2.0
1002
}
  0
LINE
  5
23F9F
  8
1DIM
 10
1770.724684814399
 20
-432.2716848224945
 30
0.0
 11
1770.724684814399
 21
-470.0
 31
0.0
1001
ACAD
1000
DSTYLE
1002
{
1070
    40
1040
2.0
1002
}
  0
LINE
  5
23FA0
  8
1DIM
 10
1775.224684814399
 20
-436.1858983848679
 30
0.0
 11
1775.224684814399
 21
-470.0
 31
0.0
1001
ACAD
1000
DSTYLE
1002
{
1070
    40
1040
2.0
1002
}
  0
LINE
  5
23FA1
  8
1DIM
 10
1770.724684814399
 20
-468.0
 30
0.0
 11
1745.258018147732
 21
-468.0
 31
0.0
1001
ACAD
1000
DSTYLE
1002
{
1070
    40
1040
2.0
1002
}
  0
LINE
  5
23FA2
  8
1DIM
 10
1770.724684814399
 20
-468.0
 30
0.0
 11
1775.224684814399
 21
-468.0
 31
0.0
1001
ACAD
1000
DSTYLE
1002
{
1070
    40
1040
2.0
1002
}
  0
LINE
  5
23FA3
  8
1DIM
 10
1766.724684814399
 20
-468.0
 30
0.0
 11
1762.724684814399
 21
-468.0
 31
0.0
1001
ACAD
1000
DSTYLE
1002
{
1070
    40
1040
2.0
1002
}
  0
LINE
  5
23FA4
  8
1DIM
 10
1779.224684814399
 20
-468.0
 30
0.0
 11
1783.224684814399
 21
-468.0
 31
0.0
1001
ACAD
1000
DSTYLE
1002
{
1070
    40
1040
2.0
1002
}
  0
LINE
  5
23FA8
  8
1DIM
 10
1775.224684814399
 20
-396.1858983848679
 30
0.0
 11
1842.965003933635
 21
-396.1858983848679
 31
0.0
1001
ACAD
1000
DSTYLE
1002
{
1070
    40
1040
2.0
1002
}
  0
LINE
  5
23FA9
  8
1DIM
 10
1774.638898376772
 20
-436.1858983848679
 30
0.0
 11
1842.965003933635
 21
-436.1858983848679
 31
0.0
1001
ACAD
1000
DSTYLE
1002
{
1070
    40
1040
2.0
1002
}
  0
LINE
  5
23FAA
  8
1DIM
 10
1840.965003933635
 20
-400.1858983848679
 30
0.0
 11
1840.965003933635
 21
-432.1858983848679
 31
0.0
1001
ACAD
1000
DSTYLE
1002
{
1070
    40
1040
2.0
1002
}
  0
LINE
  5
23FAE
  8
1DIM
 10
1695.224684814399
 20
-397.1858983848679
 30
0.0
 11
1695.224684814399
 21
-379.1858983848679
 31
0.0
1001
ACAD
1000
DSTYLE
1002
{
1070
    40
1040
2.0
1002
}
  0
LINE
  5
23FAF
  8
1DIM
 10
1775.224684814399
 20
-396.1858983848679
 30
0.0
 11
1775.224684814399
 21
-379.1858983848679
 31
0.0
1001
ACAD
1000
DSTYLE
1002
{
1070
    40
1040
2.0
1002
}
  0
LINE
  5
23FB0
  8
1DIM
 10
1699.224684814399
 20
-381.1858983848679
 30
0.0
 11
1771.224684814399
 21
-381.1858983848679
 31
0.0
1001
ACAD
1000
DSTYLE
1002
{
1070
    40
1040
2.0
1002
}
  0
LINE
  5
23FB5
  8
1DIM
 10
1776.926172916881
 20
-376.1125157858257
 30
0.0000000000019322
 11
1760.032706947878
 21
-361.0505637698672
 31
0.0000000000019322
  0
TEXT
  5
23FB6
  8
1DIM
  6
CONTINUOUS
 10
1708.188796670249
 20
-345.5361447217139
 30
0.0
 40
7.0
  1
合板9mm以上
  0
LINE
  5
23FB8
  8
1DIM
 10
1788.088951530043
 20
-373.442279774485
 30
0.0000000000036625
 11
1764.09203741099
 21
-346.2361447217139
 31
0.0
  0
LINE
  5
23FB9
  8
1DIM
 10
1764.09203741099
 20
-346.2361447217139
 30
0.0
 11
1702.525370744323
 21
-346.2361447217139
 31
0.0
  0
LINE
  5
23FBA
  8
1DIM
 10
1340.0
 20
-396.4858983848681
 30
0.0
 11
1340.0
 21
-360.6858983848681
 31
0.0
1001
ACAD
1000
DSTYLE
1002
{
1070
    40
1040
2.0
1002
}
  0
LINE
  5
23FBB
  8
1DIM
 10
1600.0
 20
-396.4858983848681
 30
0.0
 11
1600.0
 21
-360.6858983848681
 31
0.0
1001
ACAD
1000
DSTYLE
1002
{
1070
    40
1040
2.0
1002
}
  0
LINE
  5
23FBC
  8
1DIM
 10
1344.0
 20
-362.6858983848681
 30
0.0
 11
1596.0
 21
-362.6858983848681
 31
0.0
1001
ACAD
1000
DSTYLE
1002
{
1070
    40
1040
2.0
1002
}
  0
LINE
  5
23FC0
  8
1DIM
 10
1583.27080957429
 20
-278.8196377429454
 30
0.0
 11
1653.336085067777
 21
-293.111553870507
 31
0.0
1001
ACAD
1000
DSTYLE
1002
{
1070
    40
1040
2.0
1002
}
  0
LINE
  5
23FC1
  8
1DIM
 10
1536.72919042571
 20
-269.3260774503828
 30
0.0
 11
1532.809896181619
 21
-268.5266197415354
 31
0.0
1001
ACAD
1000
DSTYLE
1002
{
1070
    40
1040
2.0
1002
}
  0
LINE
  5
23FC3
  8
1DIM
 10
1540.648484669801
 20
-270.1255351592302
 30
0.0
 11
1579.351515330199
 21
-278.020180034098
 31
0.0
1001
ACAD
1000
DSTYLE
1002
{
1070
    40
1040
2.0
1002
}
  0
LINE
  5
23FC6
  8
1DIM
 10
1578.299318748847
 20
-282.744502961189
 30
0.0
 11
1642.901150288343
 21
-313.3578924921284
 31
0.0
1001
ACAD
1000
DSTYLE
1002
{
1070
    40
1040
2.0
1002
}
  0
LINE
  5
23FC7
  8
1DIM
 10
1541.700681251153
 20
-265.4012122321392
 30
0.0
 11
1538.086001004467
 21
-263.6882946292701
 31
0.0
1001
ACAD
1000
DSTYLE
1002
{
1070
    40
1040
2.0
1002
}
  0
LINE
  5
23FC9
  8
1DIM
 10
1545.315361497839
 20
-267.1141298350084
 30
0.0
 11
1574.684638502161
 21
-281.0315853583198
 31
0.0
1001
ACAD
1000
DSTYLE
1002
{
1070
    40
1040
2.0
1002
}
  0
LINE
  5
23FCC
  8
1DIM
 10
1354.329735217412
 20
-493.0495298449493
 30
0.0
 11
1327.086834931687
 21
-473.9873736510547
 31
0.0
1001
ACAD
1000
DSTYLE
1002
{
1070
    40
1040
2.0
1002
}
  0
LINE
  5
23FCD
  8
1DIM
 10
1383.826088985438
 20
-513.6884521615688
 30
0.0
 11
1387.10346162633
 21
-515.9816657523043
 31
0.0
1001
ACAD
1000
DSTYLE
1002
{
1070
    40
1040
2.0
1002
}
  0
LINE
  5
23FCF
  8
1DIM
 10
1380.548716344546
 20
-511.3952385708333
 30
0.0
 11
1357.607107858303
 21
-495.3427434356848
 31
0.0
1001
ACAD
1000
DSTYLE
1002
{
1070
    40
1040
2.0
1002
}
  0
LINE
  5
23FD2
  8
1DIM
 10
1524.923918392414
 20
-494.3871819160185
 30
0.0
 11
1494.085997545174
 21
-473.4689787115134
 31
0.0
1001
ACAD
1000
DSTYLE
1002
{
1070
    40
1040
2.0
1002
}
  0
LINE
  5
23FD3
  8
1DIM
 10
1551.40614681227
 20
-512.3508000904995
 30
0.0
 11
1554.716425364752
 21
-514.5962523623097
 31
0.0
1001
ACAD
1000
DSTYLE
1002
{
1070
    40
1040
2.0
1002
}
  0
LINE
  5
23FD5
  8
1DIM
 10
1548.095868259788
 20
-510.1053478186894
 30
0.0
 11
1528.234196944896
 21
-496.6326341878287
 31
0.0
1001
ACAD
1000
DSTYLE
1002
{
1070
    40
1040
2.0
1002
}
  0
TEXT
  5
23FD8
  8
1DIM
  6
CONTINUOUS
 10
1561.016901180379
 20
-320.4091623262131
 30
0.0
 40
7.0
  1
材質：アルミ
  0
TEXT
  5
23FD9
  8
1DIM
  6
CONTINUOUS
 10
1561.250234513712
 20
-332.0758289928798
 30
0.0
 40
7.0
  1
仕上げ：各種仕上げ
  0
LINE
  5
23FDB
  8
1DIM
 10
1524.93620490839
 20
-297.5461912281758
 30
0.0
 11
1558.783567847046
 21
-332.7758289928798
 31
0.0
1001
ACAD
1000
DSTYLE
1002
{
1070
    45
1040
0.5
1002
}
  0
LINE
  5
23FDC
  8
1DIM
 10
1558.783567847046
 20
-332.7758289928798
 30
0.0
 11
1635.450234513712
 21
-332.7758289928798
 31
0.0
1001
ACAD
1000
DSTYLE
1002
{
1070
    45
1040
0.5
1002
}
  0
TEXT
  5
23FDD
  8
1DIM
  6
CONTINUOUS
 10
1481.787467242839
 20
-531.9922925079344
 30
0.0
 40
7.0
  1
材質：PP
  0
TEXT
  5
23FDE
  8
1DIM
  6
CONTINUOUS
 10
1469.887467242839
 20
-543.658959174601
 30
0.0
 40
7.0
  1
仕上げ：透明
  0
LINE
  5
23FE0
  8
1DIM
 10
1537.239320242322
 20
-519.5834776262013
 30
0.0
 11
1521.354133909505
 21
-544.3589591746011
 31
0.0
1001
ACAD
1000
DSTYLE
1002
{
1070
    45
1040
0.5
1002
}
  0
LINE
  5
23FE1
  8
1DIM
 10
1521.354133909505
 20
-544.3589591746011
 30
0.0
 11
1470.120800576172
 21
-544.3589591746011
 31
0.0
1001
ACAD
1000
DSTYLE
1002
{
1070
    45
1040
0.5
1002
}
  0
TEXT
  5
23FE2
  8
1DIM
  6
CONTINUOUS
 10
1555.119385146008
 20
-540.8778982980784
 30
0.0
 40
7.0
  1
付属ワッシャー
  0
TEXT
  5
23FE3
  8
1DIM
  6
CONTINUOUS
 10
1312.700346741922
 20
-531.9922925079344
 30
0.0
 40
7.0
  1
材質：PP
  0
TEXT
  5
23FE4
  8
1DIM
  6
CONTINUOUS
 10
1300.800346741922
 20
-543.658959174601
 30
0.0
 40
7.0
  1
仕上げ：透明
  0
LINE
  5
23FE6
  8
1DIM
 10
1368.152199741405
 20
-519.5834776262013
 30
0.0
 11
1352.267013408588
 21
-544.3589591746011
 31
0.0
1001
ACAD
1000
DSTYLE
1002
{
1070
    45
1040
0.5
1002
}
  0
LINE
  5
23FE7
  8
1DIM
 10
1352.267013408588
 20
-544.3589591746011
 30
0.0
 11
1301.033680075255
 21
-544.3589591746011
 31
0.0
1001
ACAD
1000
DSTYLE
1002
{
1070
    45
1040
0.5
1002
}
  0
TEXT
  5
23FE8
  8
1DIM
  6
CONTINUOUS
 10
1386.032264645091
 20
-540.8778982980784
 30
0.0
 40
7.0
  1
付属ワッシャー
  0
LINE
  5
23FE9
  8
0
  6
BYBLOCK
 10
1640.878203240001
 20
-228.0728534968603
 30
0.0
 11
1641.950000000001
 21
-224.0728534968603
 31
0.0
  0
LINE
  5
23FEA
  8
0
  6
BYBLOCK
 10
1641.950000000001
 20
-224.0728534968603
 30
0.0
 11
1643.021796760001
 21
-228.0728534968603
 31
0.0
  0
LINE
  5
23FEB
  8
0
  6
BYBLOCK
 10
1641.950000000001
 20
-224.0728534968603
 30
0.0
 11
1641.950000000001
 21
-228.0728534968603
 31
0.0
  0
LINE
  5
23FEC
  8
0
  6
BYBLOCK
 10
1643.021796760001
 20
-270.0728534968603
 30
0.0
 11
1641.950000000001
 21
-274.0728534968603
 31
0.0
  0
LINE
  5
23FED
  8
0
  6
BYBLOCK
 10
1641.950000000001
 20
-274.0728534968603
 30
0.0
 11
1640.878203240001
 21
-270.0728534968603
 31
0.0
  0
LINE
  5
23FEE
  8
0
  6
BYBLOCK
 10
1641.950000000001
 20
-274.0728534968603
 30
0.0
 11
1641.950000000001
 21
-270.0728534968603
 31
0.0
  0
TEXT
  5
23FEF
  8
1DIM
  6
CONTINUOUS
 10
1640.550000000001
 20
-254.4929923857492
 30
0.0
 40
7.0
  1
50
 50
90.0
1001
ACAD
1000
DSTYLE
1002
{
1070
    40
1040
2.0
1002
}
  0
LINE
  5
23FF0
  8
0
  6
BYBLOCK
 10
1384.0
 20
-380.482698967606
 30
0.0
 11
1380.0
 21
-379.410902207606
 31
0.0
  0
LINE
  5
23FF1
  8
0
  6
BYBLOCK
 10
1380.0
 20
-379.410902207606
 30
0.0
 11
1384.0
 21
-378.339105447606
 31
0.0
  0
LINE
  5
23FF2
  8
0
  6
BYBLOCK
 10
1380.0
 20
-379.410902207606
 30
0.0
 11
1384.0
 21
-379.410902207606
 31
0.0
  0
LINE
  5
23FF3
  8
0
  6
BYBLOCK
 10
1466.0
 20
-378.339105447606
 30
0.0
 11
1470.0
 21
-379.410902207606
 31
0.0
  0
LINE
  5
23FF4
  8
0
  6
BYBLOCK
 10
1470.0
 20
-379.410902207606
 30
0.0
 11
1466.0
 21
-380.482698967606
 31
0.0
  0
LINE
  5
23FF5
  8
0
  6
BYBLOCK
 10
1470.0
 20
-379.410902207606
 30
0.0
 11
1466.0
 21
-379.410902207606
 31
0.0
  0
TEXT
  5
23FF6
  8
1DIM
  6
CONTINUOUS
 10
1416.102546296296
 20
-378.010902207606
 30
0.0
 40
7.0
  1
P90
1001
ACAD
1000
DSTYLE
1002
{
1070
    40
1040
2.0
1002
}
  0
LINE
  5
23FF7
  8
0
  6
BYBLOCK
 10
1474.0
 20
-380.482698967606
 30
0.0
 11
1470.0
 21
-379.410902207606
 31
0.0
  0
LINE
  5
23FF8
  8
0
  6
BYBLOCK
 10
1470.0
 20
-379.410902207606
 30
0.0
 11
1474.0
 21
-378.339105447606
 31
0.0
  0
LINE
  5
23FF9
  8
0
  6
BYBLOCK
 10
1470.0
 20
-379.410902207606
 30
0.0
 11
1474.0
 21
-379.410902207606
 31
0.0
  0
LINE
  5
23FFA
  8
0
  6
BYBLOCK
 10
1556.0
 20
-378.339105447606
 30
0.0
 11
1560.0
 21
-379.410902207606
 31
0.0
  0
LINE
  5
23FFB
  8
0
  6
BYBLOCK
 10
1560.0
 20
-379.410902207606
 30
0.0
 11
1556.0
 21
-380.482698967606
 31
0.0
  0
LINE
  5
23FFC
  8
0
  6
BYBLOCK
 10
1560.0
 20
-379.410902207606
 30
0.0
 11
1556.0
 21
-379.410902207606
 31
0.0
  0
TEXT
  5
23FFD
  8
1DIM
  6
CONTINUOUS
 10
1506.102546296296
 20
-378.010902207606
 30
0.0
 40
7.0
  1
P90
1001
ACAD
1000
DSTYLE
1002
{
1070
    40
1040
2.0
1002
}
  0
LINE
  5
23FFE
  8
0
  6
BYBLOCK
 10
1820.181924524248
 20
-400.1858983848679
 30
0.0
 11
1821.253721284248
 21
-396.1858983848679
 31
0.0
  0
LINE
  5
23FFF
  8
0
  6
BYBLOCK
 10
1821.253721284248
 20
-396.1858983848679
 30
0.0
 11
1822.325518044248
 21
-400.1858983848679
 31
0.0
  0
LINE
  5
24000
  8
0
  6
BYBLOCK
 10
1821.253721284248
 20
-396.1858983848679
 30
0.0
 11
1821.253721284248
 21
-400.1858983848679
 31
0.0
  0
LINE
  5
24001
  8
0
  6
BYBLOCK
 10
1822.325518044248
 20
-412.1858983848679
 30
0.0
 11
1821.253721284248
 21
-416.1858983848679
 31
0.0
  0
LINE
  5
24002
  8
0
  6
BYBLOCK
 10
1821.253721284248
 20
-416.1858983848679
 30
0.0
 11
1820.181924524248
 21
-412.1858983848679
 31
0.0
  0
LINE
  5
24003
  8
0
  6
BYBLOCK
 10
1821.253721284248
 20
-416.1858983848679
 30
0.0
 11
1821.253721284248
 21
-412.1858983848679
 31
0.0
  0
TEXT
  5
24004
  8
1DIM
  6
CONTINUOUS
 10
1819.853721284248
 20
-411.5817336295702
 30
0.0
 40
7.0
  1
20
 50
90.0
1001
ACAD
1000
DSTYLE
1002
{
1070
    40
1040
2.0
1002
}
  0
LINE
  5
24005
  8
0
  6
BYBLOCK
 10
1716.546481574399
 20
-392.1858983848679
 30
0.0
 11
1715.474684814399
 21
-396.1858983848679
 31
0.0
  0
LINE
  5
24006
  8
0
  6
BYBLOCK
 10
1715.474684814399
 20
-396.1858983848679
 30
0.0
 11
1714.402888054399
 21
-392.1858983848679
 31
0.0
  0
LINE
  5
24007
  8
0
  6
BYBLOCK
 10
1715.474684814399
 20
-396.1858983848679
 30
0.0
 11
1715.474684814399
 21
-392.1858983848679
 31
0.0
  0
LINE
  5
24008
  8
0
  6
BYBLOCK
 10
1714.402888054399
 20
-403.6858983848679
 30
0.0
 11
1715.474684814399
 21
-399.6858983848679
 31
0.0
  0
LINE
  5
24009
  8
0
  6
BYBLOCK
 10
1715.474684814399
 20
-399.6858983848679
 30
0.0
 11
1716.546481574399
 21
-403.6858983848679
 31
0.0
  0
LINE
  5
2400A
  8
0
  6
BYBLOCK
 10
1715.474684814399
 20
-399.6858983848679
 30
0.0
 11
1715.474684814399
 21
-403.6858983848679
 31
0.0
  0
TEXT
  5
2400B
  8
1DIM
  6
CONTINUOUS
 10
1714.074684814399
 20
-423.4192317182012
 30
0.0
 40
7.0
  1
3.5
 50
90.0
1001
ACAD
1000
DSTYLE
1002
{
1070
    40
1040
2.0
1002
}
  0
LINE
  5
2400C
  8
0
  6
BYBLOCK
 10
1766.724684814399
 20
-466.92820324
 30
0.0
 11
1770.724684814399
 21
-468.0
 31
0.0
  0
LINE
  5
2400D
  8
0
  6
BYBLOCK
 10
1770.724684814399
 20
-468.0
 30
0.0
 11
1766.724684814399
 21
-469.07179676
 31
0.0
  0
LINE
  5
2400E
  8
0
  6
BYBLOCK
 10
1770.724684814399
 20
-468.0
 30
0.0
 11
1766.724684814399
 21
-468.0
 31
0.0
  0
LINE
  5
2400F
  8
0
  6
BYBLOCK
 10
1779.224684814399
 20
-469.07179676
 30
0.0
 11
1775.224684814399
 21
-468.0
 31
0.0
  0
LINE
  5
24010
  8
0
  6
BYBLOCK
 10
1775.224684814399
 20
-468.0
 30
0.0
 11
1779.224684814399
 21
-466.92820324
 31
0.0
  0
LINE
  5
24011
  8
0
  6
BYBLOCK
 10
1775.224684814399
 20
-468.0
 30
0.0
 11
1779.224684814399
 21
-468.0
 31
0.0
  0
TEXT
  5
24012
  8
1DIM
  6
CONTINUOUS
 10
1746.991351481065
 20
-466.6
 30
0.0
 40
7.0
  1
4.5
1001
ACAD
1000
DSTYLE
1002
{
1070
    40
1040
2.0
1002
}
  0
LINE
  5
24013
  8
0
  6
BYBLOCK
 10
1839.893207173635
 20
-400.1858983848679
 30
0.0
 11
1840.965003933635
 21
-396.1858983848679
 31
0.0
  0
LINE
  5
24014
  8
0
  6
BYBLOCK
 10
1840.965003933635
 20
-396.1858983848679
 30
0.0
 11
1842.036800693635
 21
-400.1858983848679
 31
0.0
  0
LINE
  5
24015
  8
0
  6
BYBLOCK
 10
1840.965003933635
 20
-396.1858983848679
 30
0.0
 11
1840.965003933635
 21
-400.1858983848679
 31
0.0
  0
LINE
  5
24016
  8
0
  6
BYBLOCK
 10
1842.036800693635
 20
-432.1858983848679
 30
0.0
 11
1840.965003933635
 21
-436.1858983848679
 31
0.0
  0
LINE
  5
24017
  8
0
  6
BYBLOCK
 10
1840.965003933635
 20
-436.1858983848679
 30
0.0
 11
1839.893207173635
 21
-432.1858983848679
 31
0.0
  0
LINE
  5
24018
  8
0
  6
BYBLOCK
 10
1840.965003933635
 20
-436.1858983848679
 30
0.0
 11
1840.965003933635
 21
-432.1858983848679
 31
0.0
  0
TEXT
  5
24019
  8
1DIM
  6
CONTINUOUS
 10
1839.565003933635
 20
-422.0476059993857
 30
0.0
 40
7.0
  1
40
 50
90.0
1001
ACAD
1000
DSTYLE
1002
{
1070
    40
1040
2.0
1002
}
  0
LINE
  5
2401A
  8
0
  6
BYBLOCK
 10
1699.224684814399
 20
-382.2576951448679
 30
0.0
 11
1695.224684814399
 21
-381.1858983848679
 31
0.0
  0
LINE
  5
2401B
  8
0
  6
BYBLOCK
 10
1695.224684814399
 20
-381.1858983848679
 30
0.0
 11
1699.224684814399
 21
-380.1141016248679
 31
0.0
  0
LINE
  5
2401C
  8
0
  6
BYBLOCK
 10
1695.224684814399
 20
-381.1858983848679
 30
0.0
 11
1699.224684814399
 21
-381.1858983848679
 31
0.0
  0
LINE
  5
2401D
  8
0
  6
BYBLOCK
 10
1771.224684814399
 20
-380.1141016248679
 30
0.0
 11
1775.224684814399
 21
-381.1858983848679
 31
0.0
  0
LINE
  5
2401E
  8
0
  6
BYBLOCK
 10
1775.224684814399
 20
-381.1858983848679
 30
0.0
 11
1771.224684814399
 21
-382.2576951448679
 31
0.0
  0
LINE
  5
2401F
  8
0
  6
BYBLOCK
 10
1775.224684814399
 20
-381.1858983848679
 30
0.0
 11
1771.224684814399
 21
-381.1858983848679
 31
0.0
  0
TEXT
  5
24020
  8
1DIM
  6
CONTINUOUS
 10
1729.828851481065
 20
-379.7858983848679
 30
0.0
 40
7.0
  1
80
1001
ACAD
1000
DSTYLE
1002
{
1070
    40
1040
2.0
1002
}
  0
LINE
  5
24021
  8
0
  6
BYBLOCK
 10
1777.282806343112
 20
-375.7125161945996
 30
0.0000000000019322
 11
1778.418991727888
 21
-377.4434898642749
 31
0.0000000000019322
  0
LINE
  5
24022
  8
0
  6
BYBLOCK
 10
1778.418991727888
 20
-377.4434898642749
 30
0.0000000000019322
 11
1776.56953949065
 21
-376.5125153770518
 31
0.0000000000019322
  0
LINE
  5
24023
  8
0
  6
BYBLOCK
 10
1778.418991727888
 20
-377.4434898642749
 30
0.0000000000019322
 11
1776.926172916881
 21
-376.1125157858257
 31
0.0000000000019322
  0
LINE
  5
24024
  8
0
  6
BYBLOCK
 10
1788.490850703665
 20
-373.0877884093867
 30
0.0000000000038644
 11
1789.411931327438
 21
-374.9421879235679
 31
0.0000000000038644
  0
LINE
  5
24025
  8
0
  6
BYBLOCK
 10
1789.411931327438
 20
-374.9421879235679
 30
0.0000000000038644
 11
1787.687052356422
 21
-373.7967711395833
 31
0.0000000000038644
  0
LINE
  5
24026
  8
0
  6
BYBLOCK
 10
1789.411931327438
 20
-374.9421879235679
 30
0.0000000000038644
 11
1788.088951530043
 21
-373.442279774485
 31
0.0000000000038644
  0
LINE
  5
24027
  8
0
  6
BYBLOCK
 10
1344.0
 20
-363.7576951448681
 30
0.0
 11
1340.0
 21
-362.6858983848681
 31
0.0
  0
LINE
  5
24028
  8
0
  6
BYBLOCK
 10
1340.0
 20
-362.6858983848681
 30
0.0
 11
1344.0
 21
-361.6141016248681
 31
0.0
  0
LINE
  5
24029
  8
0
  6
BYBLOCK
 10
1340.0
 20
-362.6858983848681
 30
0.0
 11
1344.0
 21
-362.6858983848681
 31
0.0
  0
LINE
  5
2402A
  8
0
  6
BYBLOCK
 10
1596.0
 20
-361.6141016248681
 30
0.0
 11
1600.0
 21
-362.6858983848681
 31
0.0
  0
LINE
  5
2402B
  8
0
  6
BYBLOCK
 10
1600.0
 20
-362.6858983848681
 30
0.0
 11
1596.0
 21
-363.7576951448681
 31
0.0
  0
LINE
  5
2402C
  8
0
  6
BYBLOCK
 10
1600.0
 20
-362.6858983848681
 30
0.0
 11
1596.0
 21
-362.6858983848681
 31
0.0
  0
TEXT
  5
2402D
  8
1DIM
  6
CONTINUOUS
 10
1461.079861111111
 20
-361.2858983848681
 30
0.0
 40
7.0
  1
260
1001
ACAD
1000
DSTYLE
1002
{
1070
    40
1040
2.0
1002
}
  0
TEXT
  5
2402E
  8
1DIM
  6
CONTINUOUS
 10
1624.970798821576
 20
-285.8967736085198
 30
0.0
 40
7.0
  1
\U+220539.5
 50
348.470968780448
1001
ACAD
1000
DSTYLE
1002
{
1070
    40
1040
2.0
1002
}
  0
LINE
  5
2402F
  8
0
  6
BYBLOCK
 10
1536.943404471235
 20
-268.275905732307
 30
0.0
 11
1540.648484669801
 21
-270.1255351592302
 31
0.0
  0
LINE
  5
24030
  8
0
  6
BYBLOCK
 10
1540.648484669801
 20
-270.1255351592302
 30
0.0
 11
1536.514976380185
 21
-270.3762491684587
 31
0.0
  0
LINE
  5
24031
  8
0
  6
BYBLOCK
 10
1540.648484669801
 20
-270.1255351592302
 30
0.0
 11
1536.72919042571
 21
-269.3260774503828
 31
0.0
  0
LINE
  5
24032
  8
0
  6
BYBLOCK
 10
1583.056595528765
 20
-279.8698094610212
 30
0.0
 11
1579.351515330199
 21
-278.020180034098
 31
0.0
  0
LINE
  5
24033
  8
0
  6
BYBLOCK
 10
1579.351515330199
 20
-278.020180034098
 30
0.0
 11
1583.485023619815
 21
-277.7694660248695
 31
0.0
  0
LINE
  5
24034
  8
0
  6
BYBLOCK
 10
1579.351515330199
 20
-278.020180034098
 30
0.0
 11
1583.27080957429
 21
-278.8196377429454
 31
0.0
  0
TEXT
  5
24035
  8
1DIM
  6
CONTINUOUS
 10
1617.083383313151
 20
-299.5741815914864
 30
0.0
 40
7.0
  1
\U+220532.5
 50
334.6447541588156
1001
ACAD
1000
DSTYLE
1002
{
1070
    40
1040
2.0
1002
}
  0
LINE
  5
24036
  8
0
  6
BYBLOCK
 10
1542.159656135378
 20
-264.4326615879308
 30
0.0
 11
1545.315361497839
 21
-267.1141298350084
 31
0.0
  0
LINE
  5
24037
  8
0
  6
BYBLOCK
 10
1545.315361497839
 20
-267.1141298350084
 30
0.0
 11
1541.241706366927
 21
-266.3697628763477
 31
0.0
  0
LINE
  5
24038
  8
0
  6
BYBLOCK
 10
1545.315361497839
 20
-267.1141298350084
 30
0.0
 11
1541.700681251153
 21
-265.4012122321392
 31
0.0
  0
LINE
  5
24039
  8
0
  6
BYBLOCK
 10
1577.840343864622
 20
-283.7130536053974
 30
0.0
 11
1574.684638502161
 21
-281.0315853583198
 31
0.0
  0
LINE
  5
2403A
  8
0
  6
BYBLOCK
 10
1574.684638502161
 20
-281.0315853583198
 30
0.0
 11
1578.758293633073
 21
-281.7759523169805
 31
0.0
  0
LINE
  5
2403B
  8
0
  6
BYBLOCK
 10
1574.684638502161
 20
-281.0315853583198
 30
0.0
 11
1578.299318748847
 21
-282.744502961189
 31
0.0
  0
TEXT
  5
2403C
  8
1DIM
  6
CONTINUOUS
 10
1328.626868532644
 20
-473.3562662846582
 30
0.0
 40
7.0
  1
\U+220528
 50
325.019095525071
1001
ACAD
1000
DSTYLE
1002
{
1070
    40
1040
2.0
1002
}
  0
LINE
  5
2403D
  8
0
  6
BYBLOCK
 10
1383.211624261303
 20
-514.5666215060239
 30
0.0
 11
1380.548716344546
 21
-511.3952385708333
 31
0.0
  0
LINE
  5
2403E
  8
0
  6
BYBLOCK
 10
1380.548716344546
 20
-511.3952385708333
 30
0.0
 11
1384.440553709572
 21
-512.8102828171137
 31
0.0
  0
LINE
  5
2403F
  8
0
  6
BYBLOCK
 10
1380.548716344546
 20
-511.3952385708333
 30
0.0
 11
1383.826088985438
 21
-513.6884521615688
 31
0.0
  0
LINE
  5
24040
  8
0
  6
BYBLOCK
 10
1354.944199941546
 20
-492.1713605004942
 30
0.0
 11
1357.607107858303
 21
-495.3427434356848
 31
0.0
  0
LINE
  5
24041
  8
0
  6
BYBLOCK
 10
1357.607107858303
 20
-495.3427434356848
 30
0.0
 11
1353.715270493277
 21
-493.9276991894044
 31
0.0
  0
LINE
  5
24042
  8
0
  6
BYBLOCK
 10
1357.607107858303
 20
-495.3427434356848
 30
0.0
 11
1354.329735217412
 21
-493.0495298449493
 31
0.0
  0
TEXT
  5
24043
  8
1DIM
  6
CONTINUOUS
 10
1495.754646787637
 20
-472.9091684906276
 30
0.0
 40
7.0
  1
\U+220524
 50
325.8498845185189
1001
ACAD
1000
DSTYLE
1002
{
1070
    40
1040
2.0
1002
}
  0
LINE
  5
24044
  8
0
  6
BYBLOCK
 10
1550.804479694855
 20
-513.2377865473115
 30
0.0
 11
1548.095868259788
 21
-510.1053478186894
 31
0.0
  0
LINE
  5
24045
  8
0
  6
BYBLOCK
 10
1548.095868259788
 20
-510.1053478186894
 30
0.0
 11
1552.007813929685
 21
-511.4638136336877
 31
0.0
  0
LINE
  5
24046
  8
0
  6
BYBLOCK
 10
1548.095868259788
 20
-510.1053478186894
 30
0.0
 11
1551.40614681227
 21
-512.3508000904995
 31
0.0
  0
LINE
  5
24047
  8
0
  6
BYBLOCK
 10
1525.525585509829
 20
-493.5001954592066
 30
0.0
 11
1528.234196944896
 21
-496.6326341878287
 31
0.0
  0
LINE
  5
24048
  8
0
  6
BYBLOCK
 10
1528.234196944896
 20
-496.6326341878287
 30
0.0
 11
1524.322251274999
 21
-495.2741683728304
 31
0.0
  0
LINE
  5
24049
  8
0
  6
BYBLOCK
 10
1528.234196944896
 20
-496.6326341878287
 30
0.0
 11
1524.923918392414
 21
-494.3871819160185
 31
0.0
  0
LINE
  5
2404A
  8
0
  6
BYBLOCK
 10
1524.549762114371
 20
-297.9174715005283
 30
0.0
 11
1523.55056805555
 21
-296.1039670735961
 31
0.0
  0
LINE
  5
2404B
  8
0
  6
BYBLOCK
 10
1523.55056805555
 20
-296.1039670735961
 30
0.0
 11
1525.322647702407
 21
-297.1749109558233
 31
0.0
  0
LINE
  5
2404C
  8
0
  6
BYBLOCK
 10
1523.55056805555
 20
-296.1039670735961
 30
0.0
 11
1524.93620490839
 21
-297.5461912281758
 31
0.0
  0
LINE
  5
2404D
  8
0
  6
BYBLOCK
 10
1536.788187263171
 20
-519.2942266818479
 30
0.0
 11
1538.318819472581
 21
-517.8998264117656
 31
0.0
  0
LINE
  5
2404E
  8
0
  6
BYBLOCK
 10
1538.318819472581
 20
-517.8998264117656
 30
0.0
 11
1537.690453221473
 21
-519.8727285705548
 31
0.0
  0
LINE
  5
2404F
  8
0
  6
BYBLOCK
 10
1538.318819472581
 20
-517.8998264117656
 30
0.0
 11
1537.239320242322
 21
-519.5834776262013
 31
0.0
  0
LINE
  5
24050
  8
0
  6
BYBLOCK
 10
1367.701066762254
 20
-519.2942266818479
 30
0.0
 11
1369.231698971663
 21
-517.8998264117656
 31
0.0
  0
LINE
  5
24051
  8
0
  6
BYBLOCK
 10
1369.231698971663
 20
-517.8998264117656
 30
0.0
 11
1368.603332720555
 21
-519.8727285705548
 31
0.0
  0
LINE
  5
24052
  8
0
  6
BYBLOCK
 10
1369.231698971663
 20
-517.8998264117656
 30
0.0
 11
1368.152199741405
 21
-519.5834776262013
 31
0.0
  0
VIEWPORT
  5
57
 67
     1
  8
0
 10
0.0
 20
0.0
 30
0.0
 40
522.4048442906575
 41
297.0
 68
     1
 69
     1
1001
ACAD
1000
MVIEW
1002
{
1070
    16
1010
0.0
1020
0.0
1030
0.0
1010
0.0
1020
0.0
1030
1.0
1040
0.0
1040
297.0
1040
-4.171999999925333
1040
12.83903210976956
1040
50.0
1040
0.0
1040
0.0
1070
    16
1070
   100
1070
     0
1070
     1
1070
     0
1070
     0
1070
     0
1070
     0
1040
0.0
1040
0.0
1040
0.0
1040
10.0
1040
10.0
1040
10.0
1040
10.0
1070
     0
1002
{
1002
}
1002
}
  0
ENDSEC
  0
EOF
