  0
SECTION
  2
HEADER
  9
$ACADVER
  1
AC1009
  9
$DWGCODEPAGE
  3
ansi_932
  9
$INSBASE
 10
0.0
 20
0.0
 30
0.0
  9
$EXTMIN
 10
380.0162416153649
 20
-705.1655226870741
 30
0.0
  9
$EXTMAX
 10
751.5894367924558
 20
-522.3905319436628
 30
0.0
  9
$LIMMIN
 10
0.0
 20
0.0
  9
$LIMMAX
 10
420.0
 20
297.0
  9
$ORTHOMODE
 70
     0
  9
$REGENMODE
 70
     1
  9
$FILLMODE
 70
     1
  9
$QTEXTMODE
 70
     0
  9
$MIRRTEXT
 70
     0
  9
$DRAGMODE
 70
     2
  9
$LTSCALE
 40
0.5
  9
$OSMODE
 70
  2175
  9
$ATTMODE
 70
     1
  9
$TEXTSIZE
 40
4.0
  9
$TRACEWID
 40
1.0
  9
$TEXTSTYLE
  7
STANDARD
  9
$CLAYER
  8
1TEXT
  9
$CELTYPE
  6
BYLAYER
  9
$CECOLOR
 62
   256
  9
$DIMSCALE
 40
1.0
  9
$DIMASZ
 40
2.0
  9
$DIMEXO
 40
0.0
  9
$DIMDLI
 40
7.0
  9
$DIMRND
 40
0.0
  9
$DIMDLE
 40
0.0
  9
$DIMEXE
 40
1.0
  9
$DIMTP
 40
0.0
  9
$DIMTM
 40
0.0
  9
$DIMTXT
 40
3.5
  9
$DIMCEN
 40
0.0
  9
$DIMTSZ
 40
0.0
  9
$DIMTOL
 70
     0
  9
$DIMLIM
 70
     0
  9
$DIMTIH
 70
     0
  9
$DIMTOH
 70
     0
  9
$DIMSE1
 70
     0
  9
$DIMSE2
 70
     0
  9
$DIMTAD
 70
     1
  9
$DIMZIN
 70
     8
  9
$DIMBLK
  1

  9
$DIMASO
 70
     1
  9
$DIMSHO
 70
     1
  9
$DIMPOST
  1
 
  9
$DIMAPOST
  1

  9
$DIMALT
 70
     0
  9
$DIMALTD
 70
     2
  9
$DIMALTF
 40
25.4
  9
$DIMLFAC
 40
1.0
  9
$DIMTOFL
 70
     1
  9
$DIMTVP
 40
0.0
  9
$DIMTIX
 70
     0
  9
$DIMSOXD
 70
     0
  9
$DIMSAH
 70
     1
  9
$DIMBLK1
  1
OPEN30
  9
$DIMBLK2
  1
OPEN30
  9
$DIMSTYLE
  2
NEWX10
  9
$DIMCLRD
 70
   256
  9
$DIMCLRE
 70
   256
  9
$DIMCLRT
 70
   201
  9
$DIMTFAC
 40
0.7
  9
$DIMGAP
 40
0.7
  9
$LUNITS
 70
     2
  9
$LUPREC
 70
     4
  9
$SKETCHINC
 40
1.0
  9
$FILLETRAD
 40
0.5
  9
$AUNITS
 70
     0
  9
$AUPREC
 70
     2
  9
$MENU
  1
acad
  9
$ELEVATION
 40
0.0
  9
$PELEVATION
 40
0.0
  9
$THICKNESS
 40
0.0
  9
$LIMCHECK
 70
     0
  9
$CHAMFERA
 40
1.0
  9
$CHAMFERB
 40
1.0
  9
$SKPOLY
 70
     0
  9
$TDCREATE
 40
2453033.732663484
  9
$TDUPDATE
 40
2460549.706363264
  9
$TDINDWG
 40
3.3589344213
  9
$TDUSRTIMER
 40
3.3589344213
  9
$USRTIMER
 70
     1
  9
$ANGBASE
 50
0.0
  9
$ANGDIR
 70
     0
  9
$PDMODE
 70
     0
  9
$PDSIZE
 40
0.0
  9
$PLINEWID
 40
0.0
  9
$COORDS
 70
     2
  9
$SPLFRAME
 70
     0
  9
$SPLINETYPE
 70
     6
  9
$SPLINESEGS
 70
     8
  9
$ATTDIA
 70
     0
  9
$ATTREQ
 70
     1
  9
$HANDLING
 70
     1
  9
$HANDSEED
  5
276FF
  9
$SURFTAB1
 70
     6
  9
$SURFTAB2
 70
     6
  9
$SURFTYPE
 70
     6
  9
$SURFU
 70
     6
  9
$SURFV
 70
     6
  9
$UCSNAME
  2

  9
$UCSORG
 10
0.0
 20
0.0
 30
0.0
  9
$UCSXDIR
 10
1.0
 20
0.0
 30
0.0
  9
$UCSYDIR
 10
0.0
 20
1.0
 30
0.0
  9
$PUCSNAME
  2

  9
$PUCSORG
 10
0.0
 20
0.0
 30
0.0
  9
$PUCSXDIR
 10
1.0
 20
0.0
 30
0.0
  9
$PUCSYDIR
 10
0.0
 20
1.0
 30
0.0
  9
$USERI1
 70
     0
  9
$USERI2
 70
     0
  9
$USERI3
 70
     0
  9
$USERI4
 70
     0
  9
$USERI5
 70
     0
  9
$USERR1
 40
0.0
  9
$USERR2
 40
0.0
  9
$USERR3
 40
0.0
  9
$USERR4
 40
0.0
  9
$USERR5
 40
0.0
  9
$WORLDVIEW
 70
     1
  9
$SHADEDGE
 70
     3
  9
$SHADEDIF
 70
    70
  9
$TILEMODE
 70
     1
  9
$MAXACTVP
 70
    48
  9
$PLIMCHECK
 70
     0
  9
$PEXTMIN
 10
1.000000000000000E+20
 20
1.000000000000000E+20
 30
1.000000000000000E+20
  9
$PEXTMAX
 10
-1.000000000000000E+20
 20
-1.000000000000000E+20
 30
-1.000000000000000E+20
  9
$PLIMMIN
 10
0.0
 20
0.0
  9
$PLIMMAX
 10
420.0
 20
297.0
  9
$UNITMODE
 70
     0
  9
$VISRETAIN
 70
     1
  9
$PLINEGEN
 70
     0
  9
$PSLTSCALE
 70
     1
  0
ENDSEC
  0
SECTION
  2
TABLES
  0
TABLE
  2
VPORT
 70
     1
  0
VPORT
  2
*ACTIVE
 70
     0
 10
0.0
 20
0.0
 11
1.0
 21
1.0
 12
565.8028392039104
 22
-613.7780273153685
 13
0.0
 23
0.0
 14
10.0
 24
10.0
 15
10.0
 25
10.0
 16
0.0
 26
0.0
 36
1.0
 17
0.0
 27
0.0
 37
0.0
 40
217.6788045595764
 41
1.83275663206459
 42
50.0
 43
0.0
 44
0.0
 50
0.0
 51
0.0
 71
    16
 72
   100
 73
     1
 74
     1
 75
     0
 76
     0
 77
     0
 78
     0
  0
ENDTAB
  0
TABLE
  2
LTYPE
 70
    18
  0
LTYPE
  2
CONTINUOUS
 70
     0
  3
Solid line
 72
    65
 73
     0
 40
0.0
  0
LTYPE
  2
CENTER2
 70
     0
  3
Center (.5x) ___ _ ___ _ ___ _ ___ _ ___ _ ___
 72
    65
 73
     4
 40
28.575
 49
19.05
 49
-3.175
 49
3.175
 49
-3.175
  0
LTYPE
  2
PHANTOM2
 70
     0
  3
Phantom (0.5x) ___ _ _ ___ _ _ ___ _ _ ___ _ _
 72
    65
 73
     6
 40
31.75
 49
15.875
 49
-3.175
 49
3.175
 49
-3.175
 49
3.175
 49
-3.175
  0
ENDTAB
  0
TABLE
  2
LAYER
 70
    46
  0
LAYER
  2
0
 70
     0
 62
     7
  6
CONTINUOUS
  0
LAYER
  2
1CENTER
 70
     0
 62
     7
  6
CENTER2
  0
LAYER
  2
1TEXT
 70
     0
 62
     7
  6
CONTINUOUS
  0
LAYER
  2
1DIM
 70
     0
 62
     7
  6
CONTINUOUS
  0
LAYER
  2
1PHANTOM
 70
     0
 62
     7
  6
PHANTOM2
  0
LAYER
  2
01
 70
     0
 62
     1
  6
CONTINUOUS
  0
ENDTAB
  0
TABLE
  2
STYLE
 70
    25
  0
STYLE
  2
STANDARD
 70
     0
 40
0.0
 41
1.0
 50
0.0
 71
     0
 42
4.0
  3
txt.shx
  4
extfont.shx
  0
ENDTAB
  0
TABLE
  2
VIEW
 70
     0
  0
ENDTAB
  0
TABLE
  2
UCS
 70
     0
  0
ENDTAB
  0
TABLE
  2
APPID
 70
    17
  0
APPID
  2
ACAD
 70
     0
  0
APPID
  2
DRAWINGVARIABLESXDATA
 70
     0
  0
APPID
  2
CONTENTTABDATA
 70
     0
  0
APPID
  2
CONTENTCURRENTTAB
 70
     0
  0
APPID
  2
CONTENTBLOCKDESCRIPTION
 70
     0
  0
APPID
  2
CONTENTBLOCKICON
 70
     0
  0
APPID
  2
CONTENTLONGBLOCKNAME
 70
     0
  0
APPID
  2
ACAD_PSEXT
 70
     0
  0
APPID
  2
ACAD_DSTYLE_DIMTEXT_FILL
 70
     0
  0
APPID
  2
ACAD_MLEADERVER
 70
     0
  0
APPID
  2
ACAD_DSTYLE_DIMRADIAL_EXTE
 70
     0
  0
APPID
  2
ACADANNOTATIVE
 70
     0
  0
APPID
  2
ACAD_EXEMPT_FROM_CAD_STAND
 70
     0
  0
APPID
  2
ACDBBLOCKREPETAG
 70
     0
  0
APPID
  2
ACAD_OBJECT_CHANGE_GUID
 70
     0
  0
APPID
  2
ACLAYERTOOLS
 70
     0
  0
APPID
  2
ACAD_NAV_VCDISPLAY
 70
     0
  0
ENDTAB
  0
TABLE
  2
DIMSTYLE
 70
    11
  0
DIMSTYLE
  2
NEWX10
 70
     0
  3
 
  4

  5

  6
OPEN30
  7
OPEN30
 40
1.0
 41
2.0
 42
0.0
 43
7.0
 44
1.0
 45
0.0
 46
0.0
 47
0.0
 48
0.0
140
3.5
141
0.0
142
0.0
143
25.4
144
1.0
145
0.0
146
0.7
147
0.7
 71
     0
 72
     0
 73
     0
 74
     0
 75
     0
 76
     0
 77
     1
 78
     8
170
     0
171
     2
172
     1
173
     1
174
     0
175
     0
176
   256
177
   256
178
   201
  0
DIMSTYLE
  2
ISO-25
 70
     0
  3

  4

  5

  6

  7

 40
1.0
 41
20.0
 42
3.0
 43
3.75
 44
2.0
 45
0.0
 46
0.0
 47
0.0
 48
0.0
140
30.0
141
5.0
142
0.0
143
0.03937
144
1.0
145
0.0
146
1.0
147
8.0
 71
     0
 72
     0
 73
     0
 74
     0
 75
     0
 76
     0
 77
     1
 78
     8
170
     0
171
     3
172
     1
173
     0
174
     0
175
     0
176
     1
177
     1
178
     1
  0
ENDTAB
  0
ENDSEC
  0
SECTION
  2
BLOCKS
  0
BLOCK
  8
0
  2
$MODEL_SPACE
 70
     0
 10
0.0
 20
0.0
 30
0.0
  3
$MODEL_SPACE
  1

  0
ENDBLK
  5
1A
  8
0
  0
BLOCK
 67
     1
  8
0
  2
$PAPER_SPACE
 70
     0
 10
0.0
 20
0.0
 30
0.0
  3
$PAPER_SPACE
  1

  0
ENDBLK
  5
17
 67
     1
  8
0
  0
BLOCK
  8
0
  2
_OPEN30
 70
     0
 10
0.0
 20
0.0
 30
0.0
  3
_OPEN30
  1

  0
LINE
  5
44
  8
0
  6
BYBLOCK
 62
     0
 10
-1.0
 20
0.26794919
 30
0.0
 11
0.0
 21
0.0
 31
0.0
  0
LINE
  5
45
  8
0
  6
BYBLOCK
 62
     0
 10
0.0
 20
0.0
 30
0.0
 11
-1.0
 21
-0.26794919
 31
0.0
  0
LINE
  5
46
  8
0
  6
BYBLOCK
 62
     0
 10
0.0
 20
0.0
 30
0.0
 11
-1.0
 21
0.0
 31
0.0
  0
ENDBLK
  5
47
  8
0
  0
BLOCK
  8
0
  2
A3WAKUKAWAJUN2017_HYOUDAI_
 70
     0
 10
0.0
 20
0.0
 30
0.0
  3
A3WAKUKAWAJUN2017_HYOUDAI_
  1

  0
LINE
  5
1FECB
  8
0
 10
13.26299999998673
 20
-0.0001000000000317
 30
0.0
 11
9.236999999990758
 21
8.999899999990987
 31
0.0
1001
ACAD
1000
ASC_BOUNDS
1002
{
1070
    19
1005
1FF0C
1002
}
  0
LINE
  5
1FECC
  8
0
 10
5.657999999994331
 20
0.9999999999989768
 30
0.0
 11
9.236999999990758
 21
8.999999999991019
 31
0.0
1001
ACAD
1000
ASC_BOUNDS
1002
{
1070
    19
1005
1FF0C
1002
}
  0
LINE
  5
1FECD
  8
0
 10
18.59199999998134
 20
-0.2368999999997641
 30
0.0
 11
16.46099999998353
 21
5.432899999994561
 31
0.0
1001
ACAD
1000
ASC_BOUNDS
1002
{
1070
    19
1005
1FF0D
1002
}
  0
LINE
  5
1FECE
  8
0
 10
18.59199999998134
 20
-0.2368999999997641
 30
0.0
 11
22.38199999997767
 21
8.763099999991255
 31
0.0
1001
ACAD
1000
ASC_BOUNDS
1002
{
1070
    19
1005
1FF0D
1002
}
  0
LINE
  5
1FECF
  8
0
 10
14.32899999998563
 20
-0.2368999999997641
 30
0.0
 11
16.46099999998353
 21
5.432899999994561
 31
0.0
1001
ACAD
1000
ASC_BOUNDS
1002
{
1070
    19
1005
1FF0D
1002
}
  0
LINE
  5
1FED0
  8
0
 10
14.32899999998563
 20
-0.2368999999997641
 30
0.0
 11
10.53899999998941
 21
8.763099999991255
 31
0.0
1001
ACAD
1000
ASC_BOUNDS
1002
{
1070
    19
1005
1FF0D
1002
}
  0
LINE
  5
1FED1
  8
0
 10
19.53899999998043
 20
-0.0001000000000317
 30
0.0
 11
23.56599999997638
 21
8.999899999990987
 31
0.0
1001
ACAD
1000
ASC_BOUNDS
1002
{
1070
    19
1005
1FF0E
1002
}
  0
LINE
  5
1FED2
  8
0
 10
26.97358892824991
 20
1.383099999991202
 30
0.0
 11
23.56599999997638
 21
8.999899999990987
 31
0.0
1001
ACAD
1000
ASC_BOUNDS
1002
{
1070
    19
1005
1FF0E
1002
}
  0
LINE
  5
1FED3
  8
0
 10
5.657999999994331
 20
0.9999999999989768
 30
0.0
 11
3.181999999996833
 21
4.668599999995308
 31
0.0
1001
ACAD
1000
ASC_BOUNDS
1002
{
1070
    19
1005
1FF0C
1002
}
  0
LINE
  5
1FED4
  8
0
 10
4.617999999995391
 20
-0.0001000000000317
 30
0.0
 11
1.420999999998571
 21
4.736799999995242
 31
0.0
1001
ACAD
1000
ASC_BOUNDS
1002
{
1070
    19
1005
1FF0C
1002
}
  0
LINE
  5
1FED5
  8
0
 10
1.420999999998571
 20
8.763099999991255
 30
0.0
 11
1.420999999998571
 21
0.0
 31
0.0
1001
ACAD
1000
ASC_BOUNDS
1002
{
1070
    19
1005
1FF11
1002
}
  0
LINE
  5
1FED6
  8
0
 10
0.0
 20
8.763099999991255
 30
0.0
 11
0.0
 21
0.0
 31
0.0
1001
ACAD
1000
ASC_BOUNDS
1002
{
1070
    19
1005
1FF11
1002
}
  0
LINE
  5
1FED7
  8
0
 10
6.766999999993232
 20
-0.0001000000000317
 30
0.0
 11
7.826999999992154
 21
2.368399999997621
 31
0.0
1001
ACAD
1000
ASC_BOUNDS
1002
{
1070
    19
1005
1FF0C
1002
}
  0
LINE
  5
1FED8
  8
0
 10
0.0
 20
0.0
 30
0.0
 11
1.420999999998571
 21
0.0
 31
0.0
1001
ACAD
1000
ASC_BOUNDS
1002
{
1070
    19
1005
1FF11
1002
}
  0
LINE
  5
1FED9
  8
0
 10
4.617999999995391
 20
0.0
 30
0.0
 11
6.766999999993232
 21
0.0
 31
0.0
1001
ACAD
1000
ASC_BOUNDS
1002
{
1070
    19
1005
1FF0C
1002
}
  0
LINE
  5
1FEDA
  8
0
 10
11.70599999998831
 20
-0.0001000000000317
 30
0.0
 11
10.64699999998936
 21
2.368399999997621
 31
0.0
1001
ACAD
1000
ASC_BOUNDS
1002
{
1070
    19
1005
1FF0C
1002
}
  0
LINE
  5
1FEDB
  8
0
 10
7.826999999992154
 20
2.368399999997621
 30
0.0
 11
10.64699999998936
 21
2.368399999997621
 31
0.0
1001
ACAD
1000
ASC_BOUNDS
1002
{
1070
    19
1005
1FF0C
1002
}
  0
LINE
  5
1FEDC
  8
0
 10
11.70599999998831
 20
0.0
 30
0.0
 11
13.26299999998673
 21
0.0
 31
0.0
1001
ACAD
1000
ASC_BOUNDS
1002
{
1070
    19
1005
1FF0C
1002
}
  0
LINE
  5
1FEDD
  8
0
 10
22.15599999997789
 20
2.368399999997621
 30
0.0
 11
24.97599999997499
 21
2.368399999997621
 31
0.0
1001
ACAD
1000
ASC_BOUNDS
1002
{
1070
    19
1005
1FF0E
1002
}
  0
LINE
  5
1FEDE
  8
0
 10
19.53899999998043
 20
0.0
 30
0.0
 11
21.09599999997886
 21
0.0
 31
0.0
1001
ACAD
1000
ASC_BOUNDS
1002
{
1070
    19
1005
1FF0E
1002
}
  0
LINE
  5
1FEDF
  8
0
 10
21.09599999997886
 20
-0.0001000000000317
 30
0.0
 11
22.15599999997789
 21
2.368399999997621
 31
0.0
1001
ACAD
1000
ASC_BOUNDS
1002
{
1070
    19
1005
1FF0E
1002
}
  0
LINE
  5
1FEE0
  8
0
 10
26.02015566812236
 20
0.0330999999912365
 30
0.0
 11
24.97599999997499
 21
2.368399999997621
 31
0.0
1001
ACAD
1000
ASC_BOUNDS
1002
{
1070
    19
1005
1FF0E
1002
}
  0
LINE
  5
1FEE1
  8
0
 10
14.32399999998563
 20
3.315799999996671
 30
0.0
 11
16.46099999998353
 21
8.999899999990987
 31
0.0
1001
ACAD
1000
ASC_BOUNDS
1002
{
1070
    19
1005
1FF0D
1002
}
  0
LINE
  5
1FEE2
  8
0
 10
6.432999999993513
 20
8.763099999991255
 30
0.0
 11
3.181999999996833
 21
4.668599999995308
 31
0.0
1001
ACAD
1000
ASC_BOUNDS
1002
{
1070
    19
1005
1FF0C
1002
}
  0
LINE
  5
1FEE3
  8
0
 10
4.617999999995391
 20
8.763099999991255
 30
0.0
 11
1.420999999998571
 21
4.736799999995242
 31
0.0
1001
ACAD
1000
ASC_BOUNDS
1002
{
1070
    19
1005
1FF0C
1002
}
  0
LINE
  5
1FEE4
  8
0
 10
0.0
 20
8.763099999991255
 30
0.0
 11
1.420999999998571
 21
8.763099999991255
 31
0.0
1001
ACAD
1000
ASC_BOUNDS
1002
{
1070
    19
1005
1FF11
1002
}
  0
LINE
  5
1FEE5
  8
0
 10
4.617999999995391
 20
8.763099999991255
 30
0.0
 11
6.432999999993513
 21
8.763099999991255
 31
0.0
1001
ACAD
1000
ASC_BOUNDS
1002
{
1070
    19
1005
1FF0C
1002
}
  0
LINE
  5
1FEE6
  8
0
 10
14.32399999998563
 20
3.315799999996671
 30
0.0
 11
12.02999999998792
 21
8.763099999991255
 31
0.0
1001
ACAD
1000
ASC_BOUNDS
1002
{
1070
    19
1005
1FF0D
1002
}
  0
LINE
  5
1FEE7
  8
0
 10
10.06399999998996
 20
3.670999999996297
 30
0.0
 11
9.236999999990758
 21
5.5200999999945
 31
0.0
1001
ACAD
1000
ASC_BOUNDS
1002
{
1070
    19
1005
1FF0C
1002
}
  0
LINE
  5
1FEE8
  8
0
 10
8.409999999991555
 20
3.670999999996297
 30
0.0
 11
9.236999999990758
 21
5.5200999999945
 31
0.0
1001
ACAD
1000
ASC_BOUNDS
1002
{
1070
    19
1005
1FF0C
1002
}
  0
LINE
  5
1FEE9
  8
0
 10
8.409999999991555
 20
3.670999999996297
 30
0.0
 11
10.06399999998996
 21
3.670999999996297
 31
0.0
1001
ACAD
1000
ASC_BOUNDS
1002
{
1070
    19
1005
1FF0C
1002
}
  0
LINE
  5
1FEEA
  8
0
 10
10.53899999998941
 20
8.763099999991255
 30
0.0
 11
12.02999999998792
 21
8.763099999991255
 31
0.0
1001
ACAD
1000
ASC_BOUNDS
1002
{
1070
    19
1005
1FF0D
1002
}
  0
LINE
  5
1FEEB
  8
0
 10
22.7389999999773
 20
3.670999999996297
 30
0.0
 11
23.56599999997638
 21
5.5200999999945
 31
0.0
1001
ACAD
1000
ASC_BOUNDS
1002
{
1070
    19
1005
1FF0E
1002
}
  0
LINE
  5
1FEEC
  8
0
 10
22.7389999999773
 20
3.670999999996297
 30
0.0
 11
24.39299999997559
 21
3.670999999996297
 31
0.0
1001
ACAD
1000
ASC_BOUNDS
1002
{
1070
    19
1005
1FF0E
1002
}
  0
LINE
  5
1FEED
  8
0
 10
18.59799999998143
 20
3.315799999996671
 30
0.0
 11
20.89099999997916
 21
8.763099999991255
 31
0.0
1001
ACAD
1000
ASC_BOUNDS
1002
{
1070
    19
1005
1FF0D
1002
}
  0
LINE
  5
1FEEE
  8
0
 10
18.59799999998143
 20
3.315799999996671
 30
0.0
 11
16.46099999998353
 21
8.999899999990987
 31
0.0
1001
ACAD
1000
ASC_BOUNDS
1002
{
1070
    19
1005
1FF0D
1002
}
  0
LINE
  5
1FEEF
  8
0
 10
20.89099999997916
 20
8.763099999991255
 30
0.0
 11
22.38199999997767
 21
8.763099999991255
 31
0.0
1001
ACAD
1000
ASC_BOUNDS
1002
{
1070
    19
1005
1FF0D
1002
}
  0
LINE
  5
1FEF0
  8
0
 10
24.39299999997559
 20
3.670999999996297
 30
0.0
 11
23.56599999997638
 21
5.5200999999945
 31
0.0
1001
ACAD
1000
ASC_BOUNDS
1002
{
1070
    19
1005
1FF0E
1002
}
  0
LINE
  5
1FEF1
  8
0
 10
44.99999999995498
 20
-0.2368999999997641
 30
0.0
 11
40.02599999995994
 21
5.341799999994635
 31
0.0
1001
ACAD
1000
ASC_BOUNDS
1002
{
1070
    19
1005
1FF10
1002
}
  0
LINE
  5
1FEF2
  8
0
 10
40.02599999995994
 20
5.341799999994635
 30
0.0
 11
40.02599999995994
 21
0.0
 31
0.0
1001
ACAD
1000
ASC_BOUNDS
1002
{
1070
    19
1005
1FF10
1002
}
  0
LINE
  5
1FEF3
  8
0
 10
38.60499999996136
 20
8.999999999991019
 30
0.0
 11
38.60499999996136
 21
0.0
 31
0.0
1001
ACAD
1000
ASC_BOUNDS
1002
{
1070
    19
1005
1FF10
1002
}
  0
LINE
  5
1FEF4
  8
0
 10
44.99999999995498
 20
8.763099999991255
 30
0.0
 11
44.99999999995498
 21
-0.2368999999997641
 31
0.0
1001
ACAD
1000
ASC_BOUNDS
1002
{
1070
    19
1005
1FF10
1002
}
  0
LINE
  5
1FEF5
  8
0
 10
38.60499999996136
 20
0.0
 30
0.0
 11
40.02599999995994
 21
0.0
 31
0.0
1001
ACAD
1000
ASC_BOUNDS
1002
{
1070
    19
1005
1FF10
1002
}
  0
LINE
  5
1FEF6
  8
0
 10
43.57899999995641
 20
3.421199999996588
 30
0.0
 11
38.60499999996136
 21
8.999899999990987
 31
0.0
1001
ACAD
1000
ASC_BOUNDS
1002
{
1070
    19
1005
1FF10
1002
}
  0
LINE
  5
1FEF7
  8
0
 10
43.57899999995641
 20
8.763099999991255
 30
0.0
 11
43.57899999995641
 21
3.421199999996588
 31
0.0
1001
ACAD
1000
ASC_BOUNDS
1002
{
1070
    19
1005
1FF10
1002
}
  0
LINE
  5
1FEF8
  8
0
 10
43.57899999995641
 20
8.763099999991255
 30
0.0
 11
44.99999999995498
 21
8.763099999991255
 31
0.0
1001
ACAD
1000
ASC_BOUNDS
1002
{
1070
    19
1005
1FF10
1002
}
  0
LINE
  5
1FEF9
  8
0
 10
37.67199999996831
 20
8.763099999991255
 30
0.0
 11
36.23199999996837
 21
8.763099999991255
 31
0.0
  0
LINE
  5
1FEFA
  8
0
 10
31.64199999996833
 20
8.763099999991255
 30
0.0
 11
31.64199999996833
 21
2.481619422925121
 31
0.0
  0
LINE
  5
1FEFB
  8
0
 10
37.67199999996831
 20
8.763099999991255
 30
0.0
 11
37.67199999996831
 21
2.481619422925121
 31
0.0
  0
LINE
  5
1FEFC
  8
0
 10
36.23199999996837
 20
8.763099999991255
 30
0.0
 11
36.23199999996837
 21
2.481619422925064
 31
0.0
  0
LINE
  5
1FEFD
  8
0
 10
33.08199999996839
 20
8.763099999991255
 30
0.0
 11
33.08199999996839
 21
2.481619422925121
 31
0.0
  0
ARC
  5
1FEFE
  8
0
 10
34.65699999996832
 20
3.183099999991214
 30
0.0
 40
3.420000000000007
 50
240.0000000000255
 51
299.9999999999766
  0
ARC
  5
1FEFF
  8
0
 10
34.65699999996832
 20
3.183099999991214
 30
0.0
 40
1.97999999999999
 50
240.000000000026
 51
299.9999999999703
  0
LINE
  5
1FF00
  8
0
 10
33.08199999996828
 20
8.763099999991255
 30
0.0
 11
31.64199999996833
 21
8.763099999991255
 31
0.0
  0
ARC
  5
1FF01
  8
0
 10
35.06199999996829
 20
2.481619422925064
 30
0.0
 40
1.17
 50
299.9999999999699
 51
0.0
  0
ARC
  5
1FF02
  8
0
 10
34.25199999996835
 20
2.481619422925121
 30
0.0
 40
1.17
 50
180.0
 51
240.0000000000238
  0
ARC
  5
1FF03
  8
0
 10
35.06199999996841
 20
2.481619422925121
 30
0.0
 40
2.61
 50
299.9999999999756
 51
0.0
  0
ARC
  5
1FF04
  8
0
 10
34.25199999996835
 20
2.481619422925121
 30
0.0
 40
2.61
 50
180.0
 51
240.0000000000244
  0
LINE
  5
1FF05
  8
0
 10
29.30199999996933
 20
8.763099999991255
 30
0.0
 11
30.74199999996927
 21
8.763099999991255
 31
0.0
1001
ACAD
1000
ASC_BOUNDS
1002
{
1070
    19
1005
1FF0E
1002
}
  0
LINE
  5
1FF06
  8
0
 10
30.74199999996927
 20
8.763099999991255
 30
0.0
 11
30.74199999996927
 21
2.373099999991211
 31
0.0
1001
ACAD
1000
ASC_BOUNDS
1002
{
1070
    19
1005
1FF0E
1002
}
  0
LINE
  5
1FF07
  8
0
 10
26.02015566812236
 20
0.0330999999912365
 30
0.0
 11
28.40199999996923
 21
0.0330999999912365
 31
0.0
1001
ACAD
1000
ASC_BOUNDS
1002
{
1070
    19
1005
1FF0E
1002
}
  0
LINE
  5
1FF08
  8
0
 10
29.30199999996933
 20
8.763099999991255
 30
0.0
 11
29.30199999996933
 21
2.283099999991236
 31
0.0
1001
ACAD
1000
ASC_BOUNDS
1002
{
1070
    19
1005
1FF0E
1002
}
  0
LINE
  5
1FF09
  8
0
 10
26.97358892824991
 20
1.383099999991202
 30
0.0
 11
28.40199999996923
 21
1.383099999991202
 31
0.0
1001
ACAD
1000
ASC_BOUNDS
1002
{
1070
    19
1005
1FF0E
1002
}
  0
ARC
  5
1FF0A
  8
0
 10
28.40199999996923
 20
2.283099999991236
 30
0.0
 40
0.9
 50
270.0
 51
0.0
1001
ACAD
1000
ASC_BOUNDS
1002
{
1070
    19
1005
1FF0E
1002
}
  0
ARC
  5
1FF0B
  8
0
 10
28.40199999996923
 20
2.373099999991211
 30
0.0
 40
2.34
 50
270.0
 51
0.0
1001
ACAD
1000
ASC_BOUNDS
1002
{
1070
    19
1005
1FF0E
1002
}
  0
INSERT
  5
1FF0C
  8
0
  2
*X511
 10
0.0
 20
0.0
 30
0.0
1001
ACAD
1000
HATCH
1002
{
1070
    19
1000
ANSI37
1040
0.15
1040
0.0
1000
ASC_BOUNDS
1070
     2
1070
     2
1070
    12
1005
1FECB
1005
1FECC
1005
1FED3
1005
1FEE2
1005
1FEE5
1005
1FEE3
1005
1FED4
1005
1FED9
1005
1FED7
1005
1FEDB
1005
1FEDA
1005
1FEDC
1070
     2
1070
     3
1005
1FEE7
1005
1FEE9
1005
1FEE8
1000
ASC_SEEDPOINT
1011
3.614004224891801
1021
2.996669441146025
1031
0.0
1021
2.996669441146025
1031
0.0
1000
R14_HATCH_DATA
1000
1FF0C
1011
1.0
1021
0.0
1031
0.0
1021
0.0
1031
0.0
1011
0.0
1021
1.0
1031
0.0
1021
1.0
1031
0.0
1011
0.0
1021
0.0
1031
1.0
1021
0.0
1031
1.0
1040
0.0
1010
0.0
1020
0.0
1030
1.0
1000
ANSI37
1070
     0
1070
     1
1071
        2
1071
        7
1070
     0
1070
     1
1071
       17
1040
13.26299999998673
1040
-0.0001000000000317
1040
9.236999999990758
1040
8.999899999990987
1040
9.236999999990758
1040
8.999999999991019
1040
5.657999999994331
1040
0.9999999999989768
1040
3.181999999996833
1040
4.668599999995308
1040
6.432999999993513
1040
8.763099999991255
1040
4.617999999995391
1040
8.763099999991255
1040
1.420999999998571
1040
4.736799999995242
1040
4.617999999995391
1040
-0.0001000000000317
1040
4.617999999995391
1040
0.0
1040
6.766999999993232
1040
0.0
1040
6.766999999993232
1040
-0.0001000000000317
1040
7.826999999992154
1040
2.368399999997621
1040
10.64699999998936
1040
2.368399999997621
1040
11.70599999998831
1040
-0.0001000000000317
1040
11.70599999998831
1040
0.0
1040
13.26299999998673
1040
0.0
1071
       12
1005
1FECB
1005
1FECC
1005
1FED3
1005
1FEE2
1005
1FEE5
1005
1FEE3
1005
1FED4
1005
1FED9
1005
1FED7
1005
1FEDB
1005
1FEDA
1005
1FEDC
1071
       22
1070
     0
1070
     1
1071
        3
1040
9.236999999990758
1040
5.5200999999945
1040
10.06399999998996
1040
3.670999999996297
1040
8.409999999991555
1040
3.670999999996297
1071
        3
1005
1FEE7
1005
1FEE9
1005
1FEE8
1070
     0
1070
     1
1040
0.0
1040
0.15
1070
     0
1070
     2
1040
0.7853981633974483
1040
49.29960901727088
1040
-10.17736998311392
1040
-0.3367596045400932
1040
0.3367596045400932
1070
     0
1040
2.356194490192345
1040
49.29960901727088
1040
-10.17736998311392
1040
-0.3367596045400932
1040
-0.3367596045400932
1070
     0
1040
0.0110235143455945
1071
        2
1040
3.614004224891801
1040
2.996669441146025
1040
0.0
1040
3.614004224891801
1040
2.996669441146025
1040
0.0
1002
}
  0
INSERT
  5
1FF0D
  8
0
  2
*X512
 10
0.0
 20
0.0
 30
0.0
1001
ACAD
1000
HATCH
1002
{
1070
    19
1000
ANSI37
1040
0.15
1040
0.0
1000
ASC_BOUNDS
1070
     1
1070
     2
1070
    10
1005
1FECD
1005
1FECE
1005
1FEEF
1005
1FEED
1005
1FEEE
1005
1FEE1
1005
1FEE6
1005
1FEEA
1005
1FED0
1005
1FECF
1000
ASC_SEEDPOINT
1011
14.73245321214324
1021
2.798246178283421
1031
0.0
1021
2.798246178283421
1031
0.0
1000
R14_HATCH_DATA
1000
1FF0D
1011
1.0
1021
0.0
1031
0.0
1021
0.0
1031
0.0
1011
0.0
1021
1.0
1031
0.0
1021
1.0
1031
0.0
1011
0.0
1021
0.0
1031
1.0
1021
0.0
1031
1.0
1040
0.0
1010
0.0
1020
0.0
1030
1.0
1000
ANSI37
1070
     0
1070
     1
1071
        1
1071
        7
1070
     0
1070
     1
1071
       10
1040
16.46099999998353
1040
5.432899999994561
1040
18.59199999998134
1040
-0.2368999999997641
1040
22.38199999997767
1040
8.763099999991255
1040
20.89099999997916
1040
8.763099999991255
1040
18.59799999998143
1040
3.315799999996671
1040
16.46099999998353
1040
8.999899999990987
1040
14.32399999998563
1040
3.315799999996671
1040
12.02999999998792
1040
8.763099999991255
1040
10.53899999998941
1040
8.763099999991255
1040
14.32899999998563
1040
-0.2368999999997641
1071
       10
1005
1FECD
1005
1FECE
1005
1FEEF
1005
1FEED
1005
1FEEE
1005
1FEE1
1005
1FEE6
1005
1FEEA
1005
1FED0
1005
1FECF
1070
     0
1070
     1
1040
0.0
1040
0.15
1070
     0
1070
     2
1040
0.7853981633974483
1040
49.29960901727088
1040
-10.17736998311392
1040
-0.3367596045400932
1040
0.3367596045400932
1070
     0
1040
2.356194490192345
1040
49.29960901727088
1040
-10.17736998311392
1040
-0.3367596045400932
1040
-0.3367596045400932
1070
     0
1040
0.0110235143455945
1071
        1
1040
14.73245321214324
1040
2.798246178283421
1040
0.0
1002
}
  0
INSERT
  5
1FF0E
  8
0
  2
*X513
 10
0.0
 20
0.0
 30
0.0
1001
ACAD
1000
HATCH
1002
{
1070
    19
1000
ANSI37
1040
0.15
1040
0.0
1000
ASC_BOUNDS
1070
     2
1070
     2
1070
    13
1005
1FED1
1005
1FEDE
1005
1FEDF
1005
1FEDD
1005
1FEE0
1005
1FF07
1005
1FF0B
1005
1FF06
1005
1FF05
1005
1FF08
1005
1FF0A
1005
1FF09
1005
1FED2
1070
     2
1070
     3
1005
1FEEB
1005
1FEF0
1005
1FEEC
1000
ASC_SEEDPOINT
1011
21.97929957367762
1021
3.294304244259308
1031
0.0
1021
3.294304244259308
1031
0.0
1000
R14_HATCH_DATA
1000
1FF0E
1011
1.0
1021
0.0
1031
0.0
1021
0.0
1031
0.0
1011
0.0
1021
1.0
1031
0.0
1021
1.0
1031
0.0
1011
0.0
1021
0.0
1031
1.0
1021
0.0
1031
1.0
1040
0.0
1010
0.0
1020
0.0
1030
1.0
1000
ANSI37
1070
     0
1070
     1
1071
        2
1071
        7
1070
     1
1070
     1
1071
       15
1040
23.56599999997638
1040
8.999899999990987
1040
0.0
1040
19.53899999998043
1040
-0.0001000000000317
1040
0.0
1040
19.53899999998043
1040
0.0
1040
0.0
1040
21.09599999997886
1040
0.0
1040
0.0
1040
21.09599999997886
1040
-0.0001000000000317
1040
0.0
1040
22.15599999997789
1040
2.368399999997621
1040
0.0
1040
24.97599999997499
1040
2.368399999997621
1040
0.0
1040
26.02015566812236
1040
0.0330999999912365
1040
0.0
1040
28.40199999996923
1040
0.0330999999912365
1040
0.414213562373095
1040
30.74199999996923
1040
2.373099999991211
1040
0.0
1040
30.74199999996927
1040
8.763099999991255
1040
0.0
1040
29.30199999996933
1040
8.763099999991255
1040
0.0
1040
29.30199999996933
1040
2.283099999991236
1040
-0.414213562373095
1040
28.40199999996923
1040
1.383099999991237
1040
0.0
1040
26.97358892824991
1040
1.383099999991202
1040
0.0
1071
       13
1005
1FED1
1005
1FEDE
1005
1FEDF
1005
1FEDD
1005
1FEE0
1005
1FF07
1005
1FF0B
1005
1FF06
1005
1FF05
1005
1FF08
1005
1FF0A
1005
1FF09
1005
1FED2
1071
       22
1070
     0
1070
     1
1071
        3
1040
22.7389999999773
1040
3.670999999996297
1040
23.56599999997638
1040
5.5200999999945
1040
24.39299999997559
1040
3.670999999996297
1071
        3
1005
1FEEB
1005
1FEF0
1005
1FEEC
1070
     0
1070
     1
1040
0.0
1040
0.15
1070
     0
1070
     2
1040
0.7853981633974483
1040
49.29960901727088
1040
-10.17736998311392
1040
-0.3367596045400932
1040
0.3367596045400932
1070
     0
1040
2.356194490192345
1040
49.29960901727088
1040
-10.17736998311392
1040
-0.3367596045400932
1040
-0.3367596045400932
1070
     0
1040
0.0110235143455945
1071
        2
1040
21.97929957367762
1040
3.294304244259308
1040
0.0
1040
21.97929957367762
1040
3.294304244259308
1040
0.0
1002
}
  0
INSERT
  5
1FF0F
  8
0
  2
*X514
 10
0.0
 20
0.0
 30
0.0
1001
ACAD
1000
HATCH
1002
{
1070
    19
1000
ANSI37
1040
0.15
1040
0.0
1000
R14_HATCH_DATA
1000
1FF0F
1011
1.0
1021
0.0
1031
0.0
1021
0.0
1031
0.0
1011
0.0
1021
1.0
1031
0.0
1021
1.0
1031
0.0
1011
0.0
1021
0.0
1031
1.0
1021
0.0
1031
1.0
1040
0.0
1010
0.0
1020
0.0
1030
1.0
1000
ANSI37
1070
     0
1070
     1
1071
        1
1071
        7
1070
     1
1070
     1
1071
       12
1040
31.64199999996833
1040
2.481619422925121
1040
0.2679491924310942
1040
32.94699999997067
1040
0.2212931190493919
1040
0.2679491924301353
1040
36.36699999995983
1040
0.2212931190459813
1040
0.2679491924321411
1040
37.67199999996831
1040
2.481619422928361
1040
0.0
1040
37.67199999996831
1040
8.763099999991255
1040
0.0
1040
36.23199999996837
1040
8.763099999991255
1040
0.0
1040
36.23199999996837
1040
2.481619422925064
1040
-0.2679491924310291
1040
35.64699999996708
1040
1.468369700498386
1040
-0.267949192430519
1040
33.66699999997093
1040
1.468369700497703
1040
-0.267949192431809
1040
33.08199999996839
1040
2.481619422926997
1040
0.0
1040
33.08199999996839
1040
8.763099999991255
1040
0.0
1040
31.64199999996833
1040
8.763099999991255
1040
0.0
1071
        0
1070
     0
1070
     1
1040
0.0
1040
0.15
1070
     0
1070
     2
1040
0.7853981633974483
1040
49.29960901727088
1040
-10.17736998311392
1040
-0.3367596045400932
1040
0.3367596045400932
1070
     0
1040
2.356194490192345
1040
49.29960901727088
1040
-10.17736998311392
1040
-0.3367596045400932
1040
-0.3367596045400932
1070
     0
1040
0.0110235143455945
1071
        1
1040
32.30357378967278
1040
3.988785755459219
1040
0.0
1002
}
  0
INSERT
  5
1FF10
  8
0
  2
*X515
 10
0.0
 20
0.0
 30
0.0
1001
ACAD
1000
HATCH
1002
{
1070
    19
1000
ANSI37
1040
0.15
1040
0.0
1000
ASC_BOUNDS
1070
     1
1070
     2
1070
     8
1005
1FEF1
1005
1FEF4
1005
1FEF8
1005
1FEF7
1005
1FEF6
1005
1FEF3
1005
1FEF5
1005
1FEF2
1000
ASC_SEEDPOINT
1011
39.74896370716704
1021
4.484843821435049
1031
0.0
1021
4.484843821435049
1031
0.0
1000
R14_HATCH_DATA
1000
1FF10
1011
1.0
1021
0.0
1031
0.0
1021
0.0
1031
0.0
1011
0.0
1021
1.0
1031
0.0
1021
1.0
1031
0.0
1011
0.0
1021
0.0
1031
1.0
1021
0.0
1031
1.0
1040
0.0
1010
0.0
1020
0.0
1030
1.0
1000
ANSI37
1070
     0
1070
     1
1071
        1
1071
        7
1070
     0
1070
     1
1071
        9
1040
40.02599999995994
1040
5.341799999994635
1040
44.99999999995498
1040
-0.2368999999997641
1040
44.99999999995498
1040
8.763099999991255
1040
43.57899999995641
1040
8.763099999991255
1040
43.57899999995641
1040
3.421199999996588
1040
38.60499999996136
1040
8.999899999990987
1040
38.60499999996136
1040
8.999999999991019
1040
38.60499999996136
1040
0.0
1040
40.02599999995994
1040
0.0
1071
        8
1005
1FEF1
1005
1FEF4
1005
1FEF8
1005
1FEF7
1005
1FEF6
1005
1FEF3
1005
1FEF5
1005
1FEF2
1070
     0
1070
     1
1040
0.0
1040
0.15
1070
     0
1070
     2
1040
0.7853981633974483
1040
49.29960901727088
1040
-10.17736998311392
1040
-0.3367596045400932
1040
0.3367596045400932
1070
     0
1040
2.356194490192345
1040
49.29960901727088
1040
-10.17736998311392
1040
-0.3367596045400932
1040
-0.3367596045400932
1070
     0
1040
0.0110235143455945
1071
        1
1040
39.74896370716704
1040
4.484843821435049
1040
0.0
1002
}
  0
INSERT
  5
1FF11
  8
0
  2
*X516
 10
0.0
 20
0.0
 30
0.0
1001
ACAD
1000
HATCH
1002
{
1070
    19
1000
ANSI37
1040
0.15
1040
0.0
1000
ASC_BOUNDS
1070
     1
1070
     2
1070
     4
1005
1FED5
1005
1FEE4
1005
1FED6
1005
1FED8
1000
ASC_SEEDPOINT
1011
1.079051535452663
1021
4.148538732891836
1031
0.0
1021
4.148538732891836
1031
0.0
1000
R14_HATCH_DATA
1000
1FF11
1011
1.0
1021
0.0
1031
0.0
1021
0.0
1031
0.0
1011
0.0
1021
1.0
1031
0.0
1021
1.0
1031
0.0
1011
0.0
1021
0.0
1031
1.0
1021
0.0
1031
1.0
1040
0.0
1010
0.0
1020
0.0
1030
1.0
1000
ANSI37
1070
     0
1070
     1
1071
        1
1071
        7
1070
     0
1070
     1
1071
        4
1040
1.420999999998571
1040
0.0
1040
1.420999999998571
1040
8.763099999991255
1040
0.0
1040
8.763099999991255
1040
0.0
1040
0.0
1071
        4
1005
1FED5
1005
1FEE4
1005
1FED6
1005
1FED8
1070
     0
1070
     1
1040
0.0
1040
0.15
1070
     0
1070
     2
1040
0.7853981633974483
1040
49.29960901727088
1040
-10.17736998311392
1040
-0.3367596045400932
1040
0.3367596045400932
1070
     0
1040
2.356194490192345
1040
49.29960901727088
1040
-10.17736998311392
1040
-0.3367596045400932
1040
-0.3367596045400932
1070
     0
1040
0.0053004257112761
1071
        1
1040
1.079051535452663
1040
4.148538732891836
1040
0.0
1002
}
  0
ENDBLK
  5
205D6
  8
0
  0
BLOCK
  8
0
  2
*X511
 70
     1
 10
0.0
 20
0.0
 30
0.0
  3
*X511
  1

  0
LINE
  5
27566
  8
0
  6
CONTINUOUS
 10
3.418023043697893
 20
7.251849696850613
 30
0.0
 11
4.929273346838536
 21
8.763099999991255
 31
0.0
  0
LINE
  5
27567
  8
0
  6
CONTINUOUS
 10
1.483656411257782
 20
4.643963855330318
 30
0.0
 11
5.60279255591872
 21
8.763099999991255
 31
0.0
  0
LINE
  5
27568
  8
0
  6
CONTINUOUS
 10
1.755053947328235
 20
4.241842182320584
 30
0.0
 11
6.276311764998907
 21
8.763099999991255
 31
0.0
  0
LINE
  5
27569
  8
0
  6
CONTINUOUS
 10
2.026451483398688
 20
3.839720509310849
 30
0.0
 11
4.441040904851878
 21
6.254309930764039
 31
0.0
  0
LINE
  5
2756A
  8
0
  6
CONTINUOUS
 10
2.297849019469139
 20
3.437598836301114
 30
0.0
 11
3.321765168359338
 21
4.461514985191313
 31
0.0
  0
LINE
  5
2756B
  8
0
  6
CONTINUOUS
 10
2.569246555539591
 20
3.03547716329138
 30
0.0
 11
3.593163397972743
 21
4.059394005724531
 31
0.0
  0
LINE
  5
2756C
  8
0
  6
CONTINUOUS
 10
2.840644091610043
 20
2.633355490281646
 30
0.0
 11
3.864561627586149
 21
3.657273026257751
 31
0.0
  0
LINE
  5
2756D
  8
0
  6
CONTINUOUS
 10
3.112041627680496
 20
2.231233817271911
 30
0.0
 11
4.135959857199554
 21
3.25515204679097
 31
0.0
  0
LINE
  5
2756E
  8
0
  6
CONTINUOUS
 10
3.383439163750948
 20
1.829112144262177
 30
0.0
 11
4.40735808681296
 21
2.853031067324189
 31
0.0
  0
LINE
  5
2756F
  8
0
  6
CONTINUOUS
 10
3.654836699821399
 20
1.426990471252442
 30
0.0
 11
4.678756316426365
 21
2.450910087857407
 31
0.0
  0
LINE
  5
27570
  8
0
  6
CONTINUOUS
 10
3.926234235891853
 20
1.024868798242709
 30
0.0
 11
4.95015454603977
 21
2.048789108390626
 31
0.0
  0
LINE
  5
27571
  8
0
  6
CONTINUOUS
 10
4.197631771962304
 20
0.6227471252329737
 30
0.0
 11
5.221552775653176
 21
1.646668128923846
 31
0.0
  0
LINE
  5
27572
  8
0
  6
CONTINUOUS
 10
8.715877546767851
 20
7.835069736359266
 30
0.0
 11
9.435953450375058
 21
8.555145639966472
 31
0.0
  0
LINE
  5
27573
  8
0
  6
CONTINUOUS
 10
8.170620868422267
 20
6.616293848933497
 30
0.0
 11
9.644120833743461
 21
8.08979381425469
 31
0.0
  0
LINE
  5
27574
  8
0
  6
CONTINUOUS
 10
7.625364190076684
 20
5.397517961507727
 30
0.0
 11
9.852288217111864
 21
7.624441988542907
 31
0.0
  0
LINE
  5
27575
  8
0
  6
CONTINUOUS
 10
7.080107511731101
 20
4.178742074081957
 30
0.0
 11
10.06045560048027
 21
7.159090162831124
 31
0.0
  0
LINE
  5
27576
  8
0
  6
CONTINUOUS
 10
6.534850833385518
 20
2.959966186656187
 30
0.0
 11
10.26862298384867
 21
6.693738337119342
 31
0.0
  0
LINE
  5
27577
  8
0
  6
CONTINUOUS
 10
4.469029308032756
 20
0.2206254522232385
 30
0.0
 11
5.492951005266582
 21
1.244547149457064
 31
0.0
  0
LINE
  5
27578
  8
0
  6
CONTINUOUS
 10
5.989594155039935
 20
1.741190299230417
 30
0.0
 11
8.806950407233131
 21
4.558546551423613
 31
0.0
  0
LINE
  5
27579
  8
0
  6
CONTINUOUS
 10
9.401251593263643
 20
5.152847737454126
 30
0.0
 11
10.47679036721708
 21
6.228386511407559
 31
0.0
  0
LINE
  5
2757A
  8
0
  6
CONTINUOUS
 10
4.921837203428691
 20
-0.0000858614610131
 30
0.0
 11
8.592923064886001
 21
3.670999999996297
 31
0.0
  0
LINE
  5
2757B
  8
0
  6
CONTINUOUS
 10
9.609390446785305
 20
4.6874673818956
 30
0.0
 11
10.68495775058548
 21
5.763034685695775
 31
0.0
  0
LINE
  5
2757C
  8
0
  6
CONTINUOUS
 10
5.595387755019432
 20
-0.0000545189504582
 30
0.0
 11
7.716137258923768
 21
2.120694984953879
 31
0.0
  0
LINE
  5
2757D
  8
0
  6
CONTINUOUS
 10
6.268938306610172
 20
-0.000023176439905
 30
0.0
 11
7.170485805526503
 21
0.9015243224764267
 31
0.0
  0
LINE
  5
2757E
  8
0
  6
CONTINUOUS
 10
7.963842273967511
 20
2.368399999997621
 30
0.0
 11
9.266442273966188
 21
3.670999999996297
 31
0.0
  0
LINE
  5
2757F
  8
0
  6
CONTINUOUS
 10
8.637361483047696
 20
2.368399999997621
 30
0.0
 11
9.939961483046375
 21
3.670999999996297
 31
0.0
  0
LINE
  5
27580
  8
0
  6
CONTINUOUS
 10
9.817529300306965
 20
4.222087026337075
 30
0.0
 11
10.89312513395388
 21
5.297682859983993
 31
0.0
  0
LINE
  5
27581
  8
0
  6
CONTINUOUS
 10
10.02566815382863
 20
3.756706670778549
 30
0.0
 11
11.10129251732229
 21
4.832331034272211
 31
0.0
  0
LINE
  5
27582
  8
0
  6
CONTINUOUS
 10
9.310880692127883
 20
2.368399999997621
 30
0.0
 11
11.30945990069069
 21
4.366979208560428
 31
0.0
  0
LINE
  5
27583
  8
0
  6
CONTINUOUS
 10
9.98439990120807
 20
2.36839999999762
 30
0.0
 11
11.5176272840591
 21
3.901627382848645
 31
0.0
  0
LINE
  5
27584
  8
0
  6
CONTINUOUS
 10
10.65037369446246
 20
2.36085458417182
 30
0.0
 11
11.7257946674275
 21
3.436275557136862
 31
0.0
  0
LINE
  5
27585
  8
0
  6
CONTINUOUS
 10
10.85847197087848
 20
1.895433651507656
 30
0.0
 11
11.9339620507959
 21
2.97092373142508
 31
0.0
  0
LINE
  5
27586
  8
0
  6
CONTINUOUS
 10
11.0665702472945
 20
1.430012718843491
 30
0.0
 11
12.14212943416431
 21
2.505571905713296
 31
0.0
  0
LINE
  5
27587
  8
0
  6
CONTINUOUS
 10
11.27466852371052
 20
0.9645917861793256
 30
0.0
 11
12.35029681753271
 21
2.040220080001513
 31
0.0
  0
LINE
  5
27588
  8
0
  6
CONTINUOUS
 10
11.48276680012654
 20
0.4991708535151611
 30
0.0
 11
12.55846420090111
 21
1.57486825428973
 31
0.0
  0
LINE
  5
27589
  8
0
  6
CONTINUOUS
 10
11.69086507654257
 20
0.0337499208509957
 30
0.0
 11
12.76663158426952
 21
1.109516428577947
 31
0.0
  0
LINE
  5
2758A
  8
0
  6
CONTINUOUS
 10
12.33057447873954
 20
-0.0000598860322123
 30
0.0
 11
12.97479896763792
 21
0.6441646028661663
 31
0.0
  0
LINE
  5
2758B
  8
0
  6
CONTINUOUS
 10
13.00413694809395
 20
-0.0000166257579952
 30
0.0
 11
13.18296635100632
 21
0.1788127771543824
 31
0.0
  0
LINE
  5
2758C
  8
0
  6
CONTINUOUS
 10
4.772852165289667
 20
-0.000092794222212
 30
0.0
 11
4.296495091028902
 21
0.4762642800385528
 31
0.0
  0
LINE
  5
2758D
  8
0
  6
CONTINUOUS
 10
5.446340034776103
 20
-0.0000614546284616
 30
0.0
 11
2.898195908335625
 21
2.548082671812017
 31
0.0
  0
LINE
  5
2758E
  8
0
  6
CONTINUOUS
 10
6.119827904262539
 20
-0.0000301150347113
 30
0.0
 11
1.499896725642348
 21
4.61990106358548
 31
0.0
  0
LINE
  5
2758F
  8
0
  6
CONTINUOUS
 10
6.775136745476159
 20
0.0181802528318542
 30
0.0
 11
5.699826040202669
 21
1.093490958105344
 31
0.0
  0
LINE
  5
27590
  8
0
  6
CONTINUOUS
 10
6.983376846288489
 20
0.4834593610997118
 30
0.0
 11
5.908008617934405
 21
1.558827589453796
 31
0.0
  0
LINE
  5
27591
  8
0
  6
CONTINUOUS
 10
5.377063484962296
 20
1.416253513345719
 30
0.0
 11
1.702276957014131
 21
5.091040041293883
 31
0.0
  0
LINE
  5
27592
  8
0
  6
CONTINUOUS
 10
3.978745891735324
 20
3.488090315652877
 30
0.0
 11
2.000373521109399
 21
5.466462686278803
 31
0.0
  0
LINE
  5
27593
  8
0
  6
CONTINUOUS
 10
7.191616947100819
 20
0.948738469367568
 30
0.0
 11
6.11619119566614
 21
2.024164220802247
 31
0.0
  0
LINE
  5
27594
  8
0
  6
CONTINUOUS
 10
7.399857047913149
 20
1.414017577635424
 30
0.0
 11
6.324373773397875
 21
2.489500852150698
 31
0.0
  0
LINE
  5
27595
  8
0
  6
CONTINUOUS
 10
7.608097148725479
 20
1.879296685903281
 30
0.0
 11
6.53255635112961
 21
2.95483748349915
 31
0.0
  0
LINE
  5
27596
  8
0
  6
CONTINUOUS
 10
7.816337249537808
 20
2.344575794171138
 30
0.0
 11
6.740738928861345
 21
3.420174114847601
 31
0.0
  0
LINE
  5
27597
  8
0
  6
CONTINUOUS
 10
3.310241080789734
 20
4.830114335678653
 30
0.0
 11
2.298470085204666
 21
5.84188533126372
 31
0.0
  0
LINE
  5
27598
  8
0
  6
CONTINUOUS
 10
3.60832983563551
 20
5.205544789913063
 30
0.0
 11
2.596566649299935
 21
6.217307976248638
 31
0.0
  0
LINE
  5
27599
  8
0
  6
CONTINUOUS
 10
3.906418590481286
 20
5.580975244147473
 30
0.0
 11
2.894663213395203
 21
6.592730621233557
 31
0.0
  0
LINE
  5
2759A
  8
0
  6
CONTINUOUS
 10
4.204507345327062
 20
5.956405698381884
 30
0.0
 11
3.192759777490472
 21
6.968153266218474
 31
0.0
  0
LINE
  5
2759B
  8
0
  6
CONTINUOUS
 10
8.466032252791512
 20
2.368399999997621
 30
0.0
 11
6.948921506593081
 21
3.885510746196053
 31
0.0
  0
LINE
  5
2759C
  8
0
  6
CONTINUOUS
 10
9.139551461871699
 20
2.36839999999762
 30
0.0
 11
7.157104084324816
 21
4.350847377544504
 31
0.0
  0
LINE
  5
2759D
  8
0
  6
CONTINUOUS
 10
4.502596100172839
 20
6.331836152616295
 30
0.0
 11
3.49085634158574
 21
7.343575911203393
 31
0.0
  0
LINE
  5
2759E
  8
0
  6
CONTINUOUS
 10
4.800684855018615
 20
6.707266606850705
 30
0.0
 11
3.788952905681008
 21
7.718998556188312
 31
0.0
  0
LINE
  5
2759F
  8
0
  6
CONTINUOUS
 10
12.18154012887317
 20
-0.0000694579236642
 30
0.0
 11
11.32140332908496
 21
0.8600673418645499
 31
0.0
  0
LINE
  5
275A0
  8
0
  6
CONTINUOUS
 10
12.85501608323566
 20
-0.0000262032059659
 30
0.0
 11
10.77672456435345
 21
2.078265315676246
 31
0.0
  0
LINE
  5
275A1
  8
0
  6
CONTINUOUS
 10
9.813070670951886
 20
2.36839999999762
 30
0.0
 11
8.51047067095321
 21
3.670999999996297
 31
0.0
  0
LINE
  5
275A2
  8
0
  6
CONTINUOUS
 10
10.48658988003207
 20
2.36839999999762
 30
0.0
 11
9.183989880033396
 21
3.670999999996297
 31
0.0
  0
LINE
  5
275A3
  8
0
  6
CONTINUOUS
 10
8.441048632286794
 20
3.740422038662712
 30
0.0
 11
7.365286662056551
 21
4.816184008892956
 31
0.0
  0
LINE
  5
275A4
  8
0
  6
CONTINUOUS
 10
8.649187485808454
 20
4.205802394221237
 30
0.0
 11
7.573469239788285
 21
5.281520640241407
 31
0.0
  0
LINE
  5
275A5
  8
0
  6
CONTINUOUS
 10
5.098773609864391
 20
7.082697061085115
 30
0.0
 11
4.087049469776277
 21
8.09442120117323
 31
0.0
  0
LINE
  5
275A6
  8
0
  6
CONTINUOUS
 10
5.396862364710167
 20
7.458127515319526
 30
0.0
 11
4.385146033871544
 21
8.469843846158149
 31
0.0
  0
LINE
  5
275A7
  8
0
  6
CONTINUOUS
 10
13.04801363231285
 20
0.4804954567970334
 30
0.0
 11
9.85750908911358
 21
3.670999999996297
 31
0.0
  0
LINE
  5
275A8
  8
0
  6
CONTINUOUS
 10
8.857326339330116
 20
4.671182749779763
 30
0.0
 11
7.781651817520021
 21
5.746857271589858
 31
0.0
  0
LINE
  5
275A9
  8
0
  6
CONTINUOUS
 10
5.694951119555943
 20
7.833557969553937
 30
0.0
 11
4.765409089118624
 21
8.763099999991255
 31
0.0
  0
LINE
  5
275AA
  8
0
  6
CONTINUOUS
 10
12.50286117236978
 20
1.699167125820288
 30
0.0
 11
9.68611877250287
 21
4.515909525687196
 31
0.0
  0
LINE
  5
275AB
  8
0
  6
CONTINUOUS
 10
9.065465192851777
 20
5.136563105338288
 30
0.0
 11
7.989834395251757
 21
6.21219390293831
 31
0.0
  0
LINE
  5
275AC
  8
0
  6
CONTINUOUS
 10
5.993039874401719
 20
8.208988423788346
 30
0.0
 11
5.43892829819881
 21
8.763099999991255
 31
0.0
  0
LINE
  5
275AD
  8
0
  6
CONTINUOUS
 10
11.95770871242671
 20
2.917838794843543
 30
0.0
 11
8.19801697298349
 21
6.677530534286761
 31
0.0
  0
LINE
  5
275AE
  8
0
  6
CONTINUOUS
 10
6.291128629247495
 20
8.584418878022756
 30
0.0
 11
6.112447507278997
 21
8.763099999991255
 31
0.0
  0
LINE
  5
275AF
  8
0
  6
CONTINUOUS
 10
11.41255625248364
 20
4.136510463866797
 30
0.0
 11
8.406199550715227
 21
7.142867165635211
 31
0.0
  0
LINE
  5
275B0
  8
0
  6
CONTINUOUS
 10
10.86740379254057
 20
5.355182132890051
 30
0.0
 11
8.614382128446962
 21
7.608203796983664
 31
0.0
  0
LINE
  5
275B1
  8
0
  6
CONTINUOUS
 10
10.3222513325975
 20
6.573853801913305
 30
0.0
 11
8.822564706178696
 21
8.073540428332114
 31
0.0
  0
LINE
  5
275B2
  8
0
  6
CONTINUOUS
 10
9.777098872654436
 20
7.792525470936562
 30
0.0
 11
9.030747283910433
 21
8.538877059680566
 31
0.0
  0
ENDBLK
  5
276F4
  8
0
  0
BLOCK
  8
0
  2
*X512
 70
     1
 10
0.0
 20
0.0
 30
0.0
  3
*X512
  1

  0
LINE
  5
275B4
  8
0
  6
CONTINUOUS
 10
10.67292308101235
 20
8.445076852443387
 30
0.0
 11
10.99094622856022
 21
8.763099999991255
 31
0.0
  0
LINE
  5
275B5
  8
0
  6
CONTINUOUS
 10
10.87250383178748
 20
7.971138394138331
 30
0.0
 11
11.6644654376404
 21
8.763099999991255
 31
0.0
  0
LINE
  5
275B6
  8
0
  6
CONTINUOUS
 10
11.07208458256261
 20
7.497199935833273
 30
0.0
 11
12.12126590876355
 21
8.546381262034211
 31
0.0
  0
LINE
  5
275B7
  8
0
  6
CONTINUOUS
 10
11.27166533333774
 20
7.023261477528216
 30
0.0
 11
12.32085164573666
 21
8.072447789927136
 31
0.0
  0
LINE
  5
275B8
  8
0
  6
CONTINUOUS
 10
11.47124608411287
 20
6.549323019223158
 30
0.0
 11
12.52043738270977
 21
7.59851431782006
 31
0.0
  0
LINE
  5
275B9
  8
0
  6
CONTINUOUS
 10
11.670826834888
 20
6.075384560918101
 30
0.0
 11
12.72002311968288
 21
7.124580845712984
 31
0.0
  0
LINE
  5
275BA
  8
0
  6
CONTINUOUS
 10
11.87040758566313
 20
5.601446102613043
 30
0.0
 11
12.91960885665599
 21
6.650647373605907
 31
0.0
  0
LINE
  5
275BB
  8
0
  6
CONTINUOUS
 10
12.06998833643825
 20
5.127507644307986
 30
0.0
 11
13.1191945936291
 21
6.176713901498832
 31
0.0
  0
LINE
  5
275BC
  8
0
  6
CONTINUOUS
 10
12.26956908721338
 20
4.65356918600293
 30
0.0
 11
13.31878033060221
 21
5.702780429391757
 31
0.0
  0
LINE
  5
275BD
  8
0
  6
CONTINUOUS
 10
12.46914983798851
 20
4.179630727697873
 30
0.0
 11
13.51836606757532
 21
5.228846957284683
 31
0.0
  0
LINE
  5
275BE
  8
0
  6
CONTINUOUS
 10
12.66873058876364
 20
3.705692269392816
 30
0.0
 11
13.71795180454843
 21
4.754913485177607
 31
0.0
  0
LINE
  5
275BF
  8
0
  6
CONTINUOUS
 10
12.86831133953877
 20
3.231753811087759
 30
0.0
 11
13.91753754152154
 21
4.280980013070531
 31
0.0
  0
LINE
  5
275C0
  8
0
  6
CONTINUOUS
 10
13.0678920903139
 20
2.757815352782702
 30
0.0
 11
14.11712327849465
 21
3.807046540963456
 31
0.0
  0
LINE
  5
275C1
  8
0
  6
CONTINUOUS
 10
13.26747284108903
 20
2.283876894477644
 30
0.0
 11
14.31670901546777
 21
3.333113068856379
 31
0.0
  0
LINE
  5
275C2
  8
0
  6
CONTINUOUS
 10
16.36767838827179
 20
8.751678487061342
 30
0.0
 11
16.50332410898388
 21
8.887324207773432
 31
0.0
  0
LINE
  5
275C3
  8
0
  6
CONTINUOUS
 10
15.96190732182191
 20
7.67238821153127
 30
0.0
 11
16.68735328004734
 21
8.397834169756699
 31
0.0
  0
LINE
  5
275C4
  8
0
  6
CONTINUOUS
 10
15.55613625537202
 20
6.593097936001196
 30
0.0
 11
16.87138245111079
 21
7.908344131739965
 31
0.0
  0
LINE
  5
275C5
  8
0
  6
CONTINUOUS
 10
15.15036518892213
 20
5.513807660471122
 30
0.0
 11
17.05541162217424
 21
7.418854093723231
 31
0.0
  0
LINE
  5
275C6
  8
0
  6
CONTINUOUS
 10
14.74459412247225
 20
4.434517384941048
 30
0.0
 11
17.2394407932377
 21
6.929364055706499
 31
0.0
  0
LINE
  5
275C7
  8
0
  6
CONTINUOUS
 10
14.33882305602236
 20
3.355227109410975
 30
0.0
 11
17.42346996430115
 21
6.439874017689766
 31
0.0
  0
LINE
  5
275C8
  8
0
  6
CONTINUOUS
 10
13.46705359186416
 20
1.809938436172586
 30
0.0
 11
16.0819338255367
 21
4.424818669845129
 31
0.0
  0
LINE
  5
275C9
  8
0
  6
CONTINUOUS
 10
16.63283254238972
 20
4.975717386698149
 30
0.0
 11
17.60749913536461
 21
5.950383979673033
 31
0.0
  0
LINE
  5
275CA
  8
0
  6
CONTINUOUS
 10
13.66663434263929
 20
1.335999977867529
 30
0.0
 11
15.67604797733754
 21
3.345413612565779
 31
0.0
  0
LINE
  5
275CB
  8
0
  6
CONTINUOUS
 10
13.86621509341442
 20
0.8620615195624723
 30
0.0
 11
15.27016212913838
 21
2.26600855528643
 31
0.0
  0
LINE
  5
275CC
  8
0
  6
CONTINUOUS
 10
16.81682257348267
 20
4.486188208710908
 30
0.0
 11
17.79152830642806
 21
5.460893941656299
 31
0.0
  0
LINE
  5
275CD
  8
0
  6
CONTINUOUS
 10
17.00081260457561
 20
3.996659030723667
 30
0.0
 11
17.97555747749151
 21
4.971403903639565
 31
0.0
  0
LINE
  5
275CE
  8
0
  6
CONTINUOUS
 10
20.74362343514722
 20
8.412989070375462
 30
0.0
 11
21.09373436476302
 21
8.763099999991256
 31
0.0
  0
LINE
  5
275CF
  8
0
  6
CONTINUOUS
 10
20.25401257174777
 20
7.249858997895826
 30
0.0
 11
21.7672535738432
 21
8.763099999991255
 31
0.0
  0
LINE
  5
275D0
  8
0
  6
CONTINUOUS
 10
14.06579584418955
 20
0.3881230612574149
 30
0.0
 11
14.86427628093921
 21
1.186603498007082
 31
0.0
  0
LINE
  5
275D1
  8
0
  6
CONTINUOUS
 10
14.26537659496467
 20
-0.0858153970476412
 30
0.0
 11
14.45839043274005
 21
0.1071984407277329
 31
0.0
  0
LINE
  5
275D2
  8
0
  6
CONTINUOUS
 10
17.18480263566856
 20
3.507129852736426
 30
0.0
 11
18.15958664855496
 21
4.481913865622833
 31
0.0
  0
LINE
  5
275D3
  8
0
  6
CONTINUOUS
 10
17.3687926667615
 20
3.017600674749186
 30
0.0
 11
18.34361581961842
 21
3.9924238276061
 31
0.0
  0
LINE
  5
275D4
  8
0
  6
CONTINUOUS
 10
19.76440170834832
 20
6.086728925416191
 30
0.0
 11
22.33924590259489
 21
8.661573119662755
 31
0.0
  0
LINE
  5
275D5
  8
0
  6
CONTINUOUS
 10
19.27479084494887
 20
4.923598852936555
 30
0.0
 11
21.84929622842713
 21
7.498104236414807
 31
0.0
  0
LINE
  5
275D6
  8
0
  6
CONTINUOUS
 10
17.55278269785445
 20
2.528071496761945
 30
0.0
 11
18.52764499068187
 21
3.502933789589366
 31
0.0
  0
LINE
  5
275D7
  8
0
  6
CONTINUOUS
 10
18.78517998154942
 20
3.760468780456919
 30
0.0
 11
21.35934655425936
 21
6.33463535316686
 31
0.0
  0
LINE
  5
275D8
  8
0
  6
CONTINUOUS
 10
17.73677272894739
 20
2.038542318774704
 30
0.0
 11
20.8693968800916
 21
5.171166469918914
 31
0.0
  0
LINE
  5
275D9
  8
0
  6
CONTINUOUS
 10
17.92076276004034
 20
1.549013140787464
 30
0.0
 11
20.37944720592384
 21
4.007697586670968
 31
0.0
  0
LINE
  5
275DA
  8
0
  6
CONTINUOUS
 10
18.10475279113329
 20
1.059483962800223
 30
0.0
 11
19.88949753175608
 21
2.84422870342302
 31
0.0
  0
LINE
  5
275DB
  8
0
  6
CONTINUOUS
 10
18.28874282222623
 20
0.5699547848129822
 30
0.0
 11
19.39954785758832
 21
1.680759820175074
 31
0.0
  0
LINE
  5
275DC
  8
0
  6
CONTINUOUS
 10
18.47273285331918
 20
0.0804256068257416
 30
0.0
 11
18.90959818342056
 21
0.517290936927127
 31
0.0
  0
LINE
  5
275DD
  8
0
  6
CONTINUOUS
 10
14.3590401358224
 20
-0.1570118376323384
 30
0.0
 11
14.24903296539946
 21
-0.0470046672093929
 31
0.0
  0
LINE
  5
275DE
  8
0
  6
CONTINUOUS
 10
14.54309291258661
 20
0.332454594683643
 30
0.0
 11
13.75908329123172
 21
1.116464216038529
 31
0.0
  0
LINE
  5
275DF
  8
0
  6
CONTINUOUS
 10
14.72714568935081
 20
0.8219210269996244
 30
0.0
 11
13.26913361706399
 21
2.27993309928645
 31
0.0
  0
LINE
  5
275E0
  8
0
  6
CONTINUOUS
 10
14.91119846611502
 20
1.311387459315606
 30
0.0
 11
12.77918394289625
 21
3.443401982534371
 31
0.0
  0
LINE
  5
275E1
  8
0
  6
CONTINUOUS
 10
15.09525124287922
 20
1.800853891631587
 30
0.0
 11
12.28923426872852
 21
4.606870865782293
 31
0.0
  0
LINE
  5
275E2
  8
0
  6
CONTINUOUS
 10
15.27930401964343
 20
2.290320323947569
 30
0.0
 11
11.79928459456078
 21
5.770339749030213
 31
0.0
  0
LINE
  5
275E3
  8
0
  6
CONTINUOUS
 10
15.46335679640763
 20
2.77978675626355
 30
0.0
 11
14.48885470994921
 21
3.754288842721972
 31
0.0
  0
LINE
  5
275E4
  8
0
  6
CONTINUOUS
 10
13.88507249233704
 20
4.358071060334137
 30
0.0
 11
11.30933492039305
 21
6.933808632278135
 31
0.0
  0
LINE
  5
275E5
  8
0
  6
CONTINUOUS
 10
18.75840522805855
 20
0.1582575336928151
 30
0.0
 11
18.25383727664818
 21
0.6628254851031863
 31
0.0
  0
LINE
  5
275E6
  8
0
  6
CONTINUOUS
 10
15.64740957317184
 20
3.269253188579531
 30
0.0
 11
14.67288388101266
 21
4.243778880738705
 31
0.0
  0
LINE
  5
275E7
  8
0
  6
CONTINUOUS
 10
13.39509276772158
 20
5.521569994029786
 30
0.0
 11
10.81938524622531
 21
8.097277515526056
 31
0.0
  0
LINE
  5
275E8
  8
0
  6
CONTINUOUS
 10
18.95798597883369
 20
0.6321959919978686
 30
0.0
 11
17.84825644852853
 21
1.741925522303024
 31
0.0
  0
LINE
  5
275E9
  8
0
  6
CONTINUOUS
 10
19.15756672960882
 20
1.106134450302922
 30
0.0
 11
17.44267562040888
 21
2.821025559502861
 31
0.0
  0
LINE
  5
275EA
  8
0
  6
CONTINUOUS
 10
15.83146234993604
 20
3.758719620895513
 30
0.0
 11
14.85691305207612
 21
4.733268918755439
 31
0.0
  0
LINE
  5
275EB
  8
0
  6
CONTINUOUS
 10
16.01551512670025
 20
4.248186053211494
 30
0.0
 11
15.04094222313957
 21
5.222758956772172
 31
0.0
  0
LINE
  5
275EC
  8
0
  6
CONTINUOUS
 10
12.90511304310612
 20
6.685068927725435
 30
0.0
 11
10.8270819708403
 21
8.763099999991255
 31
0.0
  0
LINE
  5
275ED
  8
0
  6
CONTINUOUS
 10
12.41513331849066
 20
7.848567861421083
 30
0.0
 11
11.50060117992049
 21
8.763099999991255
 31
0.0
  0
LINE
  5
275EE
  8
0
  6
CONTINUOUS
 10
19.35714748038395
 20
1.580072908607975
 30
0.0
 11
17.03709479228923
 21
3.900125596702697
 31
0.0
  0
LINE
  5
275EF
  8
0
  6
CONTINUOUS
 10
19.55672823115909
 20
2.054011366913028
 30
0.0
 11
16.63151396416958
 21
4.979225633902534
 31
0.0
  0
LINE
  5
275F0
  8
0
  6
CONTINUOUS
 10
16.19956790346445
 20
4.737652485527476
 30
0.0
 11
15.22497139420302
 21
5.712248994788904
 31
0.0
  0
LINE
  5
275F1
  8
0
  6
CONTINUOUS
 10
16.38362068022866
 20
5.227118917843457
 30
0.0
 11
15.40900056526648
 21
6.201739032805637
 31
0.0
  0
LINE
  5
275F2
  8
0
  6
CONTINUOUS
 10
19.75630898193422
 20
2.527949825218081
 30
0.0
 11
18.70774536448286
 21
3.576513442669441
 31
0.0
  0
LINE
  5
275F3
  8
0
  6
CONTINUOUS
 10
19.95588973270936
 20
3.001888283523134
 30
0.0
 11
18.90726987211446
 21
4.050508144118028
 31
0.0
  0
LINE
  5
275F4
  8
0
  6
CONTINUOUS
 10
20.15547048348449
 20
3.475826741828186
 30
0.0
 11
19.10679437974606
 21
4.524502845566614
 31
0.0
  0
LINE
  5
275F5
  8
0
  6
CONTINUOUS
 10
20.35505123425962
 20
3.94976520013324
 30
0.0
 11
19.30631888737766
 21
4.998497547015201
 31
0.0
  0
LINE
  5
275F6
  8
0
  6
CONTINUOUS
 10
20.55463198503475
 20
4.423703658438292
 30
0.0
 11
19.50584339500926
 21
5.472492248463787
 31
0.0
  0
LINE
  5
275F7
  8
0
  6
CONTINUOUS
 10
18.37481191085755
 20
3.909446896294752
 30
0.0
 11
15.59302973632993
 21
6.691229070822371
 31
0.0
  0
LINE
  5
275F8
  8
0
  6
CONTINUOUS
 10
17.96904084440766
 20
4.988737171824825
 30
0.0
 11
15.77705890739338
 21
7.180719108839104
 31
0.0
  0
LINE
  5
275F9
  8
0
  6
CONTINUOUS
 10
17.56326977795777
 20
6.068027447354899
 30
0.0
 11
15.96108807845684
 21
7.670209146855838
 31
0.0
  0
LINE
  5
275FA
  8
0
  6
CONTINUOUS
 10
17.15749871150789
 20
7.147317722884972
 30
0.0
 11
16.14511724952029
 21
8.15969918487257
 31
0.0
  0
LINE
  5
275FB
  8
0
  6
CONTINUOUS
 10
16.751727645058
 20
8.226607998415046
 30
0.0
 11
16.32914642058374
 21
8.649189222889303
 31
0.0
  0
LINE
  5
275FC
  8
0
  6
CONTINUOUS
 10
20.75421273580989
 20
4.897642116743345
 30
0.0
 11
19.70536790264086
 21
5.946486949912374
 31
0.0
  0
LINE
  5
275FD
  8
0
  6
CONTINUOUS
 10
20.95379348658502
 20
5.371580575048398
 30
0.0
 11
19.90489241027246
 21
6.42048165136096
 31
0.0
  0
LINE
  5
275FE
  8
0
  6
CONTINUOUS
 10
21.15337423736015
 20
5.845519033353452
 30
0.0
 11
20.10441691790406
 21
6.894476352809547
 31
0.0
  0
LINE
  5
275FF
  8
0
  6
CONTINUOUS
 10
21.35295498813529
 20
6.319457491658505
 30
0.0
 11
20.30394142553566
 21
7.368471054258134
 31
0.0
  0
LINE
  5
27600
  8
0
  6
CONTINUOUS
 10
21.55253573891042
 20
6.793395949963558
 30
0.0
 11
20.50346593316726
 21
7.842465755706721
 31
0.0
  0
LINE
  5
27601
  8
0
  6
CONTINUOUS
 10
21.75211648968556
 20
7.267334408268612
 30
0.0
 11
20.70299044079886
 21
8.316460457155308
 31
0.0
  0
LINE
  5
27602
  8
0
  6
CONTINUOUS
 10
21.95169724046069
 20
7.741272866573663
 30
0.0
 11
20.9298701070431
 21
8.763099999991256
 31
0.0
  0
LINE
  5
27603
  8
0
  6
CONTINUOUS
 10
22.15127799123582
 20
8.215211324878716
 30
0.0
 11
21.60338931612328
 21
8.763099999991256
 31
0.0
  0
LINE
  5
27604
  8
0
  6
CONTINUOUS
 10
22.35085874201096
 20
8.689149783183769
 30
0.0
 11
22.27690852520347
 21
8.763099999991255
 31
0.0
  0
ENDBLK
  5
276F6
  8
0
  0
BLOCK
  8
0
  2
*X513
 70
     1
 10
0.0
 20
0.0
 30
0.0
  3
*X513
  1

  0
LINE
  5
27606
  8
0
  6
CONTINUOUS
 10
23.19462913593892
 20
8.169917934846424
 30
0.0
 11
23.70775465517246
 21
8.683043454079957
 31
0.0
  0
LINE
  5
27607
  8
0
  6
CONTINUOUS
 10
22.64923161835078
 20
6.951001208178088
 30
0.0
 11
23.9159364069932
 21
8.217705996820516
 31
0.0
  0
LINE
  5
27608
  8
0
  6
CONTINUOUS
 10
22.10383410076263
 20
5.732084481509751
 30
0.0
 11
24.12411815881395
 21
7.752368539561078
 31
0.0
  0
LINE
  5
27609
  8
0
  6
CONTINUOUS
 10
21.55843658317447
 20
4.513167754841414
 30
0.0
 11
24.3322999106347
 21
7.287031082301639
 31
0.0
  0
LINE
  5
2760A
  8
0
  6
CONTINUOUS
 10
21.01303906558632
 20
3.294251028173077
 30
0.0
 11
24.54048166245544
 21
6.821693625042199
 31
0.0
  0
LINE
  5
2760B
  8
0
  6
CONTINUOUS
 10
20.46764154799817
 20
2.075334301504738
 30
0.0
 11
23.28571549467848
 21
4.89340824818505
 31
0.0
  0
LINE
  5
2760C
  8
0
  6
CONTINUOUS
 10
19.92224403041002
 20
0.8564175748364002
 30
0.0
 11
22.74075865492779
 21
3.674932199354171
 31
0.0
  0
LINE
  5
2760D
  8
0
  6
CONTINUOUS
 10
23.67305085490148
 20
5.280743608408048
 30
0.0
 11
24.74866341427619
 21
6.356356167782759
 31
0.0
  0
LINE
  5
2760E
  8
0
  6
CONTINUOUS
 10
23.88118970842314
 20
4.815363252849522
 30
0.0
 11
24.95684516609694
 21
5.89101871052332
 31
0.0
  0
LINE
  5
2760F
  8
0
  6
CONTINUOUS
 10
19.73925852647308
 20
-0.0000871381807288
 30
0.0
 11
23.4103456646501
 21
3.670999999996297
 31
0.0
  0
LINE
  5
27610
  8
0
  6
CONTINUOUS
 10
24.0893285619448
 20
4.349982897290997
 30
0.0
 11
25.16502691791769
 21
5.42568125326388
 31
0.0
  0
LINE
  5
27611
  8
0
  6
CONTINUOUS
 10
20.41282099582748
 20
-0.0000438779065108
 30
0.0
 11
21.64944178675636
 21
1.236576913022366
 31
0.0
  0
LINE
  5
27612
  8
0
  6
CONTINUOUS
 10
22.78126487373161
 20
2.36839999999762
 30
0.0
 11
24.08386487373029
 21
3.670999999996297
 31
0.0
  0
LINE
  5
27613
  8
0
  6
CONTINUOUS
 10
24.29746741546646
 20
3.884602541732471
 30
0.0
 11
25.37320866973843
 21
4.960343796004441
 31
0.0
  0
LINE
  5
27614
  8
0
  6
CONTINUOUS
 10
21.08638346518189
 20
-0.0000006176322938
 30
0.0
 11
21.10379033335899
 21
0.0174062505448083
 31
0.0
  0
LINE
  5
27615
  8
0
  6
CONTINUOUS
 10
23.4547840828118
 20
2.36839999999762
 30
0.0
 11
25.58139042155918
 21
4.495006338745002
 31
0.0
  0
LINE
  5
27616
  8
0
  6
CONTINUOUS
 10
29.30199999996933
 20
8.215615917155148
 30
0.0
 11
29.84948408280543
 21
8.763099999991255
 31
0.0
  0
LINE
  5
27617
  8
0
  6
CONTINUOUS
 10
24.12830329189199
 20
2.36839999999762
 30
0.0
 11
25.78957217337993
 21
4.029668881485562
 31
0.0
  0
LINE
  5
27618
  8
0
  6
CONTINUOUS
 10
29.30199999996933
 20
7.54209670807496
 30
0.0
 11
30.52300329188562
 21
8.763099999991255
 31
0.0
  0
LINE
  5
27619
  8
0
  6
CONTINUOUS
 10
24.80182250097217
 20
2.36839999999762
 30
0.0
 11
25.99775392520067
 21
3.564331424226122
 31
0.0
  0
LINE
  5
2761A
  8
0
  6
CONTINUOUS
 10
29.30199999996933
 20
6.868577498994774
 30
0.0
 11
30.74199999996926
 21
8.308577498994712
 31
0.0
  0
LINE
  5
2761B
  8
0
  6
CONTINUOUS
 10
25.13028238392013
 20
2.023340673865392
 30
0.0
 11
26.20593567702142
 21
3.098993966966683
 31
0.0
  0
LINE
  5
2761C
  8
0
  6
CONTINUOUS
 10
25.33838066033617
 20
1.557919741201244
 30
0.0
 11
26.41411742884217
 21
2.633656509707244
 31
0.0
  0
LINE
  5
2761D
  8
0
  6
CONTINUOUS
 10
25.54647893675221
 20
1.092498808537098
 30
0.0
 11
26.62229918066291
 21
2.168319052447804
 31
0.0
  0
LINE
  5
2761E
  8
0
  6
CONTINUOUS
 10
25.75457721316825
 20
0.62707787587295
 30
0.0
 11
26.83048093248366
 21
1.702981595188365
 31
0.0
  0
LINE
  5
2761F
  8
0
  6
CONTINUOUS
 10
29.30199999996933
 20
6.195058289914587
 30
0.0
 11
30.74199999996926
 21
7.635058289914522
 31
0.0
  0
LINE
  5
27620
  8
0
  6
CONTINUOUS
 10
29.30199999996933
 20
5.521539080834401
 30
0.0
 11
30.74199999996926
 21
6.961539080834331
 31
0.0
  0
LINE
  5
27621
  8
0
  6
CONTINUOUS
 10
29.30199999996933
 20
4.848019871754214
 30
0.0
 11
30.74199999996925
 21
6.288019871754143
 31
0.0
  0
LINE
  5
27622
  8
0
  6
CONTINUOUS
 10
29.30199999996933
 20
4.174500662674028
 30
0.0
 11
30.74199999996925
 21
5.614500662673953
 31
0.0
  0
LINE
  5
27623
  8
0
  6
CONTINUOUS
 10
25.96267548958429
 20
0.1616569432088024
 30
0.0
 11
27.18411854636669
 21
1.383099999991207
 31
0.0
  0
LINE
  5
27624
  8
0
  6
CONTINUOUS
 10
29.30199999996933
 20
3.500981453593841
 30
0.0
 11
30.74199999996925
 21
4.940981453593762
 31
0.0
  0
LINE
  5
27625
  8
0
  6
CONTINUOUS
 10
26.50763775544691
 20
0.0330999999912356
 30
0.0
 11
27.85763775544689
 21
1.383099999991223
 31
0.0
  0
LINE
  5
27626
  8
0
  6
CONTINUOUS
 10
29.30199999996933
 20
2.827462244513656
 30
0.0
 11
30.74199999996925
 21
4.267462244513574
 31
0.0
  0
LINE
  5
27627
  8
0
  6
CONTINUOUS
 10
27.18115696452709
 20
0.0330999999912356
 30
0.0
 11
28.55073879889363
 21
1.402681834357775
 31
0.0
  0
LINE
  5
27628
  8
0
  6
CONTINUOUS
 10
29.28241816560272
 20
2.134361201066866
 30
0.0
 11
30.74199999996924
 21
3.593943035433383
 31
0.0
  0
LINE
  5
27629
  8
0
  6
CONTINUOUS
 10
27.85467617360728
 20
0.0330999999912356
 30
0.0
 11
30.74199999996924
 21
2.920423826353195
 31
0.0
  0
LINE
  5
2762A
  8
0
  6
CONTINUOUS
 10
28.53897559587887
 20
0.0438802131826428
 30
0.0
 11
30.73121978677781
 21
2.236124404081585
 31
0.0
  0
LINE
  5
2762B
  8
0
  6
CONTINUOUS
 10
29.45140055588722
 20
0.2827859641107988
 30
0.0
 11
30.49231403584965
 21
1.323699444073236
 31
0.0
  0
LINE
  5
2762C
  8
0
  6
CONTINUOUS
 10
19.59027867740337
 20
-0.0000967065718083
 30
0.0
 11
19.55485265190471
 21
0.035329318926844
 31
0.0
  0
LINE
  5
2762D
  8
0
  6
CONTINUOUS
 10
20.26375463176586
 20
-0.0000534518541091
 30
0.0
 11
19.76305575737534
 21
0.5006454225364014
 31
0.0
  0
LINE
  5
2762E
  8
0
  6
CONTINUOUS
 10
20.93723058612834
 20
-0.0000101971364099
 30
0.0
 11
19.97125886284597
 21
0.965961526145958
 31
0.0
  0
LINE
  5
2762F
  8
0
  6
CONTINUOUS
 10
21.25514828313686
 20
0.355591314935257
 30
0.0
 11
20.1794619683166
 21
1.431277629755512
 31
0.0
  0
LINE
  5
27630
  8
0
  6
CONTINUOUS
 10
21.46338838394921
 20
0.8208704232030986
 30
0.0
 11
20.38766507378723
 21
1.896593733365069
 31
0.0
  0
LINE
  5
27631
  8
0
  6
CONTINUOUS
 10
21.67162848476155
 20
1.28614953147094
 30
0.0
 11
20.59586817925786
 21
2.361909836974626
 31
0.0
  0
LINE
  5
27632
  8
0
  6
CONTINUOUS
 10
21.8798685855739
 20
1.751428639738782
 30
0.0
 11
20.80407128472849
 21
2.827225940584183
 31
0.0
  0
LINE
  5
27633
  8
0
  6
CONTINUOUS
 10
22.08810868638624
 20
2.216707748006623
 30
0.0
 11
21.01227439019912
 21
3.292542044193739
 31
0.0
  0
LINE
  5
27634
  8
0
  6
CONTINUOUS
 10
22.60993564347543
 20
2.36839999999762
 30
0.0
 11
21.22047749566975
 21
3.757858147803296
 31
0.0
  0
LINE
  5
27635
  8
0
  6
CONTINUOUS
 10
23.28345485255561
 20
2.36839999999762
 30
0.0
 11
21.42868060114038
 21
4.223174251412853
 31
0.0
  0
LINE
  5
27636
  8
0
  6
CONTINUOUS
 10
26.29227406164219
 20
0.0330999999912356
 30
0.0
 11
25.80009199592872
 21
0.5252820657046957
 31
0.0
  0
LINE
  5
27637
  8
0
  6
CONTINUOUS
 10
23.9569740616358
 20
2.36839999999762
 30
0.0
 11
21.63688370661101
 21
4.688490355022409
 31
0.0
  0
LINE
  5
27638
  8
0
  6
CONTINUOUS
 10
26.96579327072237
 20
0.0330999999912356
 30
0.0
 11
25.2554132311971
 21
1.743480039516508
 31
0.0
  0
LINE
  5
27639
  8
0
  6
CONTINUOUS
 10
24.63049327071599
 20
2.36839999999762
 30
0.0
 11
23.32789327071731
 21
3.670999999996297
 31
0.0
  0
LINE
  5
2763A
  8
0
  6
CONTINUOUS
 10
22.92098674744635
 20
4.077906523267254
 30
0.0
 11
21.84508681208164
 21
5.153806458631966
 31
0.0
  0
LINE
  5
2763B
  8
0
  6
CONTINUOUS
 10
27.63931247980256
 20
0.0330999999912356
 30
0.0
 11
24.0014124797975
 21
3.670999999996297
 31
0.0
  0
LINE
  5
2763C
  8
0
  6
CONTINUOUS
 10
23.129125600968
 20
4.5432868788258
 30
0.0
 11
22.05328991755227
 21
5.619122562241522
 31
0.0
  0
LINE
  5
2763D
  8
0
  6
CONTINUOUS
 10
28.31283168888275
 20
0.0330999999912356
 30
0.0
 11
24.16488385994816
 21
4.181047828925828
 31
0.0
  0
LINE
  5
2763E
  8
0
  6
CONTINUOUS
 10
23.33726445448964
 20
5.008667234384345
 30
0.0
 11
22.2614930230229
 21
6.084438665851079
 31
0.0
  0
LINE
  5
2763F
  8
0
  6
CONTINUOUS
 10
28.92085740005492
 20
0.0985934978992438
 30
0.0
 11
27.63635089796295
 21
1.383099999991217
 31
0.0
  0
LINE
  5
27640
  8
0
  6
CONTINUOUS
 10
26.43704649509776
 20
2.582404402856405
 30
0.0
 11
23.61992702019732
 21
5.399523877756844
 31
0.0
  0
LINE
  5
27641
  8
0
  6
CONTINUOUS
 10
23.54540330801128
 20
5.47404758994289
 30
0.0
 11
22.46969612849353
 21
6.549754769460635
 31
0.0
  0
LINE
  5
27642
  8
0
  6
CONTINUOUS
 10
29.42225615078443
 20
0.2707139562499279
 30
0.0
 11
28.30987010704312
 21
1.383099999991234
 31
0.0
  0
LINE
  5
27643
  8
0
  6
CONTINUOUS
 10
25.89179548232307
 20
3.801174624711282
 30
0.0
 11
22.67789923396416
 21
7.015070873070191
 31
0.0
  0
LINE
  5
27644
  8
0
  6
CONTINUOUS
 10
29.83624534690007
 20
0.5302439692144705
 30
0.0
 11
28.85811781497101
 21
1.508371501143527
 31
0.0
  0
LINE
  5
27645
  8
0
  6
CONTINUOUS
 10
25.34654446954838
 20
5.01994484656616
 30
0.0
 11
22.88610233943479
 21
7.480386976679748
 31
0.0
  0
LINE
  5
27646
  8
0
  6
CONTINUOUS
 10
30.17865975401872
 20
0.8613487711760022
 30
0.0
 11
29.18888744090175
 21
1.851121084292977
 31
0.0
  0
LINE
  5
27647
  8
0
  6
CONTINUOUS
 10
24.80129345677369
 20
6.238715068421037
 30
0.0
 11
23.09430544490542
 21
7.945703080289305
 31
0.0
  0
LINE
  5
27648
  8
0
  6
CONTINUOUS
 10
30.45496647202376
 20
1.258561262251155
 30
0.0
 11
29.30199999996933
 21
2.411527734305588
 31
0.0
  0
LINE
  5
27649
  8
0
  6
CONTINUOUS
 10
24.256042443999
 20
7.457485290275915
 30
0.0
 11
23.30250855037605
 21
8.411019183898862
 31
0.0
  0
LINE
  5
2764A
  8
0
  6
CONTINUOUS
 10
30.64868582078271
 20
1.738361122572387
 30
0.0
 11
29.30199999996933
 21
3.085046943385775
 31
0.0
  0
LINE
  5
2764B
  8
0
  6
CONTINUOUS
 10
23.71079143122431
 20
8.676255512130794
 30
0.0
 11
23.51071165584668
 21
8.876335287508416
 31
0.0
  0
LINE
  5
2764C
  8
0
  6
CONTINUOUS
 10
30.73802122914428
 20
2.322544923291007
 30
0.0
 11
29.30199999996933
 21
3.758566152465961
 31
0.0
  0
LINE
  5
2764D
  8
0
  6
CONTINUOUS
 10
30.74199999996924
 20
2.992085361546236
 30
0.0
 11
29.30199999996933
 21
4.432085361546148
 31
0.0
  0
LINE
  5
2764E
  8
0
  6
CONTINUOUS
 10
30.74199999996924
 20
3.665604570626419
 30
0.0
 11
29.30199999996933
 21
5.105604570626333
 31
0.0
  0
LINE
  5
2764F
  8
0
  6
CONTINUOUS
 10
30.74199999996925
 20
4.339123779706602
 30
0.0
 11
29.30199999996933
 21
5.77912377970652
 31
0.0
  0
LINE
  5
27650
  8
0
  6
CONTINUOUS
 10
30.74199999996925
 20
5.012642988786785
 30
0.0
 11
29.30199999996933
 21
6.452642988786707
 31
0.0
  0
LINE
  5
27651
  8
0
  6
CONTINUOUS
 10
30.74199999996925
 20
5.68616219786697
 30
0.0
 11
29.30199999996933
 21
7.126162197866894
 31
0.0
  0
LINE
  5
27652
  8
0
  6
CONTINUOUS
 10
30.74199999996925
 20
6.359681406947153
 30
0.0
 11
29.30199999996933
 21
7.799681406947081
 31
0.0
  0
LINE
  5
27653
  8
0
  6
CONTINUOUS
 10
30.74199999996926
 20
7.033200616027337
 30
0.0
 11
29.30199999996933
 21
8.473200616027269
 31
0.0
  0
LINE
  5
27654
  8
0
  6
CONTINUOUS
 10
30.74199999996926
 20
7.706719825107518
 30
0.0
 11
29.68561982508552
 21
8.763099999991255
 31
0.0
  0
LINE
  5
27655
  8
0
  6
CONTINUOUS
 10
30.74199999996926
 20
8.380239034187703
 30
0.0
 11
30.35913903416571
 21
8.763099999991255
 31
0.0
  0
ENDBLK
  5
276F8
  8
0
  0
BLOCK
  8
0
  2
*X514
 70
     1
 10
0.0
 20
0.0
 30
0.0
  3
*X514
  1

  0
LINE
  5
27657
  8
0
  6
CONTINUOUS
 10
31.64199999996833
 20
8.535058289913598
 30
0.0
 11
31.87004171004599
 21
8.763099999991255
 31
0.0
  0
LINE
  5
27658
  8
0
  6
CONTINUOUS
 10
31.64199999996833
 20
7.861539080833412
 30
0.0
 11
32.54356091912618
 21
8.763099999991255
 31
0.0
  0
LINE
  5
27659
  8
0
  6
CONTINUOUS
 10
31.64199999996833
 20
7.188019871753226
 30
0.0
 11
33.08199999996839
 21
8.628019871753281
 31
0.0
  0
LINE
  5
2765A
  8
0
  6
CONTINUOUS
 10
31.64199999996833
 20
6.51450066267304
 30
0.0
 11
33.08199999996839
 21
7.954500662673095
 31
0.0
  0
LINE
  5
2765B
  8
0
  6
CONTINUOUS
 10
31.64199999996833
 20
5.840981453592853
 30
0.0
 11
33.08199999996839
 21
7.280981453592908
 31
0.0
  0
LINE
  5
2765C
  8
0
  6
CONTINUOUS
 10
31.64199999996833
 20
5.167462244512667
 30
0.0
 11
33.08199999996839
 21
6.607462244512721
 31
0.0
  0
LINE
  5
2765D
  8
0
  6
CONTINUOUS
 10
31.64199999996833
 20
4.493943035432481
 30
0.0
 11
33.08199999996839
 21
5.933943035432535
 31
0.0
  0
LINE
  5
2765E
  8
0
  6
CONTINUOUS
 10
31.64199999996833
 20
3.820423826352293
 30
0.0
 11
33.08199999996839
 21
5.260423826352348
 31
0.0
  0
LINE
  5
2765F
  8
0
  6
CONTINUOUS
 10
31.64199999996833
 20
3.146904617272106
 30
0.0
 11
33.08199999996839
 21
4.586904617272161
 31
0.0
  0
LINE
  5
27660
  8
0
  6
CONTINUOUS
 10
36.23199999996837
 20
8.410423826352325
 30
0.0
 11
36.5846761736073
 21
8.763099999991255
 31
0.0
  0
LINE
  5
27661
  8
0
  6
CONTINUOUS
 10
36.23199999996837
 20
7.73690461727214
 30
0.0
 11
37.25819538268748
 21
8.763099999991255
 31
0.0
  0
LINE
  5
27662
  8
0
  6
CONTINUOUS
 10
31.64257403601376
 20
2.473959444237348
 30
0.0
 11
33.08199999996839
 21
3.913385408191974
 31
0.0
  0
LINE
  5
27663
  8
0
  6
CONTINUOUS
 10
36.23199999996837
 20
7.063385408191953
 30
0.0
 11
37.67199999996831
 21
8.503385408191894
 31
0.0
  0
LINE
  5
27664
  8
0
  6
CONTINUOUS
 10
31.72013636841932
 20
1.87800256756272
 30
0.0
 11
33.08199999996839
 21
3.239866199111788
 31
0.0
  0
LINE
  5
27665
  8
0
  6
CONTINUOUS
 10
36.23199999996837
 20
6.389866199111767
 30
0.0
 11
37.67199999996831
 21
7.829866199111708
 31
0.0
  0
LINE
  5
27666
  8
0
  6
CONTINUOUS
 10
31.89042734314753
 20
1.374774333210744
 30
0.0
 11
33.08199999996839
 21
2.566346990031601
 31
0.0
  0
LINE
  5
27667
  8
0
  6
CONTINUOUS
 10
36.23199999996837
 20
5.71634699003158
 30
0.0
 11
37.67199999996831
 21
7.156346990031521
 31
0.0
  0
LINE
  5
27668
  8
0
  6
CONTINUOUS
 10
32.14210568064475
 20
0.952933461627778
 30
0.0
 11
33.18745552475986
 21
1.998283305742888
 31
0.0
  0
LINE
  5
27669
  8
0
  6
CONTINUOUS
 10
36.23199999996837
 20
5.042827780951393
 30
0.0
 11
37.67199999996831
 21
6.482827780951334
 31
0.0
  0
LINE
  5
2766A
  8
0
  6
CONTINUOUS
 10
32.45820639400955
 20
0.5955149659123915
 30
0.0
 11
33.47242681921943
 21
1.60973539112227
 31
0.0
  0
LINE
  5
2766B
  8
0
  6
CONTINUOUS
 10
36.23199999996837
 20
4.369308571871207
 30
0.0
 11
37.67199999996831
 21
5.809308571871147
 31
0.0
  0
LINE
  5
2766C
  8
0
  6
CONTINUOUS
 10
32.83432456621412
 20
0.2981139290367771
 30
0.0
 11
33.89722476612215
 21
1.361014128944803
 31
0.0
  0
LINE
  5
2766D
  8
0
  6
CONTINUOUS
 10
36.23199999996837
 20
3.69578936279102
 30
0.0
 11
37.67199999996831
 21
5.135789362790962
 31
0.0
  0
LINE
  5
2766E
  8
0
  6
CONTINUOUS
 10
33.2711633111245
 20
0.0614334648669672
 30
0.0
 11
34.43247338014423
 21
1.222743533886696
 31
0.0
  0
LINE
  5
2766F
  8
0
  6
CONTINUOUS
 10
36.23199999996837
 20
3.022270153710834
 30
0.0
 11
37.67199999996831
 21
4.462270153710775
 31
0.0
  0
LINE
  5
27670
  8
0
  6
CONTINUOUS
 10
33.76515245874577
 20
-0.1180965965919523
 30
0.0
 11
35.1587445516215
 21
1.27549549628378
 31
0.0
  0
LINE
  5
27671
  8
0
  6
CONTINUOUS
 10
36.21639478609585
 20
2.333145730758136
 30
0.0
 11
37.67199999996831
 21
3.788750944630588
 31
0.0
  0
LINE
  5
27672
  8
0
  6
CONTINUOUS
 10
34.34060583368432
 20
-0.2161624307335863
 30
0.0
 11
37.67199999996831
 21
3.115231735550401
 31
0.0
  0
LINE
  5
27673
  8
0
  6
CONTINUOUS
 10
35.01698193613905
 20
-0.2133055373590427
 30
0.0
 11
37.66876712070525
 21
2.438479647207154
 31
0.0
  0
LINE
  5
27674
  8
0
  6
CONTINUOUS
 10
35.90743367693304
 20
0.0036269943547609
 30
0.0
 11
37.51723902192366
 21
1.613432339345381
 31
0.0
  0
LINE
  5
27675
  8
0
  6
CONTINUOUS
 10
32.55309425579761
 20
0.5074718966376706
 30
0.0
 11
32.27784730925847
 21
0.7827188431768102
 31
0.0
  0
LINE
  5
27676
  8
0
  6
CONTINUOUS
 10
33.87496468909684
 20
-0.1408793275813673
 30
0.0
 11
31.67993083278052
 21
2.054154528734943
 31
0.0
  0
LINE
  5
27677
  8
0
  6
CONTINUOUS
 10
34.64362813207632
 20
-0.2360235614806649
 30
0.0
 11
31.64199999996833
 21
2.765604570627322
 31
0.0
  0
LINE
  5
27678
  8
0
  6
CONTINUOUS
 10
35.25801106796118
 20
-0.1768872882853429
 30
0.0
 11
31.64199999996833
 21
3.439123779707508
 31
0.0
  0
LINE
  5
27679
  8
0
  6
CONTINUOUS
 10
35.79065650332146
 20
-0.0360135145654361
 30
0.0
 11
34.54143210838231
 21
1.213210880373721
 31
0.0
  0
LINE
  5
2767A
  8
0
  6
CONTINUOUS
 10
33.08199999996839
 20
2.67264298878764
 30
0.0
 11
31.64199999996833
 21
4.112642988787695
 31
0.0
  0
LINE
  5
2767B
  8
0
  6
CONTINUOUS
 10
36.25975597779143
 20
0.1684062200447833
 30
0.0
 11
35.15395110240023
 21
1.274211095435983
 31
0.0
  0
LINE
  5
2767C
  8
0
  6
CONTINUOUS
 10
33.08199999996839
 20
3.346162197867826
 30
0.0
 11
31.64199999996833
 21
4.786162197867881
 31
0.0
  0
LINE
  5
2767D
  8
0
  6
CONTINUOUS
 10
36.67226329638774
 20
0.4294181105286579
 30
0.0
 11
35.63766478748767
 21
1.464016619428737
 31
0.0
  0
LINE
  5
2767E
  8
0
  6
CONTINUOUS
 10
33.08199999996839
 20
4.019681406948012
 30
0.0
 11
31.64199999996833
 21
5.459681406948068
 31
0.0
  0
LINE
  5
2767F
  8
0
  6
CONTINUOUS
 10
37.01677749710036
 20
0.7584231188962329
 30
0.0
 11
35.99563422741351
 21
1.779566388583076
 31
0.0
  0
LINE
  5
27680
  8
0
  6
CONTINUOUS
 10
33.08199999996839
 20
4.693200616028199
 30
0.0
 11
31.64199999996833
 21
6.133200616028255
 31
0.0
  0
LINE
  5
27681
  8
0
  6
CONTINUOUS
 10
37.29859977568887
 20
1.1501200493879
 30
0.0
 11
36.20680593341555
 21
2.241913891661226
 31
0.0
  0
LINE
  5
27682
  8
0
  6
CONTINUOUS
 10
33.08199999996839
 20
5.366719825108386
 30
0.0
 11
31.64199999996833
 21
6.80671982510844
 31
0.0
  0
LINE
  5
27683
  8
0
  6
CONTINUOUS
 10
37.5148623517228
 20
1.607376682434161
 30
0.0
 11
36.23199999996837
 21
2.890239034188594
 31
0.0
  0
LINE
  5
27684
  8
0
  6
CONTINUOUS
 10
33.08199999996839
 20
6.040239034188573
 30
0.0
 11
31.64199999996833
 21
7.480239034188627
 31
0.0
  0
LINE
  5
27685
  8
0
  6
CONTINUOUS
 10
37.64705163358367
 20
2.148706609653477
 30
0.0
 11
36.23199999996837
 21
3.56375824326878
 31
0.0
  0
LINE
  5
27686
  8
0
  6
CONTINUOUS
 10
33.08199999996839
 20
6.713758243268758
 30
0.0
 11
31.64199999996833
 21
8.153758243268815
 31
0.0
  0
LINE
  5
27687
  8
0
  6
CONTINUOUS
 10
37.67199999996831
 20
2.797277452349026
 30
0.0
 11
36.23199999996837
 21
4.237277452348967
 31
0.0
  0
LINE
  5
27688
  8
0
  6
CONTINUOUS
 10
37.67199999996831
 20
3.470796661429213
 30
0.0
 11
36.23199999996837
 21
4.910796661429154
 31
0.0
  0
LINE
  5
27689
  8
0
  6
CONTINUOUS
 10
37.67199999996831
 20
4.144315870509399
 30
0.0
 11
36.23199999996837
 21
5.58431587050934
 31
0.0
  0
LINE
  5
2768A
  8
0
  6
CONTINUOUS
 10
33.08199999996839
 20
7.387277452348945
 30
0.0
 11
31.70617745232608
 21
8.763099999991255
 31
0.0
  0
LINE
  5
2768B
  8
0
  6
CONTINUOUS
 10
33.08199999996839
 20
8.060796661429132
 30
0.0
 11
32.37969666140626
 21
8.763099999991255
 31
0.0
  0
LINE
  5
2768C
  8
0
  6
CONTINUOUS
 10
33.08199999996839
 20
8.734315870509318
 30
0.0
 11
33.05321587048645
 21
8.763099999991255
 31
0.0
  0
LINE
  5
2768D
  8
0
  6
CONTINUOUS
 10
37.67199999996831
 20
4.817835079589585
 30
0.0
 11
36.23199999996837
 21
6.257835079589526
 31
0.0
  0
LINE
  5
2768E
  8
0
  6
CONTINUOUS
 10
37.67199999996831
 20
5.491354288669771
 30
0.0
 11
36.23199999996837
 21
6.931354288669713
 31
0.0
  0
LINE
  5
2768F
  8
0
  6
CONTINUOUS
 10
37.67199999996831
 20
6.164873497749958
 30
0.0
 11
36.23199999996837
 21
7.6048734977499
 31
0.0
  0
LINE
  5
27690
  8
0
  6
CONTINUOUS
 10
37.67199999996831
 20
6.838392706830144
 30
0.0
 11
36.23199999996837
 21
8.278392706830086
 31
0.0
  0
LINE
  5
27691
  8
0
  6
CONTINUOUS
 10
37.67199999996831
 20
7.511911915910332
 30
0.0
 11
36.42081191588738
 21
8.763099999991255
 31
0.0
  0
LINE
  5
27692
  8
0
  6
CONTINUOUS
 10
37.67199999996831
 20
8.185431124990519
 30
0.0
 11
37.09433112496757
 21
8.763099999991255
 31
0.0
  0
ENDBLK
  5
276FA
  8
0
  0
BLOCK
  8
0
  2
*X515
 70
     1
 10
0.0
 20
0.0
 30
0.0
  3
*X515
  1

  0
LINE
  5
27694
  8
0
  6
CONTINUOUS
 10
38.60499999996136
 20
8.762866199104765
 30
0.0
 11
38.71672554182345
 21
8.874591740966855
 31
0.0
  0
LINE
  5
27695
  8
0
  6
CONTINUOUS
 10
38.60499999996136
 20
8.089346990024577
 30
0.0
 11
39.03418785440363
 21
8.518534844466847
 31
0.0
  0
LINE
  5
27696
  8
0
  6
CONTINUOUS
 10
38.60499999996136
 20
7.41582778094439
 30
0.0
 11
39.35165016698382
 21
8.16247794796684
 31
0.0
  0
LINE
  5
27697
  8
0
  6
CONTINUOUS
 10
38.60499999996136
 20
6.742308571864204
 30
0.0
 11
39.66911247956399
 21
7.806421051466834
 31
0.0
  0
LINE
  5
27698
  8
0
  6
CONTINUOUS
 10
38.60499999996136
 20
6.068789362784018
 30
0.0
 11
39.98657479214418
 21
7.450364154966827
 31
0.0
  0
LINE
  5
27699
  8
0
  6
CONTINUOUS
 10
38.60499999996136
 20
5.395270153703832
 30
0.0
 11
40.30403710472435
 21
7.09430725846682
 31
0.0
  0
LINE
  5
2769A
  8
0
  6
CONTINUOUS
 10
38.60499999996136
 20
4.721750944623645
 30
0.0
 11
40.62149941730453
 21
6.738250361966813
 31
0.0
  0
LINE
  5
2769B
  8
0
  6
CONTINUOUS
 10
38.60499999996136
 20
4.048231735543458
 30
0.0
 11
40.93896172988471
 21
6.382193465466806
 31
0.0
  0
LINE
  5
2769C
  8
0
  6
CONTINUOUS
 10
38.60499999996136
 20
3.374712526463272
 30
0.0
 11
40.02599999995994
 21
4.795712526461843
 31
0.0
  0
LINE
  5
2769D
  8
0
  6
CONTINUOUS
 10
38.60499999996136
 20
2.701193317383085
 30
0.0
 11
40.02599999995994
 21
4.122193317381657
 31
0.0
  0
LINE
  5
2769E
  8
0
  6
CONTINUOUS
 10
40.28339754687704
 20
5.053110073378947
 30
0.0
 11
41.25642404246489
 21
6.026136568966799
 31
0.0
  0
LINE
  5
2769F
  8
0
  6
CONTINUOUS
 10
40.60085985945722
 20
4.697053176878939
 30
0.0
 11
41.57388635504507
 21
5.670079672466793
 31
0.0
  0
LINE
  5
276A0
  8
0
  6
CONTINUOUS
 10
43.57899999995641
 20
8.348712526458318
 30
0.0
 11
43.99338747348935
 21
8.763099999991255
 31
0.0
  0
LINE
  5
276A1
  8
0
  6
CONTINUOUS
 10
43.57899999995641
 20
7.675193317378131
 30
0.0
 11
44.66690668256953
 21
8.763099999991255
 31
0.0
  0
LINE
  5
276A2
  8
0
  6
CONTINUOUS
 10
38.60499999996136
 20
2.027674108302898
 30
0.0
 11
40.02599999995994
 21
3.44867410830147
 31
0.0
  0
LINE
  5
276A3
  8
0
  6
CONTINUOUS
 10
38.60499999996136
 20
1.354154899222712
 30
0.0
 11
40.02599999995994
 21
2.775154899221284
 31
0.0
  0
LINE
  5
276A4
  8
0
  6
CONTINUOUS
 10
38.60499999996136
 20
0.6806356901425255
 30
0.0
 11
40.02599999995994
 21
2.101635690141098
 31
0.0
  0
LINE
  5
276A5
  8
0
  6
CONTINUOUS
 10
38.60499999996136
 20
0.0071164810623383
 30
0.0
 11
40.02599999995994
 21
1.428116481060911
 31
0.0
  0
LINE
  5
276A6
  8
0
  6
CONTINUOUS
 10
40.9183221720374
 20
4.340996280378933
 30
0.0
 11
41.89134866762525
 21
5.314022775966786
 31
0.0
  0
LINE
  5
276A7
  8
0
  6
CONTINUOUS
 10
41.23578448461758
 20
3.984939383878926
 30
0.0
 11
42.20881098020543
 21
4.957965879466778
 31
0.0
  0
LINE
  5
276A8
  8
0
  6
CONTINUOUS
 10
41.55324679719776
 20
3.628882487378919
 30
0.0
 11
42.52627329278561
 21
4.601908982966772
 31
0.0
  0
LINE
  5
276A9
  8
0
  6
CONTINUOUS
 10
41.87070910977793
 20
3.272825590878912
 30
0.0
 11
42.84373560536579
 21
4.245852086466765
 31
0.0
  0
LINE
  5
276AA
  8
0
  6
CONTINUOUS
 10
43.57899999995641
 20
7.001674108297943
 30
0.0
 11
44.99999999995498
 21
8.422674108296516
 31
0.0
  0
LINE
  5
276AB
  8
0
  6
CONTINUOUS
 10
43.57899999995641
 20
6.328154899217758
 30
0.0
 11
44.99999999995498
 21
7.749154899216329
 31
0.0
  0
LINE
  5
276AC
  8
0
  6
CONTINUOUS
 10
43.57899999995641
 20
5.654635690137571
 30
0.0
 11
44.99999999995498
 21
7.075635690136142
 31
0.0
  0
LINE
  5
276AD
  8
0
  6
CONTINUOUS
 10
43.57899999995641
 20
4.981116481057384
 30
0.0
 11
44.99999999995498
 21
6.402116481055955
 31
0.0
  0
LINE
  5
276AE
  8
0
  6
CONTINUOUS
 10
39.27140272797921
 20
-0.0000000000000009
 30
0.0
 11
40.02599999995994
 21
0.7545972719807246
 31
0.0
  0
LINE
  5
276AF
  8
0
  6
CONTINUOUS
 10
39.9449219370594
 20
-0.0000000000000009
 30
0.0
 11
40.02599999995994
 21
0.0810780629005379
 31
0.0
  0
LINE
  5
276B0
  8
0
  6
CONTINUOUS
 10
42.18817142235812
 20
2.916768694378905
 30
0.0
 11
43.16119791794597
 21
3.889795189966758
 31
0.0
  0
LINE
  5
276B1
  8
0
  6
CONTINUOUS
 10
42.50563373493829
 20
2.560711797878898
 30
0.0
 11
43.47866023052615
 21
3.533738293466751
 31
0.0
  0
LINE
  5
276B2
  8
0
  6
CONTINUOUS
 10
43.57899999995641
 20
4.307597271977198
 30
0.0
 11
44.99999999995498
 21
5.728597271975769
 31
0.0
  0
LINE
  5
276B3
  8
0
  6
CONTINUOUS
 10
43.57899999995641
 20
3.634078062897011
 30
0.0
 11
44.99999999995498
 21
5.055078062895582
 31
0.0
  0
LINE
  5
276B4
  8
0
  6
CONTINUOUS
 10
42.82309604751848
 20
2.204654901378891
 30
0.0
 11
44.99999999995498
 21
4.381558853815395
 31
0.0
  0
LINE
  5
276B5
  8
0
  6
CONTINUOUS
 10
43.14055836009865
 20
1.848598004878885
 30
0.0
 11
44.99999999995498
 21
3.70803964473521
 31
0.0
  0
LINE
  5
276B6
  8
0
  6
CONTINUOUS
 10
43.45802067267883
 20
1.492541108378878
 30
0.0
 11
44.99999999995498
 21
3.034520435655023
 31
0.0
  0
LINE
  5
276B7
  8
0
  6
CONTINUOUS
 10
43.77548298525902
 20
1.136484211878871
 30
0.0
 11
44.99999999995498
 21
2.361001226574837
 31
0.0
  0
LINE
  5
276B8
  8
0
  6
CONTINUOUS
 10
44.09294529783919
 20
0.7804273153788639
 30
0.0
 11
44.99999999995498
 21
1.687482017494649
 31
0.0
  0
LINE
  5
276B9
  8
0
  6
CONTINUOUS
 10
44.41040761041938
 20
0.4243704188788566
 30
0.0
 11
44.99999999995498
 21
1.013962808414463
 31
0.0
  0
LINE
  5
276BA
  8
0
  6
CONTINUOUS
 10
44.72786992299955
 20
0.0683135223788494
 30
0.0
 11
44.99999999995498
 21
0.340443599334276
 31
0.0
  0
LINE
  5
276BB
  8
0
  6
CONTINUOUS
 10
39.12223903415696
 20
-0.0000000000000009
 30
0.0
 11
38.60499999996136
 21
0.5172390341955961
 31
0.0
  0
LINE
  5
276BC
  8
0
  6
CONTINUOUS
 10
39.79575824323715
 20
-0.0000000000000009
 30
0.0
 11
38.60499999996136
 21
1.190758243275783
 31
0.0
  0
LINE
  5
276BD
  8
0
  6
CONTINUOUS
 10
40.02599999995994
 20
0.443277452357397
 30
0.0
 11
38.60499999996136
 21
1.864277452355969
 31
0.0
  0
LINE
  5
276BE
  8
0
  6
CONTINUOUS
 10
40.02599999995994
 20
1.116796661437583
 30
0.0
 11
38.60499999996136
 21
2.537796661436155
 31
0.0
  0
LINE
  5
276BF
  8
0
  6
CONTINUOUS
 10
40.02599999995994
 20
1.79031587051777
 30
0.0
 11
38.60499999996136
 21
3.211315870516341
 31
0.0
  0
LINE
  5
276C0
  8
0
  6
CONTINUOUS
 10
40.02599999995994
 20
2.463835079597956
 30
0.0
 11
38.60499999996136
 21
3.884835079596527
 31
0.0
  0
LINE
  5
276C1
  8
0
  6
CONTINUOUS
 10
40.02599999995994
 20
3.137354288678143
 30
0.0
 11
38.60499999996136
 21
4.558354288676714
 31
0.0
  0
LINE
  5
276C2
  8
0
  6
CONTINUOUS
 10
40.02599999995994
 20
3.810873497758329
 30
0.0
 11
38.60499999996136
 21
5.2318734977569
 31
0.0
  0
LINE
  5
276C3
  8
0
  6
CONTINUOUS
 10
40.02599999995994
 20
4.484392706838515
 30
0.0
 11
38.60499999996136
 21
5.905392706837086
 31
0.0
  0
LINE
  5
276C4
  8
0
  6
CONTINUOUS
 10
44.99999999995498
 20
0.183911915923658
 30
0.0
 11
41.53858364506288
 21
3.64532827081576
 31
0.0
  0
LINE
  5
276C5
  8
0
  6
CONTINUOUS
 10
40.02599999995994
 20
5.157911915918703
 30
0.0
 11
38.60499999996136
 21
6.578911915917274
 31
0.0
  0
LINE
  5
276C6
  8
0
  6
CONTINUOUS
 10
44.99999999995498
 20
0.8574311250038447
 30
0.0
 11
38.60499999996136
 21
7.25243112499746
 31
0.0
  0
LINE
  5
276C7
  8
0
  6
CONTINUOUS
 10
44.99999999995498
 20
1.530950334084031
 30
0.0
 11
38.60499999996136
 21
7.925950334077647
 31
0.0
  0
LINE
  5
276C8
  8
0
  6
CONTINUOUS
 10
44.99999999995498
 20
2.204469543164218
 30
0.0
 11
43.57899999995641
 21
3.625469543162789
 31
0.0
  0
LINE
  5
276C9
  8
0
  6
CONTINUOUS
 10
41.89876730984767
 20
5.305702233271528
 30
0.0
 11
38.60499999996136
 21
8.599469543157834
 31
0.0
  0
LINE
  5
276CA
  8
0
  6
CONTINUOUS
 10
44.99999999995498
 20
2.877988752244405
 30
0.0
 11
43.57899999995641
 21
4.298988752242975
 31
0.0
  0
LINE
  5
276CB
  8
0
  6
CONTINUOUS
 10
44.99999999995498
 20
3.551507961324591
 30
0.0
 11
43.57899999995641
 21
4.972507961323163
 31
0.0
  0
LINE
  5
276CC
  8
0
  6
CONTINUOUS
 10
44.99999999995498
 20
4.225027170404777
 30
0.0
 11
43.57899999995641
 21
5.646027170403348
 31
0.0
  0
LINE
  5
276CD
  8
0
  6
CONTINUOUS
 10
44.99999999995498
 20
4.898546379484964
 30
0.0
 11
43.57899999995641
 21
6.319546379483535
 31
0.0
  0
LINE
  5
276CE
  8
0
  6
CONTINUOUS
 10
44.99999999995498
 20
5.572065588565151
 30
0.0
 11
43.57899999995641
 21
6.993065588563722
 31
0.0
  0
LINE
  5
276CF
  8
0
  6
CONTINUOUS
 10
44.99999999995498
 20
6.245584797645336
 30
0.0
 11
43.57899999995641
 21
7.666584797643908
 31
0.0
  0
LINE
  5
276D0
  8
0
  6
CONTINUOUS
 10
44.99999999995498
 20
6.919104006725522
 30
0.0
 11
43.57899999995641
 21
8.340104006724093
 31
0.0
  0
LINE
  5
276D1
  8
0
  6
CONTINUOUS
 10
44.99999999995498
 20
7.592623215805709
 30
0.0
 11
43.82952321576943
 21
8.763099999991255
 31
0.0
  0
LINE
  5
276D2
  8
0
  6
CONTINUOUS
 10
44.99999999995498
 20
8.266142424885896
 30
0.0
 11
44.50304242484962
 21
8.763099999991255
 31
0.0
  0
ENDBLK
  5
276FC
  8
0
  0
BLOCK
  8
0
  2
*X516
 70
     1
 10
0.0
 20
0.0
 30
0.0
  3
*X516
  1

  0
LINE
  5
276D4
  8
0
  6
CONTINUOUS
 10
0.0
 20
8.548461116714023
 30
0.0
 11
0.2146388832772324
 21
8.763099999991255
 31
0.0
  0
LINE
  5
276D5
  8
0
  6
CONTINUOUS
 10
-0.0000000000000002
 20
7.874941907633837
 30
0.0
 11
0.8881580923574184
 21
8.763099999991255
 31
0.0
  0
LINE
  5
276D6
  8
0
  6
CONTINUOUS
 10
0.0
 20
7.20142269855365
 30
0.0
 11
1.420999999998572
 21
8.622422698552223
 31
0.0
  0
LINE
  5
276D7
  8
0
  6
CONTINUOUS
 10
-0.0000000000000001
 20
6.527903489473465
 30
0.0
 11
1.420999999998571
 21
7.948903489472036
 31
0.0
  0
LINE
  5
276D8
  8
0
  6
CONTINUOUS
 10
-0.0000000000000002
 20
5.854384280393278
 30
0.0
 11
1.420999999998571
 21
7.275384280391849
 31
0.0
  0
LINE
  5
276D9
  8
0
  6
CONTINUOUS
 10
-0.0000000000000002
 20
5.180865071313091
 30
0.0
 11
1.420999999998571
 21
6.601865071311663
 31
0.0
  0
LINE
  5
276DA
  8
0
  6
CONTINUOUS
 10
0.0
 20
4.507345862232905
 30
0.0
 11
1.420999999998571
 21
5.928345862231477
 31
0.0
  0
LINE
  5
276DB
  8
0
  6
CONTINUOUS
 10
-0.0000000000000003
 20
3.833826653152718
 30
0.0
 11
1.420999999998571
 21
5.25482665315129
 31
0.0
  0
LINE
  5
276DC
  8
0
  6
CONTINUOUS
 10
-0.0000000000000002
 20
3.160307444072532
 30
0.0
 11
1.420999999998571
 21
4.581307444071103
 31
0.0
  0
LINE
  5
276DD
  8
0
  6
CONTINUOUS
 10
-0.0000000000000001
 20
2.486788234992345
 30
0.0
 11
1.420999999998571
 21
3.907788234990917
 31
0.0
  0
LINE
  5
276DE
  8
0
  6
CONTINUOUS
 10
-0.0000000000000006
 20
1.813269025912159
 30
0.0
 11
1.420999999998571
 21
3.234269025910731
 31
0.0
  0
LINE
  5
276DF
  8
0
  6
CONTINUOUS
 10
0.0
 20
1.139749816831973
 30
0.0
 11
1.420999999998571
 21
2.560749816830544
 31
0.0
  0
LINE
  5
276E0
  8
0
  6
CONTINUOUS
 10
0.0000000000000002
 20
0.466230607751787
 30
0.0
 11
1.420999999998571
 21
1.887230607750358
 31
0.0
  0
LINE
  5
276E1
  8
0
  6
CONTINUOUS
 10
0.2072886013284003
 20
-0.0000000000000009
 30
0.0
 11
1.420999999998571
 21
1.213711398670171
 31
0.0
  0
LINE
  5
276E2
  8
0
  6
CONTINUOUS
 10
0.8808078104085864
 20
-0.0000000000000009
 30
0.0
 11
1.420999999998571
 21
0.5401921895899839
 31
0.0
  0
LINE
  5
276E3
  8
0
  6
CONTINUOUS
 10
0.0581249075061505
 20
-0.0000000000000009
 30
0.0
 11
-0.0000000000000002
 21
0.0581249075061496
 31
0.0
  0
LINE
  5
276E4
  8
0
  6
CONTINUOUS
 10
0.7316441165863372
 20
-0.0000000000000009
 30
0.0
 11
-0.0000000000000002
 21
0.7316441165863363
 31
0.0
  0
LINE
  5
276E5
  8
0
  6
CONTINUOUS
 10
1.405163325666523
 20
-0.0000000000000009
 30
0.0
 11
-0.0000000000000002
 21
1.405163325666523
 31
0.0
  0
LINE
  5
276E6
  8
0
  6
CONTINUOUS
 10
1.420999999998572
 20
0.6576825347481381
 30
0.0
 11
-0.0000000000000001
 21
2.07868253474671
 31
0.0
  0
LINE
  5
276E7
  8
0
  6
CONTINUOUS
 10
1.420999999998571
 20
1.331201743828324
 30
0.0
 11
-0.0000000000000001
 21
2.752201743826896
 31
0.0
  0
LINE
  5
276E8
  8
0
  6
CONTINUOUS
 10
1.420999999998571
 20
2.004720952908511
 30
0.0
 11
-0.0000000000000002
 21
3.425720952907082
 31
0.0
  0
LINE
  5
276E9
  8
0
  6
CONTINUOUS
 10
1.420999999998571
 20
2.678240161988697
 30
0.0
 11
-0.0000000000000001
 21
4.099240161987269
 31
0.0
  0
LINE
  5
276EA
  8
0
  6
CONTINUOUS
 10
1.420999999998572
 20
3.351759371068884
 30
0.0
 11
0.0
 21
4.772759371067455
 31
0.0
  0
LINE
  5
276EB
  8
0
  6
CONTINUOUS
 10
1.420999999998571
 20
4.02527858014907
 30
0.0
 11
-0.0000000000000003
 21
5.446278580147642
 31
0.0
  0
LINE
  5
276EC
  8
0
  6
CONTINUOUS
 10
1.420999999998571
 20
4.698797789229257
 30
0.0
 11
0.0
 21
6.119797789227828
 31
0.0
  0
LINE
  5
276ED
  8
0
  6
CONTINUOUS
 10
1.420999999998571
 20
5.372316998309444
 30
0.0
 11
-0.0000000000000001
 21
6.793316998308015
 31
0.0
  0
LINE
  5
276EE
  8
0
  6
CONTINUOUS
 10
1.420999999998572
 20
6.045836207389629
 30
0.0
 11
-0.0000000000000004
 21
7.466836207388202
 31
0.0
  0
LINE
  5
276EF
  8
0
  6
CONTINUOUS
 10
1.420999999998571
 20
6.719355416469816
 30
0.0
 11
0.0
 21
8.140355416468388
 31
0.0
  0
LINE
  5
276F0
  8
0
  6
CONTINUOUS
 10
1.420999999998571
 20
7.392874625550003
 30
0.0
 11
0.0507746255573185
 21
8.763099999991255
 31
0.0
  0
LINE
  5
276F1
  8
0
  6
CONTINUOUS
 10
1.420999999998571
 20
8.06639383463019
 30
0.0
 11
0.7242938346375052
 21
8.763099999991255
 31
0.0
  0
LINE
  5
276F2
  8
0
  6
CONTINUOUS
 10
1.420999999998571
 20
8.739913043710375
 30
0.0
 11
1.397813043717691
 21
8.763099999991255
 31
0.0
  0
ENDBLK
  5
276FE
  8
0
  0
ENDSEC
  0
SECTION
  2
ENTITIES
  0
LINE
  5
1D8CA
  8
01
 10
699.0894367924561
 20
-650.6713303512659
 30
0.0
 11
699.0894367924561
 21
-672.8213303512673
 31
0.0
  0
LINE
  5
1D90A
  8
01
 10
699.0894367924561
 20
-653.1713303512665
 30
0.0
 11
699.0894367924561
 21
-670.8213303512659
 31
0.0
  0
TEXT
  5
1DB9B
  8
1TEXT
 10
673.8436125890391
 20
-559.8213303512664
 30
0.0
 40
8.0
  1
GP-224-※
  0
LINE
  5
1DBA5
  8
01
 10
720.5894367924561
 20
-618.5931567659845
 30
0.0
 11
720.5894367924561
 21
-693.0495039365483
 31
0.0
  0
LINE
  5
1DBA6
  8
01
 10
699.0894367924561
 20
-618.5931567659845
 30
0.0
 11
699.0894367924561
 21
-693.0495039365483
 31
0.0
  0
LINE
  5
26B99
  8
01
 10
607.2162417044188
 20
-607.6845137403309
 30
0.0
 11
607.2152372634215
 21
-607.7528649895228
 31
0.0
  0
LINE
  5
26B9A
  8
01
 10
607.2152372634215
 20
-607.7528649895228
 30
0.0
 11
607.2121437226366
 21
-607.8206669921507
 31
0.0
  0
LINE
  5
26B9B
  8
01
 10
607.2121437226366
 20
-607.8206669921507
 30
0.0
 11
607.2068725708892
 21
-607.8878408472102
 31
0.0
  0
LINE
  5
26B9C
  8
01
 10
607.2068725708892
 20
-607.8878408472102
 30
0.0
 11
607.2033927311619
 21
-607.9211675628381
 31
0.0
  0
LINE
  5
26B9D
  8
01
 10
607.2033927311619
 20
-607.9211675628381
 30
0.0
 11
607.1993352970045
 21
-607.9543076536974
 31
0.0
  0
LINE
  5
26B9E
  8
01
 10
607.1993352970045
 20
-607.9543076536974
 30
0.0
 11
607.1946892045186
 21
-607.9872512571624
 31
0.0
  0
LINE
  5
26B9F
  8
01
 10
607.1946892045186
 20
-607.9872512571624
 30
0.0
 11
607.1894433898084
 21
-608.0199885106076
 31
0.0
  0
LINE
  5
26BA0
  8
01
 10
607.1894433898084
 20
-608.0199885106076
 30
0.0
 11
607.1835867889764
 21
-608.0525095514076
 31
0.0
  0
LINE
  5
26BA1
  8
01
 10
607.1835867889764
 20
-608.0525095514076
 30
0.0
 11
607.177108338126
 21
-608.084804516937
 31
0.0
  0
LINE
  5
26BA2
  8
01
 10
607.177108338126
 20
-608.084804516937
 30
0.0
 11
607.1699969733605
 21
-608.1168635445698
 31
0.0
  0
LINE
  5
26BA3
  8
01
 10
607.1699969733605
 20
-608.1168635445698
 30
0.0
 11
607.1622416307833
 21
-608.1486767716809
 31
0.0
  0
LINE
  5
26BA4
  8
01
 10
607.1622416307833
 20
-608.1486767716809
 30
0.0
 11
607.1538312464969
 21
-608.1802343356446
 31
0.0
  0
LINE
  5
26BA5
  8
01
 10
607.1538312464969
 20
-608.1802343356446
 30
0.0
 11
607.1447547566046
 21
-608.2115263738355
 31
0.0
  0
LINE
  5
26BA6
  8
01
 10
607.1447547566046
 20
-608.2115263738355
 30
0.0
 11
607.1298712827571
 21
-608.2579451122464
 31
0.0
  0
LINE
  5
26BA7
  8
01
 10
607.1298712827571
 20
-608.2579451122464
 30
0.0
 11
607.1134630965486
 21
-608.30366766532
 31
0.0
  0
LINE
  5
26BA8
  8
01
 10
607.1134630965486
 20
-608.30366766532
 30
0.0
 11
607.1046820931266
 21
-608.3262580448932
 31
0.0
  0
LINE
  5
26BA9
  8
01
 10
607.1046820931266
 20
-608.3262580448932
 30
0.0
 11
607.0955137397965
 21
-608.3486625851774
 31
0.0
  0
LINE
  5
26BAA
  8
01
 10
607.0955137397965
 20
-608.3486625851774
 30
0.0
 11
607.0859559792849
 21
-608.3708773551879
 31
0.0
  0
LINE
  5
26BAB
  8
01
 10
607.0859559792849
 20
-608.3708773551879
 30
0.0
 11
607.0760067543193
 21
-608.3928984239399
 31
0.0
  0
LINE
  5
26BAC
  8
01
 10
607.0760067543193
 20
-608.3928984239399
 30
0.0
 11
607.0656640076273
 21
-608.4147218604483
 31
0.0
  0
LINE
  5
26BAD
  8
01
 10
607.0656640076273
 20
-608.4147218604483
 30
0.0
 11
607.0549256819355
 21
-608.4363437337284
 31
0.0
  0
LINE
  5
26BAE
  8
01
 10
607.0549256819355
 20
-608.4363437337284
 30
0.0
 11
607.0437897199714
 21
-608.4577601127954
 31
0.0
  0
LINE
  5
26BAF
  8
01
 10
607.0437897199714
 20
-608.4577601127954
 30
0.0
 11
607.0322540644626
 21
-608.4789670666645
 31
0.0
  0
LINE
  5
26BB0
  8
01
 10
607.0322540644626
 20
-608.4789670666645
 30
0.0
 11
607.0203166581365
 21
-608.4999606643506
 31
0.0
  0
LINE
  5
26BB1
  8
01
 10
607.0203166581365
 20
-608.4999606643506
 30
0.0
 11
607.0079754437198
 21
-608.5207369748691
 31
0.0
  0
LINE
  5
26BB2
  8
01
 10
607.0079754437198
 20
-608.5207369748691
 30
0.0
 11
606.9952283639401
 21
-608.541292067235
 31
0.0
  0
LINE
  5
26BB3
  8
01
 10
606.9952283639401
 20
-608.541292067235
 30
0.0
 11
606.9820733615248
 21
-608.5616220104635
 31
0.0
  0
LINE
  5
26BB4
  8
01
 10
606.9820733615248
 20
-608.5616220104635
 30
0.0
 11
606.9691189307301
 21
-608.5808365112714
 31
0.0
  0
LINE
  5
26BB5
  8
01
 10
606.9691189307301
 20
-608.5808365112714
 30
0.0
 11
606.9558190097874
 21
-608.5997986403416
 31
0.0
  0
LINE
  5
26BB6
  8
01
 10
606.9558190097874
 20
-608.5997986403416
 30
0.0
 11
606.9421758568566
 21
-608.6185073404964
 31
0.0
  0
LINE
  5
26BB7
  8
01
 10
606.9421758568566
 20
-608.6185073404964
 30
0.0
 11
606.928191730101
 21
-608.6369615545575
 31
0.0
  0
LINE
  5
26BB8
  8
01
 10
606.928191730101
 20
-608.6369615545575
 30
0.0
 11
606.9138688876798
 21
-608.6551602253469
 31
0.0
  0
LINE
  5
26BB9
  8
01
 10
606.9138688876798
 20
-608.6551602253469
 30
0.0
 11
606.8992095877562
 21
-608.6731022956866
 31
0.0
  0
LINE
  5
26BBA
  8
01
 10
606.8992095877562
 20
-608.6731022956866
 30
0.0
 11
606.8842160884893
 21
-608.6907867083987
 31
0.0
  0
LINE
  5
26BBB
  8
01
 10
606.8842160884893
 20
-608.6907867083987
 30
0.0
 11
606.8688906480426
 21
-608.708212406305
 31
0.0
  0
LINE
  5
26BBC
  8
01
 10
606.8688906480426
 20
-608.708212406305
 30
0.0
 11
606.8532355245749
 21
-608.7253783322276
 31
0.0
  0
LINE
  5
26BBD
  8
01
 10
606.8532355245749
 20
-608.7253783322276
 30
0.0
 11
606.8372529762497
 21
-608.7422834289885
 31
0.0
  0
LINE
  5
26BBE
  8
01
 10
606.8372529762497
 20
-608.7422834289885
 30
0.0
 11
606.8209452612269
 21
-608.7589266394095
 31
0.0
  0
LINE
  5
26BBF
  8
01
 10
606.8209452612269
 20
-608.7589266394095
 30
0.0
 11
606.8043146376673
 21
-608.7753069063127
 31
0.0
  0
LINE
  5
26BC0
  8
01
 10
606.8043146376673
 20
-608.7753069063127
 30
0.0
 11
606.7873633637333
 21
-608.7914231725202
 31
0.0
  0
LINE
  5
26BC1
  8
01
 10
606.7873633637333
 20
-608.7914231725202
 30
0.0
 11
606.7700936975858
 21
-608.8072743808538
 31
0.0
  0
LINE
  5
26BC2
  8
01
 10
606.7700936975858
 20
-608.8072743808538
 30
0.0
 11
606.7346082212949
 21
-608.8381773951874
 31
0.0
  0
LINE
  5
26BC3
  8
01
 10
606.7346082212949
 20
-608.8381773951874
 30
0.0
 11
606.7240659759069
 21
-608.8469534701796
 31
0.0
  0
LINE
  5
26BC4
  8
01
 10
606.7240659759069
 20
-608.8469534701796
 30
0.0
 11
606.6861551882517
 21
-608.8771042333876
 31
0.0
  0
LINE
  5
26BC5
  8
01
 10
606.6861551882517
 20
-608.8771042333876
 30
0.0
 11
606.6470569868767
 21
-608.9060827900669
 31
0.0
  0
LINE
  5
26BC6
  8
01
 10
606.6470569868767
 20
-608.9060827900669
 30
0.0
 11
606.6068108102587
 21
-608.9339025003031
 31
0.0
  0
LINE
  5
26BC7
  8
01
 10
606.6068108102587
 20
-608.9339025003031
 30
0.0
 11
606.5654560968766
 21
-608.9605767241824
 31
0.0
  0
LINE
  5
26BC8
  8
01
 10
606.5654560968766
 20
-608.9605767241824
 30
0.0
 11
606.5230322852082
 21
-608.9861188217902
 31
0.0
  0
LINE
  5
26BC9
  8
01
 10
606.5230322852082
 20
-608.9861188217902
 30
0.0
 11
606.4795788137304
 21
-609.0105421532127
 31
0.0
  0
LINE
  5
26BCA
  8
01
 10
606.4795788137304
 20
-609.0105421532127
 30
0.0
 11
606.4351351209203
 21
-609.0338600785354
 31
0.0
  0
LINE
  5
26BCB
  8
01
 10
606.4351351209203
 20
-609.0338600785354
 30
0.0
 11
606.3897406452567
 21
-609.0560859578443
 31
0.0
  0
LINE
  5
26BCC
  8
01
 10
606.3897406452567
 20
-609.0560859578443
 30
0.0
 11
606.3440748393747
 21
-609.0769560164632
 31
0.0
  0
LINE
  5
26BCD
  8
01
 10
606.3440748393747
 20
-609.0769560164632
 30
0.0
 11
606.2975054105133
 21
-609.0968309946968
 31
0.0
  0
LINE
  5
26BCE
  8
01
 10
606.2975054105133
 20
-609.0968309946968
 30
0.0
 11
606.2500634230906
 21
-609.1157345555782
 31
0.0
  0
LINE
  5
26BCF
  8
01
 10
606.2500634230906
 20
-609.1157345555782
 30
0.0
 11
606.2017799415249
 21
-609.1336903621408
 31
0.0
  0
LINE
  5
26BD0
  8
01
 10
606.2017799415249
 20
-609.1336903621408
 30
0.0
 11
606.1526860302334
 21
-609.1507220774176
 31
0.0
  0
LINE
  5
26BD1
  8
01
 10
606.1526860302334
 20
-609.1507220774176
 30
0.0
 11
606.1028127536343
 21
-609.1668533644421
 31
0.0
  0
LINE
  5
26BD2
  8
01
 10
606.1028127536343
 20
-609.1668533644421
 30
0.0
 11
606.0521911761467
 21
-609.1821078862472
 31
0.0
  0
LINE
  5
26BD3
  8
01
 10
606.0521911761467
 20
-609.1821078862472
 30
0.0
 11
606.000852362187
 21
-609.1965093058662
 31
0.0
  0
LINE
  5
26BD4
  8
01
 10
606.000852362187
 20
-609.1965093058662
 30
0.0
 11
605.8986007040563
 21
-609.2222757071626
 31
0.0
  0
LINE
  5
26BD5
  8
01
 10
605.8986007040563
 20
-609.2222757071626
 30
0.0
 11
605.793784063903
 21
-609.245087016489
 31
0.0
  0
LINE
  5
26BD6
  8
01
 10
605.793784063903
 20
-609.245087016489
 30
0.0
 11
605.6865963892975
 21
-609.2651036179875
 31
0.0
  0
LINE
  5
26BD7
  8
01
 10
605.6865963892975
 20
-609.2651036179875
 30
0.0
 11
605.5772316278122
 21
-609.2824858958002
 31
0.0
  0
LINE
  5
26BD8
  8
01
 10
605.5772316278122
 20
-609.2824858958002
 30
0.0
 11
605.4704528111257
 21
-609.2968234259592
 31
0.0
  0
LINE
  5
26BD9
  8
01
 10
605.4704528111257
 20
-609.2968234259592
 30
0.0
 11
605.3620602916259
 21
-609.3089691043143
 31
0.0
  0
LINE
  5
26BDA
  8
01
 10
605.3620602916259
 20
-609.3089691043143
 30
0.0
 11
605.2522717104335
 21
-609.3190117850058
 31
0.0
  0
LINE
  5
26BDB
  8
01
 10
605.2522717104335
 20
-609.3190117850058
 30
0.0
 11
605.1413047086704
 21
-609.3270403221744
 31
0.0
  0
LINE
  5
26BDC
  8
01
 10
605.1413047086704
 20
-609.3270403221744
 30
0.0
 11
604.9296241578674
 21
-609.336946561362
 31
0.0
  0
LINE
  5
26BDD
  8
01
 10
604.9296241578674
 20
-609.336946561362
 30
0.0
 11
604.7162416153648
 21
-609.3402106685688
 31
0.0
  0
LINE
  5
26BDE
  8
01
 10
598.016241615365
 20
-563.1213303512666
 30
0.0
 11
402.0162416153649
 21
-563.1213303512666
 31
0.0
  0
LINE
  5
26BDF
  8
01
 10
395.3162416153651
 20
-609.3402106685688
 30
0.0
 11
395.1028590728625
 21
-609.336946561362
 31
0.0
  0
LINE
  5
26BE0
  8
01
 10
395.1028590728625
 20
-609.336946561362
 30
0.0
 11
394.8911785220595
 21
-609.3270403221744
 31
0.0
  0
LINE
  5
26BE1
  8
01
 10
394.8911785220595
 20
-609.3270403221744
 30
0.0
 11
394.7802115202963
 21
-609.3190117850058
 31
0.0
  0
LINE
  5
26BE2
  8
01
 10
394.7802115202963
 20
-609.3190117850058
 30
0.0
 11
394.670422939104
 21
-609.3089691043142
 31
0.0
  0
LINE
  5
26BE3
  8
01
 10
394.670422939104
 20
-609.3089691043142
 30
0.0
 11
394.5620304196042
 21
-609.2968234259591
 31
0.0
  0
LINE
  5
26BE4
  8
01
 10
394.5620304196042
 20
-609.2968234259591
 30
0.0
 11
394.4552516029177
 21
-609.2824858958
 31
0.0
  0
LINE
  5
26BE5
  8
01
 10
394.4552516029177
 20
-609.2824858958
 30
0.0
 11
394.3458868414324
 21
-609.2651036179873
 31
0.0
  0
LINE
  5
26BE6
  8
01
 10
394.3458868414324
 20
-609.2651036179873
 30
0.0
 11
394.2386991668269
 21
-609.2450870164888
 31
0.0
  0
LINE
  5
26BE7
  8
01
 10
394.2386991668269
 20
-609.2450870164888
 30
0.0
 11
394.1338825266727
 21
-609.2222757071625
 31
0.0
  0
LINE
  5
26BE8
  8
01
 10
394.1338825266727
 20
-609.2222757071625
 30
0.0
 11
394.0316308685429
 21
-609.196509305866
 31
0.0
  0
LINE
  5
26BE9
  8
01
 10
394.0316308685429
 20
-609.196509305866
 30
0.0
 11
393.9802920545832
 21
-609.182107886247
 31
0.0
  0
LINE
  5
26BEA
  8
01
 10
393.9802920545832
 20
-609.182107886247
 30
0.0
 11
393.9296704770946
 21
-609.166853364442
 31
0.0
  0
LINE
  5
26BEB
  8
01
 10
393.9296704770946
 20
-609.166853364442
 30
0.0
 11
393.8797972004965
 21
-609.1507220774175
 31
0.0
  0
LINE
  5
26BEC
  8
01
 10
393.8797972004965
 20
-609.1507220774175
 30
0.0
 11
393.830703289205
 21
-609.1336903621407
 31
0.0
  0
LINE
  5
26BED
  8
01
 10
393.830703289205
 20
-609.1336903621407
 30
0.0
 11
393.7824198076383
 21
-609.1157345555781
 31
0.0
  0
LINE
  5
26BEE
  8
01
 10
393.7824198076383
 20
-609.1157345555781
 30
0.0
 11
393.7349778202157
 21
-609.0968309946967
 31
0.0
  0
LINE
  5
26BEF
  8
01
 10
393.7349778202157
 20
-609.0968309946967
 30
0.0
 11
393.6884083913552
 21
-609.0769560164631
 31
0.0
  0
LINE
  5
26BF0
  8
01
 10
393.6884083913552
 20
-609.0769560164631
 30
0.0
 11
393.6427425854732
 21
-609.0560859578442
 31
0.0
  0
LINE
  5
26BF1
  8
01
 10
393.6427425854732
 20
-609.0560859578442
 30
0.0
 11
393.5973481098096
 21
-609.0338600785353
 31
0.0
  0
LINE
  5
26BF2
  8
01
 10
393.5973481098096
 20
-609.0338600785353
 30
0.0
 11
393.5529044169995
 21
-609.0105421532126
 31
0.0
  0
LINE
  5
26BF3
  8
01
 10
393.5529044169995
 20
-609.0105421532126
 30
0.0
 11
393.5094509455217
 21
-608.9861188217902
 31
0.0
  0
LINE
  5
26BF4
  8
01
 10
393.5094509455217
 20
-608.9861188217902
 30
0.0
 11
393.4670271338524
 21
-608.9605767241823
 31
0.0
  0
LINE
  5
26BF5
  8
01
 10
393.4670271338524
 20
-608.9605767241823
 30
0.0
 11
393.4256724204712
 21
-608.933902500303
 31
0.0
  0
LINE
  5
26BF6
  8
01
 10
393.4256724204712
 20
-608.933902500303
 30
0.0
 11
393.3854262438532
 21
-608.9060827900666
 31
0.0
  0
LINE
  5
26BF7
  8
01
 10
393.3854262438532
 20
-608.9060827900666
 30
0.0
 11
393.3463280424781
 21
-608.8771042333875
 31
0.0
  0
LINE
  5
26BF8
  8
01
 10
393.3463280424781
 20
-608.8771042333875
 30
0.0
 11
393.3084172548221
 21
-608.8469534701795
 31
0.0
  0
LINE
  5
26BF9
  8
01
 10
393.3084172548221
 20
-608.8469534701795
 30
0.0
 11
393.297875009435
 21
-608.8381773951877
 31
0.0
  0
LINE
  5
26BFA
  8
01
 10
393.297875009435
 20
-608.8381773951877
 30
0.0
 11
393.2623895331441
 21
-608.8072743808541
 31
0.0
  0
LINE
  5
26BFB
  8
01
 10
393.2623895331441
 20
-608.8072743808541
 30
0.0
 11
393.2451198669966
 21
-608.7914231725205
 31
0.0
  0
LINE
  5
26BFC
  8
01
 10
393.2451198669966
 20
-608.7914231725205
 30
0.0
 11
393.2281685930626
 21
-608.7753069063131
 31
0.0
  0
LINE
  5
26BFD
  8
01
 10
393.2281685930626
 20
-608.7753069063131
 30
0.0
 11
393.2115379695039
 21
-608.7589266394098
 31
0.0
  0
LINE
  5
26BFE
  8
01
 10
393.2115379695039
 20
-608.7589266394098
 30
0.0
 11
393.1952302544802
 21
-608.7422834289887
 31
0.0
  0
LINE
  5
26BFF
  8
01
 10
393.1952302544802
 20
-608.7422834289887
 30
0.0
 11
393.179247706155
 21
-608.7253783322278
 31
0.0
  0
LINE
  5
26C00
  8
01
 10
393.179247706155
 20
-608.7253783322278
 30
0.0
 11
393.1635925826873
 21
-608.7082124063052
 31
0.0
  0
LINE
  5
26C01
  8
01
 10
393.1635925826873
 20
-608.7082124063052
 30
0.0
 11
393.1482671422406
 21
-608.6907867083987
 31
0.0
  0
LINE
  5
26C02
  8
01
 10
393.1482671422406
 20
-608.6907867083987
 30
0.0
 11
393.1332736429737
 21
-608.6731022956866
 31
0.0
  0
LINE
  5
26C03
  8
01
 10
393.1332736429737
 20
-608.6731022956866
 30
0.0
 11
393.1186143430492
 21
-608.6551602253468
 31
0.0
  0
LINE
  5
26C04
  8
01
 10
393.1186143430492
 20
-608.6551602253468
 30
0.0
 11
393.1042915006288
 21
-608.6369615545574
 31
0.0
  0
LINE
  5
26C05
  8
01
 10
393.1042915006288
 20
-608.6369615545574
 30
0.0
 11
393.0903073738724
 21
-608.6185073404963
 31
0.0
  0
LINE
  5
26C06
  8
01
 10
393.0903073738724
 20
-608.6185073404963
 30
0.0
 11
393.0766642209425
 21
-608.5997986403415
 31
0.0
  0
LINE
  5
26C07
  8
01
 10
393.0766642209425
 20
-608.5997986403415
 30
0.0
 11
393.0633642999989
 21
-608.5808365112712
 31
0.0
  0
LINE
  5
26C08
  8
01
 10
393.0633642999989
 20
-608.5808365112712
 30
0.0
 11
393.0504098692041
 21
-608.5616220104633
 31
0.0
  0
LINE
  5
26C09
  8
01
 10
393.0504098692041
 20
-608.5616220104633
 30
0.0
 11
393.0372548667889
 21
-608.5412920672348
 31
0.0
  0
LINE
  5
26C0A
  8
01
 10
393.0372548667889
 20
-608.5412920672348
 30
0.0
 11
393.0245077870101
 21
-608.520736974869
 31
0.0
  0
LINE
  5
26C0B
  8
01
 10
393.0245077870101
 20
-608.520736974869
 30
0.0
 11
393.0121665725934
 21
-608.4999606643505
 31
0.0
  0
LINE
  5
26C0C
  8
01
 10
393.0121665725934
 20
-608.4999606643505
 30
0.0
 11
393.0002291662673
 21
-608.4789670666644
 31
0.0
  0
LINE
  5
26C0D
  8
01
 10
393.0002291662673
 20
-608.4789670666644
 30
0.0
 11
392.9886935107585
 21
-608.4577601127953
 31
0.0
  0
LINE
  5
26C0E
  8
01
 10
392.9886935107585
 20
-608.4577601127953
 30
0.0
 11
392.9775575487944
 21
-608.4363437337282
 31
0.0
  0
LINE
  5
26C0F
  8
01
 10
392.9775575487944
 20
-608.4363437337282
 30
0.0
 11
392.9668192231026
 21
-608.414721860448
 31
0.0
  0
LINE
  5
26C10
  8
01
 10
392.9668192231026
 20
-608.414721860448
 30
0.0
 11
392.9564764764106
 21
-608.3928984239395
 31
0.0
  0
LINE
  5
26C11
  8
01
 10
392.9564764764106
 20
-608.3928984239395
 30
0.0
 11
392.946527251445
 21
-608.3708773551875
 31
0.0
  0
LINE
  5
26C12
  8
01
 10
392.946527251445
 20
-608.3708773551875
 30
0.0
 11
392.9369694909334
 21
-608.3486625851771
 31
0.0
  0
LINE
  5
26C13
  8
01
 10
392.9369694909334
 20
-608.3486625851771
 30
0.0
 11
392.9278011376024
 21
-608.3262580448927
 31
0.0
  0
LINE
  5
26C14
  8
01
 10
392.9278011376024
 20
-608.3262580448927
 30
0.0
 11
392.9190201341813
 21
-608.3036676653195
 31
0.0
  0
LINE
  5
26C15
  8
01
 10
392.9190201341813
 20
-608.3036676653195
 30
0.0
 11
392.9026119479719
 21
-608.2579451122459
 31
0.0
  0
LINE
  5
26C16
  8
01
 10
392.9026119479719
 20
-608.2579451122459
 30
0.0
 11
392.8877284741253
 21
-608.2115263738351
 31
0.0
  0
LINE
  5
26C17
  8
01
 10
392.8877284741253
 20
-608.2115263738351
 30
0.0
 11
392.878651984233
 21
-608.1802343356444
 31
0.0
  0
LINE
  5
26C18
  8
01
 10
392.878651984233
 20
-608.1802343356444
 30
0.0
 11
392.8702415999466
 21
-608.1486767716807
 31
0.0
  0
LINE
  5
26C19
  8
01
 10
392.8702415999466
 20
-608.1486767716807
 30
0.0
 11
392.8624862573694
 21
-608.1168635445696
 31
0.0
  0
LINE
  5
26C1A
  8
01
 10
392.8624862573694
 20
-608.1168635445696
 30
0.0
 11
392.8553748926039
 21
-608.0848045169366
 31
0.0
  0
LINE
  5
26C1B
  8
01
 10
392.8553748926039
 20
-608.0848045169366
 30
0.0
 11
392.8488964417535
 21
-608.0525095514073
 31
0.0
  0
LINE
  5
26C1C
  8
01
 10
392.8488964417535
 20
-608.0525095514073
 30
0.0
 11
392.8430398409215
 21
-608.0199885106073
 31
0.0
  0
LINE
  5
26C1D
  8
01
 10
392.8430398409215
 20
-608.0199885106073
 30
0.0
 11
392.8377940262113
 21
-607.9872512571619
 31
0.0
  0
LINE
  5
26C1E
  8
01
 10
392.8377940262113
 20
-607.9872512571619
 30
0.0
 11
392.8331479337254
 21
-607.9543076536968
 31
0.0
  0
LINE
  5
26C1F
  8
01
 10
392.8331479337254
 20
-607.9543076536968
 30
0.0
 11
392.829090499568
 21
-607.9211675628376
 31
0.0
  0
LINE
  5
26C20
  8
01
 10
392.829090499568
 20
-607.9211675628376
 30
0.0
 11
392.8256106598407
 21
-607.8878408472096
 31
0.0
  0
LINE
  5
26C21
  8
01
 10
392.8256106598407
 20
-607.8878408472096
 30
0.0
 11
392.8203395080933
 21
-607.82066699215
 31
0.0
  0
LINE
  5
26C22
  8
01
 10
392.8203395080933
 20
-607.82066699215
 30
0.0
 11
392.8172459673084
 21
-607.7528649895221
 31
0.0
  0
LINE
  5
26C23
  8
01
 10
392.8172459673084
 20
-607.7528649895221
 30
0.0
 11
392.816241526311
 21
-607.6845137403302
 31
0.0
  0
LINE
  5
26C24
  8
01
 10
380.3162416153651
 20
-555.8213303512664
 30
0.0
 11
619.7162416153648
 21
-555.8213303512664
 31
0.0
  0
ARC
  5
26C25
  8
01
 10
-402.0162416153659
 20
-568.3213303512656
 30
0.0
 40
9.200000000000728
 50
0.0000000000049561
 51
89.99999999998867
210
0.0
220
0.0
230
-1.0
  0
ARC
  5
26C26
  8
01
 10
598.0162416153631
 20
-568.3213303512663
 30
0.0
 40
9.200000000001694
 50
0.000000000001416
 51
89.99999999998867
  0
LINE
  5
26C27
  8
01
 10
392.8162416153651
 20
-605.0766519067561
 30
0.0
 11
392.8162416153651
 21
-606.5049705894179
 31
0.0
  0
LINE
  5
26C28
  8
01
 10
392.8162416153651
 20
-605.0713303513312
 30
0.0
 11
392.8162416153651
 21
-568.3213303512664
 31
0.0
  0
LINE
  5
26C29
  8
01
 10
607.2162416153648
 20
-605.0766754469125
 30
0.0
 11
607.2162416153648
 21
-606.5049705894179
 31
0.0
  0
LINE
  5
26C2A
  8
01
 10
607.2162416153648
 20
-605.0713303513312
 30
0.0
 11
607.2162416153648
 21
-568.3213303512664
 31
0.0
  0
LINE
  5
26C2B
  8
01
 10
402.0162416153649
 20
-559.1213303512664
 30
0.0
 11
598.016241615365
 21
-559.1213303512664
 31
0.0
  0
LINE
  5
26C2C
  8
01
 10
620.016241615365
 20
-604.8213303512862
 30
0.0
 11
620.016241615365
 21
-607.5213303543895
 31
0.0
  0
LINE
  5
26C2D
  8
01
 10
620.016241615365
 20
-556.1213303512664
 30
0.0
 11
620.016241615365
 21
-604.8213303512862
 31
0.0
  0
LINE
  5
26C2E
  8
01
 10
380.0162416153649
 20
-604.8213303512862
 30
0.0
 11
380.0162416153649
 21
-607.5213303543895
 31
0.0
  0
LINE
  5
26C2F
  8
01
 10
380.0162416153649
 20
-556.1213303512664
 30
0.0
 11
380.0162416153649
 21
-604.8213303512862
 31
0.0
  0
LINE
  5
26C30
  8
01
 10
392.8206288409234
 20
-607.8213303512664
 30
0.0
 11
380.3162416153651
 21
-607.8213303512664
 31
0.0
  0
LINE
  5
26C31
  8
01
 10
604.7162416153648
 20
-609.3402106685687
 30
0.0
 11
395.3162416153651
 21
-609.3402106685687
 31
0.0
  0
LINE
  5
26C32
  8
01
 10
603.2162416153648
 20
-594.1213303512665
 30
0.0
 11
603.2162416153648
 21
-568.3213303512665
 31
0.0
  0
ARC
  5
26C33
  8
01
 10
598.016241615365
 20
-594.1213303512665
 30
0.0
 40
5.200000000000045
 50
270.0
 51
0.0
  0
LINE
  5
26C34
  8
01
 10
402.0162416153649
 20
-599.3213303512665
 30
0.0
 11
598.016241615365
 21
-599.3213303512665
 31
0.0
  0
ARC
  5
26C35
  8
01
 10
402.0162416153649
 20
-594.1213303512665
 30
0.0
 40
5.200000000000045
 50
180.0
 51
270.0
  0
LINE
  5
26C36
  8
01
 10
396.8162416153651
 20
-568.3213303512669
 30
0.0
 11
396.8162416153651
 21
-594.1213303512665
 31
0.0
  0
ARC
  5
26C37
  8
01
 10
402.0162416153649
 20
-568.3213303512664
 30
0.0
 40
5.199999999999989
 50
90.0
 51
180.0
  0
ARC
  5
26C38
  8
01
 10
598.016241615365
 20
-568.3213303512664
 30
0.0
 40
5.199999999999932
 50
0.0000000000025053
 51
90.0
  0
LINE
  5
26C39
  8
01
 10
392.8162416153651
 20
-606.5049705894179
 30
0.0
 11
392.8162416153651
 21
-607.6841532417715
 31
0.0
  0
LINE
  5
26C3A
  8
01
 10
392.8162416153651
 20
-605.0767524008487
 30
0.0
 11
392.8162416153651
 21
-605.0713303513312
 31
0.0
  0
LINE
  5
26C3B
  8
01
 10
607.2162416153648
 20
-606.5049705894179
 30
0.0
 11
607.2162416153648
 21
-607.6841532417715
 31
0.0
  0
LINE
  5
26C3C
  8
01
 10
607.2162416153648
 20
-605.0767524008644
 30
0.0
 11
607.2162416153648
 21
-605.0713303513312
 31
0.0
  0
LINE
  5
26C3D
  8
01
 10
495.0162717527697
 20
-565.121330351267
 30
0.0
 11
496.5162717529025
 21
-565.1213303512673
 31
0.0
  0
LINE
  5
26C3E
  8
01
 10
493.0162717527697
 20
-582.6213303512675
 30
0.0
 11
492.9821306425835
 21
-582.6207473736338
 31
0.0
  0
LINE
  5
26C3F
  8
01
 10
492.9821306425835
 20
-582.6207473736338
 30
0.0
 11
492.948029339405
 21
-582.618999120458
 31
0.0
  0
LINE
  5
26C40
  8
01
 10
492.948029339405
 20
-582.618999120458
 30
0.0
 11
492.9140076038271
 21
-582.6160876301257
 31
0.0
  0
LINE
  5
26C41
  8
01
 10
492.9140076038271
 20
-582.6160876301257
 30
0.0
 11
492.8801051036731
 21
-582.6120162973039
 31
0.0
  0
LINE
  5
26C42
  8
01
 10
492.8801051036731
 20
-582.6120162973039
 30
0.0
 11
492.846361367741
 21
-582.6067898689847
 31
0.0
  0
LINE
  5
26C43
  8
01
 10
492.846361367741
 20
-582.6067898689847
 30
0.0
 11
492.8128157397165
 21
-582.6004144389499
 31
0.0
  0
LINE
  5
26C44
  8
01
 10
492.8128157397165
 20
-582.6004144389499
 30
0.0
 11
492.7795073323028
 21
-582.5928974406655
 31
0.0
  0
LINE
  5
26C45
  8
01
 10
492.7795073323028
 20
-582.5928974406655
 30
0.0
 11
492.7464749816123
 21
-582.5842476386154
 31
0.0
  0
LINE
  5
26C46
  8
01
 10
492.7464749816123
 20
-582.5842476386154
 30
0.0
 11
492.7137572018888
 21
-582.5744751180816
 31
0.0
  0
LINE
  5
26C47
  8
01
 10
492.7137572018888
 20
-582.5744751180816
 30
0.0
 11
492.6813921405989
 21
-582.5635912733864
 31
0.0
  0
LINE
  5
26C48
  8
01
 10
492.6813921405989
 20
-582.5635912733864
 30
0.0
 11
492.6494175339564
 21
-582.5516087946054
 31
0.0
  0
LINE
  5
26C49
  8
01
 10
492.6494175339564
 20
-582.5516087946054
 30
0.0
 11
492.6178706629231
 21
-582.538541652773
 31
0.0
  0
LINE
  5
26C4A
  8
01
 10
492.6178706629231
 20
-582.538541652773
 30
0.0
 11
492.5867883097395
 21
-582.5244050835921
 31
0.0
  0
LINE
  5
26C4B
  8
01
 10
492.5867883097395
 20
-582.5244050835921
 30
0.0
 11
492.5562067150382
 21
-582.5092155696699
 31
0.0
  0
LINE
  5
26C4C
  8
01
 10
492.5562067150382
 20
-582.5092155696699
 30
0.0
 11
492.5261615355918
 21
-582.4929908213003
 31
0.0
  0
LINE
  5
26C4D
  8
01
 10
492.5261615355918
 20
-582.4929908213003
 30
0.0
 11
492.4966878027341
 21
-582.475749755814
 31
0.0
  0
LINE
  5
26C4E
  8
01
 10
492.4966878027341
 20
-582.475749755814
 30
0.0
 11
492.4678198815205
 21
-582.4575124755222
 31
0.0
  0
LINE
  5
26C4F
  8
01
 10
492.4678198815205
 20
-582.4575124755222
 30
0.0
 11
492.4395914306548
 21
-582.438300244278
 31
0.0
  0
LINE
  5
26C50
  8
01
 10
492.4395914306548
 20
-582.438300244278
 30
0.0
 11
492.4120353632485
 21
-582.4181354626835
 31
0.0
  0
LINE
  5
26C51
  8
01
 10
492.4120353632485
 20
-582.4181354626835
 30
0.0
 11
492.3851838084435
 21
-582.397041641972
 31
0.0
  0
LINE
  5
26C52
  8
01
 10
492.3851838084435
 20
-582.397041641972
 30
0.0
 11
492.3590680739513
 21
-582.3750433765949
 31
0.0
  0
LINE
  5
26C53
  8
01
 10
492.3590680739513
 20
-582.3750433765949
 30
0.0
 11
492.3337186095511
 21
-582.3521663155457
 31
0.0
  0
LINE
  5
26C54
  8
01
 10
492.3337186095511
 20
-582.3521663155457
 30
0.0
 11
492.3091649715831
 21
-582.3284371324542
 31
0.0
  0
LINE
  5
26C55
  8
01
 10
492.3091649715831
 20
-582.3284371324542
 30
0.0
 11
492.2854357884913
 21
-582.3038834944862
 31
0.0
  0
LINE
  5
26C56
  8
01
 10
492.2854357884913
 20
-582.3038834944862
 30
0.0
 11
492.2625587274421
 21
-582.2785340300856
 31
0.0
  0
LINE
  5
26C57
  8
01
 10
492.2625587274421
 20
-582.2785340300856
 30
0.0
 11
492.240560462065
 21
-582.2524182955935
 31
0.0
  0
LINE
  5
26C58
  8
01
 10
492.240560462065
 20
-582.2524182955935
 30
0.0
 11
492.219466641354
 21
-582.2255667407886
 31
0.0
  0
LINE
  5
26C59
  8
01
 10
492.219466641354
 20
-582.2255667407886
 30
0.0
 11
492.1993018597592
 21
-582.1980106733824
 31
0.0
  0
LINE
  5
26C5A
  8
01
 10
492.1993018597592
 20
-582.1980106733824
 30
0.0
 11
492.1800896285146
 21
-582.1697822225169
 31
0.0
  0
LINE
  5
26C5B
  8
01
 10
492.1800896285146
 20
-582.1697822225169
 30
0.0
 11
492.1618523482226
 21
-582.1409143013029
 31
0.0
  0
LINE
  5
26C5C
  8
01
 10
492.1618523482226
 20
-582.1409143013029
 30
0.0
 11
492.1446112827367
 21
-582.1114405684456
 31
0.0
  0
LINE
  5
26C5D
  8
01
 10
492.1446112827367
 20
-582.1114405684456
 30
0.0
 11
492.1283865343672
 21
-582.0813953889987
 31
0.0
  0
LINE
  5
26C5E
  8
01
 10
492.1283865343672
 20
-582.0813953889987
 30
0.0
 11
492.1131970204448
 21
-582.0508137942976
 31
0.0
  0
LINE
  5
26C5F
  8
01
 10
492.1131970204448
 20
-582.0508137942976
 30
0.0
 11
492.0990604512641
 21
-582.0197314411138
 31
0.0
  0
LINE
  5
26C60
  8
01
 10
492.0990604512641
 20
-582.0197314411138
 30
0.0
 11
492.0859933094313
 21
-581.9881845700806
 31
0.0
  0
LINE
  5
26C61
  8
01
 10
492.0859933094313
 20
-581.9881845700806
 30
0.0
 11
492.0740108306505
 21
-581.9562099634386
 31
0.0
  0
LINE
  5
26C62
  8
01
 10
492.0740108306505
 20
-581.9562099634386
 30
0.0
 11
492.0631269859556
 21
-581.9238449021486
 31
0.0
  0
LINE
  5
26C63
  8
01
 10
492.0631269859556
 20
-581.9238449021486
 30
0.0
 11
492.0533544654214
 21
-581.8911271224246
 31
0.0
  0
LINE
  5
26C64
  8
01
 10
492.0533544654214
 20
-581.8911271224246
 30
0.0
 11
492.0447046633714
 21
-581.8580947717339
 31
0.0
  0
LINE
  5
26C65
  8
01
 10
492.0447046633714
 20
-581.8580947717339
 30
0.0
 11
492.0371876650876
 21
-581.8247863643202
 31
0.0
  0
LINE
  5
26C66
  8
01
 10
492.0371876650876
 20
-581.8247863643202
 30
0.0
 11
492.0308122350522
 21
-581.7912407362962
 31
0.0
  0
LINE
  5
26C67
  8
01
 10
492.0308122350522
 20
-581.7912407362962
 30
0.0
 11
492.0255858067336
 21
-581.7574970003639
 31
0.0
  0
LINE
  5
26C68
  8
01
 10
492.0255858067336
 20
-581.7574970003639
 30
0.0
 11
492.0215144739119
 21
-581.7235945002096
 31
0.0
  0
LINE
  5
26C69
  8
01
 10
492.0215144739119
 20
-581.7235945002096
 30
0.0
 11
492.0186029835792
 21
-581.6895727646322
 31
0.0
  0
LINE
  5
26C6A
  8
01
 10
492.0186029835792
 20
-581.6895727646322
 30
0.0
 11
492.0168547304035
 21
-581.6554714614535
 31
0.0
  0
LINE
  5
26C6B
  8
01
 10
492.0168547304035
 20
-581.6554714614535
 30
0.0
 11
492.0162717527697
 21
-581.6213303512675
 31
0.0
  0
LINE
  5
26C6C
  8
01
 10
492.0162717527697
 20
-581.6213303512675
 30
0.0
 11
492.0162717527697
 21
-581.0297363579953
 31
0.0
  0
LINE
  5
26C6D
  8
01
 10
492.0162717527697
 20
-581.0297363579953
 30
0.0
 11
492.0168628373627
 21
-580.9953587518337
 31
0.0
  0
LINE
  5
26C6E
  8
01
 10
492.0168628373627
 20
-580.9953587518337
 30
0.0
 11
492.0186353923806
 21
-580.9610217858187
 31
0.0
  0
LINE
  5
26C6F
  8
01
 10
492.0186353923806
 20
-580.9610217858187
 30
0.0
 11
492.0215873223621
 21
-580.9267660520536
 31
0.0
  0
LINE
  5
26C70
  8
01
 10
492.0215873223621
 20
-580.9267660520536
 30
0.0
 11
492.0257151376287
 21
-580.8926320466114
 31
0.0
  0
LINE
  5
26C71
  8
01
 10
492.0257151376287
 20
-580.8926320466114
 30
0.0
 11
492.0310139584022
 21
-580.8586601216614
 31
0.0
  0
LINE
  5
26C72
  8
01
 10
492.0310139584022
 20
-580.8586601216614
 30
0.0
 11
492.0374775205806
 21
-580.8248904377665
 31
0.0
  0
LINE
  5
26C73
  8
01
 10
492.0374775205806
 20
-580.8248904377665
 30
0.0
 11
492.0450981831406
 21
-580.7913629164065
 31
0.0
  0
LINE
  5
26C74
  8
01
 10
492.0450981831406
 20
-580.7913629164065
 30
0.0
 11
492.0538669371696
 21
-580.7581171927839
 31
0.0
  0
LINE
  5
26C75
  8
01
 10
492.0538669371696
 20
-580.7581171927839
 30
0.0
 11
492.0637734165163
 21
-580.7251925689689
 31
0.0
  0
LINE
  5
26C76
  8
01
 10
492.0637734165163
 20
-580.7251925689689
 30
0.0
 11
492.0748059100457
 21
-580.6926279674371
 31
0.0
  0
LINE
  5
26C77
  8
01
 10
492.0748059100457
 20
-580.6926279674371
 30
0.0
 11
492.0869513754848
 21
-580.6604618850573
 31
0.0
  0
LINE
  5
26C78
  8
01
 10
492.0869513754848
 20
-580.6604618850573
 30
0.0
 11
492.1001954548379
 21
-580.6287323475806
 31
0.0
  0
LINE
  5
26C79
  8
01
 10
492.1001954548379
 20
-580.6287323475806
 30
0.0
 11
492.114522491364
 21
-580.5974768646887
 31
0.0
  0
LINE
  5
26C7A
  8
01
 10
492.114522491364
 20
-580.5974768646887
 30
0.0
 11
492.1299155480798
 21
-580.5667323856503
 31
0.0
  0
LINE
  5
26C7B
  8
01
 10
492.1299155480798
 20
-580.5667323856503
 30
0.0
 11
492.1463564277889
 21
-580.5365352556412
 31
0.0
  0
LINE
  5
26C7C
  8
01
 10
492.1463564277889
 20
-580.5365352556412
 30
0.0
 11
492.1638256945895
 21
-580.506921172778
 31
0.0
  0
LINE
  5
26C7D
  8
01
 10
492.1638256945895
 20
-580.506921172778
 30
0.0
 11
492.1823026968547
 21
-580.4779251459169
 31
0.0
  0
LINE
  5
26C7E
  8
01
 10
492.1823026968547
 20
-580.4779251459169
 30
0.0
 11
492.2017655916385
 21
-580.4495814532675
 31
0.0
  0
LINE
  5
26C7F
  8
01
 10
492.2017655916385
 20
-580.4495814532675
 30
0.0
 11
492.2221913705094
 21
-580.4219236018697
 31
0.0
  0
LINE
  5
26C80
  8
01
 10
492.2221913705094
 20
-580.4219236018697
 30
0.0
 11
492.2435558867388
 21
-580.3949842879833
 31
0.0
  0
LINE
  5
26C81
  8
01
 10
492.2435558867388
 20
-580.3949842879833
 30
0.0
 11
492.2658338838552
 21
-580.3687953584351
 31
0.0
  0
LINE
  5
26C82
  8
01
 10
492.2658338838552
 20
-580.3687953584351
 30
0.0
 11
492.2889990254968
 21
-580.3433877729708
 31
0.0
  0
LINE
  5
26C83
  8
01
 10
492.2889990254968
 20
-580.3433877729708
 30
0.0
 11
492.5206504419117
 21
-580.0893119183261
 31
0.0
  0
LINE
  5
26C84
  8
01
 10
492.5206504419117
 20
-580.0893119183261
 30
0.0
 11
492.7434304130762
 21
-579.8274226228443
 31
0.0
  0
LINE
  5
26C85
  8
01
 10
492.7434304130762
 20
-579.8274226228443
 30
0.0
 11
492.9570755753745
 21
-579.5580294839809
 31
0.0
  0
LINE
  5
26C86
  8
01
 10
492.9570755753745
 20
-579.5580294839809
 30
0.0
 11
493.1613333640786
 21
-579.2814509700036
 31
0.0
  0
LINE
  5
26C87
  8
01
 10
493.1613333640786
 20
-579.2814509700036
 30
0.0
 11
493.3559623119241
 21
-578.9980140435091
 31
0.0
  0
LINE
  5
26C88
  8
01
 10
493.3559623119241
 20
-578.9980140435091
 30
0.0
 11
493.5407323345668
 21
-578.7080537748983
 31
0.0
  0
LINE
  5
26C89
  8
01
 10
493.5407323345668
 20
-578.7080537748983
 30
0.0
 11
493.7154250025793
 21
-578.411912946266
 31
0.0
  0
LINE
  5
26C8A
  8
01
 10
493.7154250025793
 20
-578.411912946266
 30
0.0
 11
493.879833799671
 21
-578.1099416461748
 31
0.0
  0
LINE
  5
26C8B
  8
01
 10
493.879833799671
 20
-578.1099416461748
 30
0.0
 11
494.0337643668296
 21
-577.8024968557907
 31
0.0
  0
LINE
  5
26C8C
  8
01
 10
494.0337643668296
 20
-577.8024968557907
 30
0.0
 11
494.1770347320822
 21
-577.4899420268713
 31
0.0
  0
LINE
  5
26C8D
  8
01
 10
494.1770347320822
 20
-577.4899420268713
 30
0.0
 11
494.3094755256158
 21
-577.1726466521046
 31
0.0
  0
LINE
  5
26C8E
  8
01
 10
494.3094755256158
 20
-577.1726466521046
 30
0.0
 11
494.4309301800064
 21
-576.8509858283056
 31
0.0
  0
LINE
  5
26C8F
  8
01
 10
494.4309301800064
 20
-576.8509858283056
 30
0.0
 11
494.5412551153037
 21
-576.5253398129887
 31
0.0
  0
LINE
  5
26C90
  8
01
 10
494.5412551153037
 20
-576.5253398129887
 30
0.0
 11
494.6403199087687
 21
-576.1960935748388
 31
0.0
  0
LINE
  5
26C91
  8
01
 10
494.6403199087687
 20
-576.1960935748388
 30
0.0
 11
494.7280074490551
 21
-575.8636363386133
 31
0.0
  0
LINE
  5
26C92
  8
01
 10
494.7280074490551
 20
-575.8636363386133
 30
0.0
 11
494.8042140746553
 21
-575.5283611250129
 31
0.0
  0
LINE
  5
26C93
  8
01
 10
494.8042140746553
 20
-575.5283611250129
 30
0.0
 11
494.8688496964438
 21
-575.1906642860639
 31
0.0
  0
LINE
  5
26C94
  8
01
 10
494.8688496964438
 20
-575.1906642860639
 30
0.0
 11
494.921837904181
 21
-574.8509450365636
 31
0.0
  0
LINE
  5
26C95
  8
01
 10
494.921837904181
 20
-574.8509450365636
 30
0.0
 11
494.9631160568402
 21
-574.5096049821411
 31
0.0
  0
LINE
  5
26C96
  8
01
 10
494.9631160568402
 20
-574.5096049821411
 30
0.0
 11
494.9926353566613
 21
-574.1670476444906
 31
0.0
  0
LINE
  5
26C97
  8
01
 10
494.9926353566613
 20
-574.1670476444906
 30
0.0
 11
495.0103609068379
 21
-573.8236779843412
 31
0.0
  0
LINE
  5
26C98
  8
01
 10
495.0103609068379
 20
-573.8236779843412
 30
0.0
 11
495.0162717527697
 21
-573.4799019227246
 31
0.0
  0
LINE
  5
26C99
  8
01
 10
495.0162717527697
 20
-573.4799019227246
 30
0.0
 11
495.0162717527697
 21
-565.1213303512673
 31
0.0
  0
LINE
  5
26C9A
  8
01
 10
505.0162717527697
 20
-565.1213303512673
 30
0.0
 11
505.0162717527697
 21
-573.4799019227246
 31
0.0
  0
LINE
  5
26C9B
  8
01
 10
505.0162717527697
 20
-573.4799019227246
 30
0.0
 11
505.0221825987015
 21
-573.8236779843411
 31
0.0
  0
LINE
  5
26C9C
  8
01
 10
505.0221825987015
 20
-573.8236779843411
 30
0.0
 11
505.0399081488773
 21
-574.1670476444906
 31
0.0
  0
LINE
  5
26C9D
  8
01
 10
505.0399081488773
 20
-574.1670476444906
 30
0.0
 11
505.0694274486983
 21
-574.5096049821411
 31
0.0
  0
LINE
  5
26C9E
  8
01
 10
505.0694274486983
 20
-574.5096049821411
 30
0.0
 11
505.1107056013576
 21
-574.8509450365636
 31
0.0
  0
LINE
  5
26C9F
  8
01
 10
505.1107056013576
 20
-574.8509450365636
 30
0.0
 11
505.1636938090948
 21
-575.1906642860639
 31
0.0
  0
LINE
  5
26CA0
  8
01
 10
505.1636938090948
 20
-575.1906642860639
 30
0.0
 11
505.2283294308842
 21
-575.5283611250129
 31
0.0
  0
LINE
  5
26CA1
  8
01
 10
505.2283294308842
 20
-575.5283611250129
 30
0.0
 11
505.3045360564844
 21
-575.8636363386133
 31
0.0
  0
LINE
  5
26CA2
  8
01
 10
505.3045360564844
 20
-575.8636363386133
 30
0.0
 11
505.3922235967708
 21
-576.1960935748388
 31
0.0
  0
LINE
  5
26CA3
  8
01
 10
505.3922235967708
 20
-576.1960935748388
 30
0.0
 11
505.4912883902358
 21
-576.5253398129887
 31
0.0
  0
LINE
  5
26CA4
  8
01
 10
505.4912883902358
 20
-576.5253398129887
 30
0.0
 11
505.6016133255331
 21
-576.8509858283056
 31
0.0
  0
LINE
  5
26CA5
  8
01
 10
505.6016133255331
 20
-576.8509858283056
 30
0.0
 11
505.7230679799237
 21
-577.1726466521046
 31
0.0
  0
LINE
  5
26CA6
  8
01
 10
505.7230679799237
 20
-577.1726466521046
 30
0.0
 11
505.8555087734572
 21
-577.4899420268713
 31
0.0
  0
LINE
  5
26CA7
  8
01
 10
505.8555087734572
 20
-577.4899420268713
 30
0.0
 11
505.998779138709
 21
-577.8024968557907
 31
0.0
  0
LINE
  5
26CA8
  8
01
 10
505.998779138709
 20
-577.8024968557907
 30
0.0
 11
506.1527097058676
 21
-578.1099416461748
 31
0.0
  0
LINE
  5
26CA9
  8
01
 10
506.1527097058676
 20
-578.1099416461748
 30
0.0
 11
506.3171185029602
 21
-578.411912946266
 31
0.0
  0
LINE
  5
26CAA
  8
01
 10
506.3171185029602
 20
-578.411912946266
 30
0.0
 11
506.4918111709727
 21
-578.7080537748982
 31
0.0
  0
LINE
  5
26CAB
  8
01
 10
506.4918111709727
 20
-578.7080537748982
 30
0.0
 11
506.6765811936144
 21
-578.9980140435091
 31
0.0
  0
LINE
  5
26CAC
  8
01
 10
506.6765811936144
 20
-578.9980140435091
 30
0.0
 11
506.8712101414609
 21
-579.2814509700036
 31
0.0
  0
LINE
  5
26CAD
  8
01
 10
506.8712101414609
 20
-579.2814509700036
 30
0.0
 11
507.0754679301641
 21
-579.5580294839809
 31
0.0
  0
LINE
  5
26CAE
  8
01
 10
507.0754679301641
 20
-579.5580294839809
 30
0.0
 11
507.2891130924633
 21
-579.8274226228443
 31
0.0
  0
LINE
  5
26CAF
  8
01
 10
507.2891130924633
 20
-579.8274226228443
 30
0.0
 11
507.5118930636278
 21
-580.0893119183261
 31
0.0
  0
LINE
  5
26CB0
  8
01
 10
507.5118930636278
 20
-580.0893119183261
 30
0.0
 11
507.7435444800418
 21
-580.3433877729708
 31
0.0
  0
LINE
  5
26CB1
  8
01
 10
507.7435444800418
 20
-580.3433877729708
 30
0.0
 11
507.7667096216834
 21
-580.3687953584352
 31
0.0
  0
LINE
  5
26CB2
  8
01
 10
507.7667096216834
 20
-580.3687953584352
 30
0.0
 11
507.7889876187998
 21
-580.3949842879833
 31
0.0
  0
LINE
  5
26CB3
  8
01
 10
507.7889876187998
 20
-580.3949842879833
 30
0.0
 11
507.81035213503
 21
-580.4219236018697
 31
0.0
  0
LINE
  5
26CB4
  8
01
 10
507.81035213503
 20
-580.4219236018697
 30
0.0
 11
507.8307779139001
 21
-580.4495814532675
 31
0.0
  0
LINE
  5
26CB5
  8
01
 10
507.8307779139001
 20
-580.4495814532675
 30
0.0
 11
507.8502408086848
 21
-580.4779251459169
 31
0.0
  0
LINE
  5
26CB6
  8
01
 10
507.8502408086848
 20
-580.4779251459169
 30
0.0
 11
507.8687178109491
 21
-580.506921172778
 31
0.0
  0
LINE
  5
26CB7
  8
01
 10
507.8687178109491
 20
-580.506921172778
 30
0.0
 11
507.8861870777506
 21
-580.5365352556412
 31
0.0
  0
LINE
  5
26CB8
  8
01
 10
507.8861870777506
 20
-580.5365352556412
 30
0.0
 11
507.9026279574597
 21
-580.5667323856503
 31
0.0
  0
LINE
  5
26CB9
  8
01
 10
507.9026279574597
 20
-580.5667323856503
 30
0.0
 11
507.9180210141755
 21
-580.5974768646887
 31
0.0
  0
LINE
  5
26CBA
  8
01
 10
507.9180210141755
 20
-580.5974768646887
 30
0.0
 11
507.9323480507006
 21
-580.6287323475807
 31
0.0
  0
LINE
  5
26CBB
  8
01
 10
507.9323480507006
 20
-580.6287323475807
 30
0.0
 11
507.9455921300538
 21
-580.6604618850573
 31
0.0
  0
LINE
  5
26CBC
  8
01
 10
507.9455921300538
 20
-580.6604618850573
 30
0.0
 11
507.9577375954929
 21
-580.6926279674373
 31
0.0
  0
LINE
  5
26CBD
  8
01
 10
507.9577375954929
 20
-580.6926279674373
 30
0.0
 11
507.9687700890232
 21
-580.7251925689689
 31
0.0
  0
LINE
  5
26CBE
  8
01
 10
507.9687700890232
 20
-580.7251925689689
 30
0.0
 11
507.9786765683699
 21
-580.7581171927839
 31
0.0
  0
LINE
  5
26CBF
  8
01
 10
507.9786765683699
 20
-580.7581171927839
 30
0.0
 11
507.987445322398
 21
-580.7913629164065
 31
0.0
  0
LINE
  5
26CC0
  8
01
 10
507.987445322398
 20
-580.7913629164065
 30
0.0
 11
507.9950659849579
 21
-580.8248904377665
 31
0.0
  0
LINE
  5
26CC1
  8
01
 10
507.9950659849579
 20
-580.8248904377665
 30
0.0
 11
508.0015295471372
 21
-580.8586601216614
 31
0.0
  0
LINE
  5
26CC2
  8
01
 10
508.0015295471372
 20
-580.8586601216614
 30
0.0
 11
508.0068283679108
 21
-580.8926320466114
 31
0.0
  0
LINE
  5
26CC3
  8
01
 10
508.0068283679108
 20
-580.8926320466114
 30
0.0
 11
508.0109561831765
 21
-580.9267660520536
 31
0.0
  0
LINE
  5
26CC4
  8
01
 10
508.0109561831765
 20
-580.9267660520536
 30
0.0
 11
508.0139081131589
 21
-580.9610217858187
 31
0.0
  0
LINE
  5
26CC5
  8
01
 10
508.0139081131589
 20
-580.9610217858187
 30
0.0
 11
508.0156806681767
 21
-580.9953587518337
 31
0.0
  0
LINE
  5
26CC6
  8
01
 10
508.0156806681767
 20
-580.9953587518337
 30
0.0
 11
508.0162717527697
 21
-581.0297363579953
 31
0.0
  0
LINE
  5
26CC7
  8
01
 10
508.0162717527697
 20
-581.0297363579953
 30
0.0
 11
508.0162717527697
 21
-581.6213303512675
 31
0.0
  0
LINE
  5
26CC8
  8
01
 10
508.0162717527697
 20
-581.6213303512675
 30
0.0
 11
508.015688775136
 21
-581.6554714614535
 31
0.0
  0
LINE
  5
26CC9
  8
01
 10
508.015688775136
 20
-581.6554714614535
 30
0.0
 11
508.0139405219603
 21
-581.6895727646322
 31
0.0
  0
LINE
  5
26CCA
  8
01
 10
508.0139405219603
 20
-581.6895727646322
 30
0.0
 11
508.0110290316276
 21
-581.7235945002096
 31
0.0
  0
LINE
  5
26CCB
  8
01
 10
508.0110290316276
 20
-581.7235945002096
 30
0.0
 11
508.0069576988059
 21
-581.7574970003639
 31
0.0
  0
LINE
  5
26CCC
  8
01
 10
508.0069576988059
 20
-581.7574970003639
 30
0.0
 11
508.0017312704864
 21
-581.7912407362962
 31
0.0
  0
LINE
  5
26CCD
  8
01
 10
508.0017312704864
 20
-581.7912407362962
 30
0.0
 11
507.9953558404519
 21
-581.8247863643202
 31
0.0
  0
LINE
  5
26CCE
  8
01
 10
507.9953558404519
 20
-581.8247863643202
 30
0.0
 11
507.9878388421672
 21
-581.8580947717339
 31
0.0
  0
LINE
  5
26CCF
  8
01
 10
507.9878388421672
 20
-581.8580947717339
 30
0.0
 11
507.9791890401171
 21
-581.8911271224246
 31
0.0
  0
LINE
  5
26CD0
  8
01
 10
507.9791890401171
 20
-581.8911271224246
 30
0.0
 11
507.9694165195839
 21
-581.9238449021486
 31
0.0
  0
LINE
  5
26CD1
  8
01
 10
507.9694165195839
 20
-581.9238449021486
 30
0.0
 11
507.958532674888
 21
-581.9562099634386
 31
0.0
  0
LINE
  5
26CD2
  8
01
 10
507.958532674888
 20
-581.9562099634386
 30
0.0
 11
507.9465501961073
 21
-581.9881845700806
 31
0.0
  0
LINE
  5
26CD3
  8
01
 10
507.9465501961073
 20
-581.9881845700806
 30
0.0
 11
507.9334830542754
 21
-582.0197314411138
 31
0.0
  0
LINE
  5
26CD4
  8
01
 10
507.9334830542754
 20
-582.0197314411138
 30
0.0
 11
507.9193464850938
 21
-582.0508137942976
 31
0.0
  0
LINE
  5
26CD5
  8
01
 10
507.9193464850938
 20
-582.0508137942976
 30
0.0
 11
507.9041569711723
 21
-582.0813953889987
 31
0.0
  0
LINE
  5
26CD6
  8
01
 10
507.9041569711723
 20
-582.0813953889987
 30
0.0
 11
507.8879322228028
 21
-582.1114405684456
 31
0.0
  0
LINE
  5
26CD7
  8
01
 10
507.8879322228028
 20
-582.1114405684456
 30
0.0
 11
507.8706911573159
 21
-582.1409143013029
 31
0.0
  0
LINE
  5
26CD8
  8
01
 10
507.8706911573159
 20
-582.1409143013029
 30
0.0
 11
507.852453877024
 21
-582.1697822225169
 31
0.0
  0
LINE
  5
26CD9
  8
01
 10
507.852453877024
 20
-582.1697822225169
 30
0.0
 11
507.8332416457803
 21
-582.1980106733824
 31
0.0
  0
LINE
  5
26CDA
  8
01
 10
507.8332416457803
 20
-582.1980106733824
 30
0.0
 11
507.8130768641855
 21
-582.2255667407886
 31
0.0
  0
LINE
  5
26CDB
  8
01
 10
507.8130768641855
 20
-582.2255667407886
 30
0.0
 11
507.7919830434736
 21
-582.2524182955937
 31
0.0
  0
LINE
  5
26CDC
  8
01
 10
507.7919830434736
 20
-582.2524182955937
 30
0.0
 11
507.7699847780965
 21
-582.2785340300856
 31
0.0
  0
LINE
  5
26CDD
  8
01
 10
507.7699847780965
 20
-582.2785340300856
 30
0.0
 11
507.7471077170472
 21
-582.3038834944862
 31
0.0
  0
LINE
  5
26CDE
  8
01
 10
507.7471077170472
 20
-582.3038834944862
 30
0.0
 11
507.7233785339564
 21
-582.3284371324542
 31
0.0
  0
LINE
  5
26CDF
  8
01
 10
507.7233785339564
 20
-582.3284371324542
 30
0.0
 11
507.6988248959884
 21
-582.3521663155457
 31
0.0
  0
LINE
  5
26CE0
  8
01
 10
507.6988248959884
 20
-582.3521663155457
 30
0.0
 11
507.6734754315872
 21
-582.3750433765949
 31
0.0
  0
LINE
  5
26CE1
  8
01
 10
507.6734754315872
 20
-582.3750433765949
 30
0.0
 11
507.647359697096
 21
-582.397041641972
 31
0.0
  0
LINE
  5
26CE2
  8
01
 10
507.647359697096
 20
-582.397041641972
 30
0.0
 11
507.620508142291
 21
-582.4181354626835
 31
0.0
  0
LINE
  5
26CE3
  8
01
 10
507.620508142291
 20
-582.4181354626835
 30
0.0
 11
507.5929520748847
 21
-582.438300244278
 31
0.0
  0
LINE
  5
26CE4
  8
01
 10
507.5929520748847
 20
-582.438300244278
 30
0.0
 11
507.5647236240189
 21
-582.4575124755222
 31
0.0
  0
LINE
  5
26CE5
  8
01
 10
507.5647236240189
 20
-582.4575124755222
 30
0.0
 11
507.5358557028054
 21
-582.475749755814
 31
0.0
  0
LINE
  5
26CE6
  8
01
 10
507.5358557028054
 20
-582.475749755814
 30
0.0
 11
507.5063819699477
 21
-582.4929908213003
 31
0.0
  0
LINE
  5
26CE7
  8
01
 10
507.5063819699477
 20
-582.4929908213003
 30
0.0
 11
507.4763367905003
 21
-582.50921556967
 31
0.0
  0
LINE
  5
26CE8
  8
01
 10
507.4763367905003
 20
-582.50921556967
 30
0.0
 11
507.4457551958
 21
-582.5244050835921
 31
0.0
  0
LINE
  5
26CE9
  8
01
 10
507.4457551958
 20
-582.5244050835921
 30
0.0
 11
507.4146728426155
 21
-582.538541652773
 31
0.0
  0
LINE
  5
26CEA
  8
01
 10
507.4146728426155
 20
-582.538541652773
 30
0.0
 11
507.3831259715822
 21
-582.5516087946054
 31
0.0
  0
LINE
  5
26CEB
  8
01
 10
507.3831259715822
 20
-582.5516087946054
 30
0.0
 11
507.3511513649406
 21
-582.5635912733864
 31
0.0
  0
LINE
  5
26CEC
  8
01
 10
507.3511513649406
 20
-582.5635912733864
 30
0.0
 11
507.3187863036507
 21
-582.5744751180816
 31
0.0
  0
LINE
  5
26CED
  8
01
 10
507.3187863036507
 20
-582.5744751180816
 30
0.0
 11
507.2860685239262
 21
-582.5842476386154
 31
0.0
  0
LINE
  5
26CEE
  8
01
 10
507.2860685239262
 20
-582.5842476386154
 30
0.0
 11
507.2530361732357
 21
-582.5928974406654
 31
0.0
  0
LINE
  5
26CEF
  8
01
 10
507.2530361732357
 20
-582.5928974406654
 30
0.0
 11
507.2197277658221
 21
-582.6004144389499
 31
0.0
  0
LINE
  5
26CF0
  8
01
 10
507.2197277658221
 20
-582.6004144389499
 30
0.0
 11
507.1861821377985
 21
-582.6067898689847
 31
0.0
  0
LINE
  5
26CF1
  8
01
 10
507.1861821377985
 20
-582.6067898689847
 30
0.0
 11
507.1524384018654
 21
-582.6120162973039
 31
0.0
  0
LINE
  5
26CF2
  8
01
 10
507.1524384018654
 20
-582.6120162973039
 30
0.0
 11
507.1185359017114
 21
-582.6160876301257
 31
0.0
  0
LINE
  5
26CF3
  8
01
 10
507.1185359017114
 20
-582.6160876301257
 30
0.0
 11
507.0845141661345
 21
-582.618999120458
 31
0.0
  0
LINE
  5
26CF4
  8
01
 10
507.0845141661345
 20
-582.618999120458
 30
0.0
 11
507.0504128629551
 21
-582.6207473736337
 31
0.0
  0
LINE
  5
26CF5
  8
01
 10
507.0504128629551
 20
-582.6207473736337
 30
0.0
 11
507.0162717527697
 21
-582.6213303512675
 31
0.0
  0
LINE
  5
26CF6
  8
01
 10
507.0162717527697
 20
-582.6213303512675
 30
0.0
 11
493.0162717527697
 21
-582.6213303512675
 31
0.0
  0
LINE
  5
26CF7
  8
01
 10
503.516271752637
 20
-565.1213303512674
 30
0.0
 11
505.0162717527697
 21
-565.1213303512674
 31
0.0
  0
LINE
  5
26CF8
  8
01
 10
503.516271752637
 20
-563.1213303512675
 30
0.0
 11
503.516271752637
 21
-565.1213303512673
 31
0.0
  0
LINE
  5
26CF9
  8
01
 10
496.5162717529025
 20
-565.1213303512673
 30
0.0
 11
496.5162717529025
 21
-563.121330351267
 31
0.0
  0
ARC
  5
26CFA
  8
01
 10
-619.7162418850836
 20
-606.1213303510789
 30
0.0
 40
0.2999997302811152
 50
179.9079458088544
 51
180.0000000358258
210
0.0
220
0.0
230
-1.0
  0
ARC
  5
26CFB
  8
01
 10
619.7162416181651
 20
-607.5213303540663
 30
0.0
 40
0.2999999972000751
 50
269.9999994651756
 51
359.9999999382711
  0
ARC
  5
26CFC
  8
01
 10
-380.3162416125657
 20
-607.5213303540661
 30
0.0
 40
0.2999999972003593
 50
269.9999994653493
 51
359.9999999382277
210
0.0
220
0.0
230
-1.0
  0
ARC
  5
26CFD
  8
01
 10
-619.7162416153648
 20
-556.1213303512662
 30
0.0
 40
0.2999999999998408
 50
90.0
 51
179.9999999999783
210
0.0
220
0.0
230
-1.0
  0
ARC
  5
26CFE
  8
01
 10
380.3162416153651
 20
-556.1213303512664
 30
0.0
 40
0.3000000000000114
 50
90.0
 51
180.0
  0
LINE
  5
26CFF
  8
01
 10
619.7162416153648
 20
-607.8213303512664
 30
0.0
 11
607.2121134935202
 21
-607.8213303512664
 31
0.0
  0
ARC
  5
26D00
  8
01
 10
-656.0894367924561
 20
-649.0696914473235
 30
0.0
 40
0.5000000000001299
 50
304.9920201986003
 51
34.99202019857147
210
0.0
220
0.0
230
-1.0
  0
ARC
  5
26D01
  8
01
 10
-656.0894367924561
 20
-649.0696914473235
 30
0.0
 40
0.5000000000001427
 50
214.9920201985821
 51
304.9920201986003
210
0.0
220
0.0
230
-1.0
  0
ARC
  5
26D02
  8
01
 10
-673.0894367924561
 20
-660.9696914473232
 30
0.0
 40
0.5000000000000764
 50
304.9920201986003
 51
34.99202019856079
210
0.0
220
0.0
230
-1.0
  0
ARC
  5
26D03
  8
01
 10
-673.0894367924561
 20
-660.9696914473232
 30
0.0
 40
0.5000000000000904
 50
214.9920201985714
 51
304.9920201986077
210
0.0
220
0.0
230
-1.0
  0
ARC
  5
26D04
  8
01
 10
-690.0894367924561
 20
-672.8696914473236
 30
0.0
 40
0.5000000000000298
 50
304.9920201986077
 51
34.93579096651307
210
0.0
220
0.0
230
-1.0
  0
ARC
  5
26D05
  8
01
 10
-690.0894367924561
 20
-672.8696914473236
 30
0.0
 40
0.5000000000000333
 50
214.9920201985608
 51
304.9920201986077
210
0.0
220
0.0
230
-1.0
  0
ARC
  5
26D06
  8
01
 10
-695.0894367924561
 20
-672.3213303512567
 30
0.0
 40
0.4999999999996589
 50
179.9999999999739
 51
270.0
210
0.0
220
0.0
230
-1.0
  0
ARC
  5
26D07
  8
01
 10
-695.0894367924561
 20
-656.3213303512565
 30
0.0
 40
0.4999999999998863
 50
179.999999999987
 51
270.0
210
0.0
220
0.0
230
-1.0
  0
LINE
  5
26D08
  8
01
 10
695.0894367924561
 20
-643.8213303512565
 30
0.0
 11
695.0894367924561
 21
-675.3213303512565
 31
0.0
  0
LINE
  5
26D09
  8
01
 10
694.1769437413027
 20
-675.730946311516
 30
0.0
 11
651.8027056202744
 21
-646.0689796267968
 31
0.0
  0
LINE
  5
26D0A
  8
01
 10
652.0894367924561
 20
-643.3213303512565
 30
0.0
 11
694.5894367924561
 21
-643.3213303512565
 31
0.0
  0
LINE
  5
26D0B
  8
01
 10
681.8411034591322
 20
-648.755552573479
 30
0.0
 11
682.2736034591312
 21
-648.7555247957011
 31
0.0
  0
LINE
  5
26D0C
  8
01
 10
651.5159744480927
 20
-646.4785955870661
 30
0.0
 11
693.8902125691206
 21
-676.1405622717854
 31
0.0
  0
LINE
  5
26D0D
  8
01
 10
695.5894367924561
 20
-675.3213303512663
 30
0.0
 11
695.5894367924561
 21
-643.8213303512663
 31
0.0
  0
LINE
  5
26D0E
  8
01
 10
694.5894367924561
 20
-642.8213303512663
 30
0.0
 11
652.0894367924561
 21
-642.8213303512663
 31
0.0
  0
ARC
  5
26D0F
  8
01
 10
-650.0894367924561
 20
-643.8213303512663
 30
0.0
 40
2.999999999999886
 50
0.0
 51
90.0
210
0.0
220
0.0
230
-1.0
  0
LINE
  5
26D10
  8
01
 10
650.0894367924561
 20
-640.8213303512663
 30
0.0
 11
698.789436792456
 21
-640.8213303512663
 31
0.0
  0
LINE
  5
26D11
  8
01
 10
699.0894367924561
 20
-641.1213303512664
 30
0.0
 11
699.0894367924561
 21
-680.5213303512663
 31
0.0
  0
LINE
  5
26D12
  8
01
 10
697.0119647583929
 20
-680.767099927422
 30
0.0
 11
648.3690497593666
 21
-646.717059428103
 31
0.0
  0
LINE
  5
26D13
  8
01
 10
691.9173980893088
 20
-677.3509199635054
 30
0.0
 11
686.4173980891469
 21
-673.5009199633917
 31
0.0
  0
ARC
  5
26D14
  8
01
 10
-655.289436792456
 20
-651.3451503872353
 30
0.0
 40
0.3000000000003493
 50
236.6982694360709
 51
304.9920201985605
210
0.0
220
0.0
230
-1.0
  0
LINE
  5
26D15
  8
01
 10
693.0894367924561
 20
-674.9696914473233
 30
0.0
 11
693.0894367924561
 21
-675.5799365268241
 31
0.0
  0
LINE
  5
26D16
  8
01
 10
686.2173980891353
 20
-673.3609199633836
 30
0.0
 11
660.6173980891467
 21
-655.4409199633914
 31
0.0
  0
ARC
  5
26D17
  8
01
 10
-695.0894367924561
 20
-648.3213303512567
 30
0.0
 40
0.4999999999997726
 50
179.9999999999739
 51
270.0
210
0.0
220
0.0
230
-1.0
  0
ARC
  5
26D18
  8
01
 10
-695.0894367924561
 20
-648.3213303512562
 30
0.0
 40
0.4999999999996874
 50
90.0
 51
179.9999999999609
210
0.0
220
0.0
230
-1.0
  0
LINE
  5
26D19
  8
01
 10
672.6390132641486
 20
-661.1867597433674
 30
0.0
 11
672.6934077735445
 21
-661.274914343221
 31
0.0
  0
LINE
  5
26D1A
  8
01
 10
695.4431007717653
 20
-672.674771589043
 30
0.0
 11
695.3910521691037
 21
-672.7201137066888
 31
0.0
  0
ARC
  5
26D1B
  8
01
 10
-695.0894367924561
 20
-672.3213303512563
 30
0.0
 40
0.4999999999998579
 50
90.0
 51
179.999999999987
210
0.0
220
0.0
230
-1.0
  0
ARC
  5
26D1C
  8
01
 10
-695.0894367924552
 20
-664.3213303512564
 30
0.0
 40
0.5000000000002274
 50
179.999999999987
 51
269.9999999998957
210
0.0
220
0.0
230
-1.0
  0
LINE
  5
26D1D
  8
01
 10
695.2114629069097
 20
-663.8364493066783
 30
0.0
 11
695.2740994377168
 21
-663.8567203199244
 31
0.0
  0
LINE
  5
26D1E
  8
01
 10
695.4429901830495
 20
-663.9677769606632
 30
0.0
 11
695.5255670020074
 21
-664.076809513051
 31
0.0
  0
LINE
  5
26D1F
  8
01
 10
695.3339576306612
 20
-663.8852001417051
 30
0.0
 11
695.4429901830486
 21
-663.9677769606632
 31
0.0
  0
ARC
  5
26D20
  8
01
 10
-695.0894367924561
 20
-664.3213303512565
 30
0.0
 40
0.5
 50
90.0
 51
180.0
210
0.0
220
0.0
230
-1.0
  0
LINE
  5
26D21
  8
01
 10
695.4429901830486
 20
-656.6748837418497
 30
0.0
 11
695.3911536803521
 21
-656.7200253061153
 31
0.0
  0
LINE
  5
26D22
  8
01
 10
695.3339576306612
 20
-656.7574605608078
 30
0.0
 11
695.3911548036463
 21
-656.7200265960049
 31
0.0
  0
ARC
  5
26D23
  8
01
 10
-690.0894367924561
 20
-643.3213303512562
 30
0.0
 40
0.4999999999997158
 50
90.0
 51
179.9999999999739
210
0.0
220
0.0
230
-1.0
  0
LINE
  5
26D24
  8
01
 10
689.6045557478778
 20
-643.1993042368023
 30
0.0
 11
689.6906534370241
 21
-643.0197149746091
 31
0.0
  0
ARC
  5
26D25
  8
01
 10
-690.0894367924561
 20
-643.3213303512566
 30
0.0
 40
0.5000000000002274
 50
0.0000000000130276
 51
90.0
210
0.0
220
0.0
230
-1.0
  0
ARC
  5
26D26
  8
01
 10
-673.097290451105
 20
-643.3212686674971
 30
0.0
 40
0.4999999999999298
 50
90.90000007517766
 51
180.0
210
0.0
220
0.0
230
-1.0
  0
LINE
  5
26D27
  8
01
 10
655.6124094065249
 20
-643.1992425530431
 30
0.0
 11
655.6985070956712
 21
-643.01965329085
 31
0.0
  0
ARC
  5
26D28
  8
01
 10
-656.0972904511032
 20
-643.3212686674972
 30
0.0
 40
0.4999999999998863
 50
0.0000000000130276
 51
89.11167428826444
210
0.0
220
0.0
230
-1.0
  0
ARC
  5
26D29
  8
01
 10
-692.7889607945222
 20
-677.5945121940701
 30
0.0
 40
0.3004769111465319
 50
251.1655644665841
 51
286.4221482382841
210
0.0
220
0.0
230
-1.0
  0
LINE
  5
26D2A
  8
01
 10
654.1811790241541
 20
-650.9310871878224
 30
0.0
 11
654.0894358891624
 21
-650.7151497814373
 31
0.0
  0
LINE
  5
26D2B
  8
01
 10
686.5894367924561
 20
-639.3213470557077
 30
0.0
 11
695.4894367924576
 21
-639.3213470557076
 31
0.0
  0
LINE
  5
26D2C
  8
01
 10
649.8394367924561
 20
-639.3213470557076
 30
0.0
 11
686.5894367924561
 21
-639.3213470557076
 31
0.0
  0
LINE
  5
26D2D
  8
01
 10
660.6173980891467
 20
-655.4409199633914
 30
0.0
 11
654.2173972255018
 21
-650.96091935884
 31
0.0
  0
LINE
  5
26D2E
  8
01
 10
695.4429901830486
 20
-648.6748837418497
 30
0.0
 11
695.3339576306612
 21
-648.7574605608078
 31
0.0
  0
LINE
  5
26D2F
  8
01
 10
695.5543309429872
 20
-648.5053777060374
 30
0.0
 11
695.4882201478881
 21
-648.6229457279038
 31
0.0
  0
LINE
  5
26D30
  8
01
 10
655.5897756773252
 20
-649.0880971536932
 30
0.0
 11
655.59075060639
 21
-649.0972823022331
 31
0.0
  0
LINE
  5
26D31
  8
01
 10
655.7956750744565
 20
-642.922485312065
 30
0.0
 11
655.7452563871161
 21
-642.9662024514299
 31
0.0
  0
LINE
  5
26D32
  8
01
 10
695.4430934522993
 20
-672.6747652119535
 30
0.0
 11
695.4880809993306
 21
-672.6231296162081
 31
0.0
  0
ARC
  5
26D33
  8
01
 10
-656.0972904511032
 20
-643.3212686674973
 30
0.0
 40
0.4999999999999737
 50
90.900000074448
 51
180.0
210
0.0
220
0.0
230
-1.0
  0
LINE
  5
26D34
  8
01
 10
655.5897756773252
 20
-649.0880971536932
 30
0.0
 11
655.5919215101653
 21
-649.0199064707965
 31
0.0
  0
LINE
  5
26D35
  8
01
 10
695.3339576306612
 20
-663.8852001417051
 30
0.0
 11
695.2740311405455
 21
-663.8566963756374
 31
0.0
  0
LINE
  5
26D36
  8
01
 10
655.7437370605098
 20
-642.9677152769041
 30
0.0
 11
655.7454170187207
 21
-642.9662522935319
 31
0.0
  0
LINE
  5
26D37
  8
01
 10
695.2114629069097
 20
-647.8364493066783
 30
0.0
 11
695.273484147237
 21
-647.8564362007253
 31
0.0
  0
LINE
  5
26D38
  8
01
 10
672.9738865802615
 20
-661.4561470446992
 30
0.0
 11
672.9113434599926
 21
-661.4368988583648
 31
0.0
  0
LINE
  5
26D39
  8
01
 10
689.6136566102882
 20
-673.0234224404772
 30
0.0
 11
689.5970450130476
 21
-672.9565841142781
 31
0.0
  0
LINE
  5
26D3A
  8
01
 10
690.364748692688
 20
-673.2870682046916
 30
0.0
 11
690.316126367276
 21
-673.31465596944
 31
0.0
  0
LINE
  5
26D3B
  8
01
 10
695.3910521691037
 20
-671.9225469958242
 30
0.0
 11
695.4429901830486
 21
-671.9677769606632
 31
0.0
  0
LINE
  5
26D3C
  8
01
 10
695.5255670020074
 20
-664.5658511894619
 30
0.0
 11
695.4882201478881
 21
-664.6229457279038
 31
0.0
  0
LINE
  5
26D3D
  8
01
 10
695.273484147237
 20
-656.7862245017876
 30
0.0
 11
695.3164217235858
 21
-656.7658014363053
 31
0.0
  0
LINE
  5
26D3E
  8
01
 10
655.7440424031242
 20
-642.9674112408378
 30
0.0
 11
655.7007490805449
 21
-643.0167117082339
 31
0.0
  0
LINE
  5
26D3F
  8
01
 10
655.9113434599926
 20
-649.5368988583651
 30
0.0
 11
655.9736514076253
 21
-649.5560996373115
 31
0.0
  0
LINE
  5
26D40
  8
01
 10
695.3910521691037
 20
-664.7201137066888
 30
0.0
 11
695.4429901830486
 21
-664.6748837418497
 31
0.0
  0
ARC
  5
26D41
  8
01
 10
-695.0894367924561
 20
-656.3213303512564
 30
0.0
 40
0.4999999999999432
 50
90.0
 51
179.999999999987
210
0.0
220
0.0
230
-1.0
  0
LINE
  5
26D42
  8
01
 10
689.7358834018628
 20
-642.9677769606632
 30
0.0
 11
689.7878214158086
 21
-642.9225469958242
 31
0.0
  0
ARC
  5
26D43
  8
01
 10
-673.097290451105
 20
-643.3212686674971
 30
0.0
 40
0.4999999999997726
 50
0.0000000000130276
 51
89.10459656088092
210
0.0
220
0.0
230
-1.0
  0
ARC
  5
26D44
  8
01
 10
-694.5894367924561
 20
-675.3213303512566
 30
0.0
 40
0.4999999999996589
 50
179.999999999987
 51
270.0
210
0.0
220
0.0
230
-1.0
  0
ARC
  5
26D45
  8
01
 10
-694.4636749134847
 20
-675.3213303512555
 30
0.0
 40
0.5000000000009663
 50
270.0000000001043
 51
304.9920201985331
210
0.0
220
0.0
230
-1.0
  0
ARC
  5
26D47
  8
01
 10
-694.5894367924561
 20
-643.8213303512565
 30
0.0
 40
0.4999999999999432
 50
90.0
 51
179.999999999987
210
0.0
220
0.0
230
-1.0
  0
ARC
  5
26D48
  8
01
 10
-652.0894367924561
 20
-643.8213303512567
 30
0.0
 40
0.5000000000002274
 50
0.0
 51
90.0
210
0.0
220
0.0
230
-1.0
  0
LINE
  5
26D49
  8
01
 10
694.5894367924561
 20
-675.8213303512565
 30
0.0
 11
694.4636749134838
 21
-675.8213303512565
 31
0.0
  0
LINE
  5
26D4A
  8
01
 10
651.5894367924561
 20
-645.6593636665373
 30
0.0
 11
651.5894367924561
 21
-643.8213303512566
 31
0.0
  0
LINE
  5
26D4B
  8
01
 10
690.6947145702338
 20
-646.321330351259
 30
0.0
 11
690.6947145702338
 21
-647.8051914623687
 31
0.0
  0
LINE
  5
26D4C
  8
01
 10
691.0894367924561
 20
-646.321330351259
 30
0.0
 11
690.6947145702338
 21
-646.321330351259
 31
0.0
  0
LINE
  5
26D4D
  8
01
 10
691.0894367924561
 20
-648.8213303512565
 30
0.0
 11
691.0894367924561
 21
-646.321330351259
 31
0.0
  0
LINE
  5
26D4E
  8
01
 10
689.7077701257908
 20
-648.7555247957011
 30
0.0
 11
689.7077701257908
 21
-647.2716914623693
 31
0.0
  0
LINE
  5
26D4F
  8
01
 10
689.3130479035685
 20
-648.7555247957011
 30
0.0
 11
689.7077701257908
 21
-648.7555247957011
 31
0.0
  0
LINE
  5
26D50
  8
01
 10
690.6947145702338
 20
-647.8051914623687
 30
0.0
 11
689.3130479035685
 21
-646.2555247957038
 31
0.0
  0
LINE
  5
26D51
  8
01
 10
689.7077701257908
 20
-647.2716914623693
 30
0.0
 11
691.0894367924561
 21
-648.8213303512565
 31
0.0
  0
LINE
  5
26D52
  8
01
 10
689.3130479035685
 20
-646.2555247957038
 30
0.0
 11
689.3130479035685
 21
-648.7555247957011
 31
0.0
  0
LINE
  5
26D53
  8
01
 10
678.9841590146902
 20
-646.321330351259
 30
0.0
 11
678.589436792468
 21
-646.321330351259
 31
0.0
  0
LINE
  5
26D54
  8
01
 10
678.9841590146902
 20
-647.4397470179246
 30
0.0
 11
678.9841590146902
 21
-646.321330351259
 31
0.0
  0
LINE
  5
26D55
  8
01
 10
678.9841590146902
 20
-648.7555247957011
 30
0.0
 11
678.9841590146902
 21
-647.4397470179246
 31
0.0
  0
LINE
  5
26D56
  8
01
 10
678.589436792468
 20
-648.7555247957011
 30
0.0
 11
678.9841590146902
 21
-648.7555247957011
 31
0.0
  0
LINE
  5
26D57
  8
01
 10
678.589436792468
 20
-646.321330351259
 30
0.0
 11
678.589436792468
 21
-648.7555247957011
 31
0.0
  0
LINE
  5
26D58
  8
01
 10
687.3788812369044
 20
-646.321330351259
 30
0.0
 11
687.3788812369044
 21
-648.0661860671107
 31
0.0
  0
LINE
  5
26D59
  8
01
 10
687.778881236904
 20
-646.321330351259
 30
0.0
 11
687.3788812369044
 21
-646.321330351259
 31
0.0
  0
LINE
  5
26D5A
  8
01
 10
687.778881236904
 20
-648.0661860671107
 30
0.0
 11
687.778881236904
 21
-646.321330351259
 31
0.0
  0
LINE
  5
26D5B
  8
01
 10
688.653881236904
 20
-646.321330351259
 30
0.0
 11
688.653881236904
 21
-648.0661860671107
 31
0.0
  0
LINE
  5
26D5C
  8
01
 10
689.0538812369036
 20
-646.321330351259
 30
0.0
 11
688.653881236904
 21
-646.321330351259
 31
0.0
  0
LINE
  5
26D5D
  8
01
 10
689.0538812369036
 20
-648.0661860671107
 30
0.0
 11
689.0538812369036
 21
-646.321330351259
 31
0.0
  0
ARC
  5
26D5E
  8
01
 10
688.223323752512
 20
-647.9867214845236
 30
0.0
 40
0.8481732028613297
 50
185.3758741552833
 51
303.4934647736353
  0
ARC
  5
26D5F
  8
01
 10
-688.216381236904
 20
-647.9742814661493
 30
0.0
 40
0.4470488851097569
 50
191.8634919280515
 51
348.1365080719485
210
0.0
220
0.0
230
-1.0
  0
ARC
  5
26D60
  8
01
 10
688.3288812369033
 20
-648.0661860671104
 30
0.0
 40
0.7250000000003742
 50
300.0000000000002
 51
0.000000000017969
  0
LINE
  5
26D61
  8
01
 10
684.8066590146841
 20
-646.321330351259
 30
0.0
 11
684.3924923480176
 21
-646.321330351259
 31
0.0
  0
LINE
  5
26D62
  8
01
 10
681.9311034591315
 20
-646.321330351259
 30
0.0
 11
681.516936792465
 21
-646.321330351259
 31
0.0
  0
LINE
  5
26D63
  8
01
 10
684.3924923480176
 20
-646.321330351259
 30
0.0
 11
683.7555479035741
 21
-647.8344692401465
 31
0.0
  0
LINE
  5
26D64
  8
01
 10
683.753881236908
 20
-648.8213303512565
 30
0.0
 11
684.8066590146841
 21
-646.321330351259
 31
0.0
  0
LINE
  5
26D65
  8
01
 10
683.1619367924636
 20
-647.2463859068138
 30
0.0
 11
683.753881236908
 21
-648.8213303512565
 31
0.0
  0
LINE
  5
26D66
  8
01
 10
682.569714570242
 20
-648.8213303512565
 30
0.0
 11
683.1619367924636
 21
-647.2463859068138
 31
0.0
  0
LINE
  5
26D67
  8
01
 10
681.516936792465
 20
-646.321330351259
 30
0.0
 11
682.569714570242
 21
-648.8213303512565
 31
0.0
  0
LINE
  5
26D68
  8
01
 10
682.5683256813531
 20
-647.8344692401465
 30
0.0
 11
681.9311034591315
 21
-646.321330351259
 31
0.0
  0
LINE
  5
26D69
  8
01
 10
683.1619367924636
 20
-646.2555525734813
 30
0.0
 11
682.5683256813531
 21
-647.8344692401465
 31
0.0
  0
LINE
  5
26D6A
  8
01
 10
683.7555479035741
 20
-647.8344692401465
 30
0.0
 11
683.1619367924636
 21
-646.2555525734813
 31
0.0
  0
LINE
  5
26D6B
  8
01
 10
681.3849923480216
 20
-647.73580257348
 30
0.0
 11
680.9255479035769
 21
-647.73580257348
 31
0.0
  0
LINE
  5
26D6C
  8
01
 10
680.3763812369111
 20
-646.321330351259
 30
0.0
 11
679.8722145702445
 21
-646.321330351259
 31
0.0
  0
LINE
  5
26D6D
  8
01
 10
680.7636034591328
 20
-648.097635906813
 30
0.0
 11
681.5469367924657
 21
-648.097635906813
 31
0.0
  0
LINE
  5
26D6E
  8
01
 10
680.9255479035769
 20
-647.73580257348
 30
0.0
 11
681.1552701257992
 21
-647.2221636845915
 31
0.0
  0
LINE
  5
26D6F
  8
01
 10
681.1552701257992
 20
-647.2221636845915
 30
0.0
 11
681.3849923480216
 21
-647.73580257348
 31
0.0
  0
LINE
  5
26D70
  8
01
 10
679.8722145702445
 20
-648.755552573479
 30
0.0
 11
680.469159014689
 21
-648.755552573479
 31
0.0
  0
LINE
  5
26D71
  8
01
 10
678.9841590146902
 20
-647.4397470179246
 30
0.0
 11
679.8722145702445
 21
-648.755552573479
 31
0.0
  0
LINE
  5
26D72
  8
01
 10
679.8722145702445
 20
-646.321330351259
 30
0.0
 11
678.9841590146902
 21
-647.4397470179246
 31
0.0
  0
LINE
  5
26D73
  8
01
 10
679.4733256813565
 20
-647.458691462369
 30
0.0
 11
680.3763812369111
 21
-646.321330351259
 31
0.0
  0
LINE
  5
26D74
  8
01
 10
680.1611034591338
 20
-648.4777470179238
 30
0.0
 11
679.4733256813565
 21
-647.458691462369
 31
0.0
  0
LINE
  5
26D75
  8
01
 10
681.1552701257992
 20
-646.2555525734813
 30
0.0
 11
680.1611034591338
 21
-648.4777470179238
 31
0.0
  0
LINE
  5
26D76
  8
01
 10
682.2736034591312
 20
-648.7555247957011
 30
0.0
 11
681.1552701257992
 21
-646.2555525734813
 31
0.0
  0
LINE
  5
26D77
  8
01
 10
681.5469367924657
 20
-648.097635906813
 30
0.0
 11
681.8411034591322
 21
-648.755552573479
 31
0.0
  0
LINE
  5
26D78
  8
01
 10
680.469159014689
 20
-648.755552573479
 30
0.0
 11
680.7636034591328
 21
-648.097635906813
 31
0.0
  0
LINE
  5
26D79
  8
01
 10
685.3652701257947
 20
-647.73580257348
 30
0.0
 11
684.905825681351
 21
-647.73580257348
 31
0.0
  0
LINE
  5
26D7A
  8
01
 10
686.4788812369047
 20
-648.3713303512591
 30
0.0
 11
686.0821003836486
 21
-648.3713303512592
 31
0.0
  0
LINE
  5
26D7B
  8
01
 10
686.7288812369047
 20
-646.321330351259
 30
0.0
 11
686.7288812369047
 21
-648.1213303512591
 31
0.0
  0
LINE
  5
26D7C
  8
01
 10
687.1288812369044
 20
-646.321330351259
 30
0.0
 11
686.7288812369047
 21
-646.321330351259
 31
0.0
  0
LINE
  5
26D7D
  8
01
 10
687.1288812369044
 20
-648.0963303512591
 30
0.0
 11
687.1288812369044
 21
-646.321330351259
 31
0.0
  0
LINE
  5
26D7E
  8
01
 10
685.8172578113913
 20
-648.7463303512591
 30
0.0
 11
686.4788812369047
 21
-648.7463303512591
 31
0.0
  0
LINE
  5
26D7F
  8
01
 10
684.7438812369069
 20
-648.097635906813
 30
0.0
 11
685.5272145702388
 21
-648.097635906813
 31
0.0
  0
LINE
  5
26D80
  8
01
 10
684.0169367924632
 20
-648.7555247957011
 30
0.0
 11
684.4494367924622
 21
-648.7555247957011
 31
0.0
  0
LINE
  5
26D81
  8
01
 10
684.905825681351
 20
-647.73580257348
 30
0.0
 11
685.1355479035724
 21
-647.2221636845915
 31
0.0
  0
LINE
  5
26D82
  8
01
 10
685.1355479035724
 20
-647.2221636845915
 30
0.0
 11
685.3652701257947
 21
-647.73580257348
 31
0.0
  0
LINE
  5
26D83
  8
01
 10
685.1355479035724
 20
-646.2555525734813
 30
0.0
 11
684.0169367924632
 21
-648.7555247957011
 31
0.0
  0
LINE
  5
26D84
  8
01
 10
686.0821003836486
 20
-648.3713303512592
 30
0.0
 11
685.1355479035724
 21
-646.2555525734813
 31
0.0
  0
ARC
  5
26D85
  8
01
 10
-686.4788812369047
 20
-648.1213303512591
 30
0.0
 40
0.25
 50
180.0
 51
270.0
210
0.0
220
0.0
230
-1.0
  0
ARC
  5
26D86
  8
01
 10
686.4788812369038
 20
-648.096330351259
 30
0.0
 40
0.6500000000001194
 50
270.0000000000801
 51
0.0000000000100212
  0
LINE
  5
26D87
  8
01
 10
685.5272145702388
 20
-648.097635906813
 30
0.0
 11
685.8172578113913
 21
-648.7463303512591
 31
0.0
  0
LINE
  5
26D88
  8
01
 10
684.4494367924622
 20
-648.7555247957011
 30
0.0
 11
684.7438812369069
 21
-648.097635906813
 31
0.0
  0
LINE
  5
26D89
  8
01
 10
693.0894367924561
 20
-642.8213303512663
 30
0.0
 11
693.0894367924561
 21
-643.3213303512565
 31
0.0
  0
LINE
  5
26D8A
  8
01
 10
654.0894367924561
 20
-643.3211197186531
 30
0.0
 11
654.0894367924561
 21
-642.8213303512663
 31
0.0
  0
LINE
  5
26D8B
  8
01
 10
693.5918024555472
 20
-675.3213303512663
 30
0.0
 11
693.0894367924561
 21
-675.3213303512663
 31
0.0
  0
LINE
  5
26D8C
  8
01
 10
695.0898218918651
 20
-668.3213303512663
 30
0.0
 11
695.5894367924561
 21
-668.3213303512663
 31
0.0
  0
LINE
  5
26D8D
  8
01
 10
693.6554666721845
 20
-643.3213303512566
 30
0.0
 11
693.789436792456
 21
-642.8213470557085
 31
0.0
  0
LINE
  5
26D8E
  8
01
 10
691.1608468516793
 20
-676.8213303512538
 30
0.0
 11
681.4308652209979
 21
-676.8213303512538
 31
0.0
  0
LINE
  5
26D8F
  8
01
 10
681.4308652209979
 20
-676.8213303512538
 30
0.0
 11
681.0870891593809
 21
-676.8272411971858
 31
0.0
  0
LINE
  5
26D90
  8
01
 10
681.0870891593809
 20
-676.8272411971858
 30
0.0
 11
680.7437194992312
 21
-676.8449667473618
 31
0.0
  0
LINE
  5
26D91
  8
01
 10
680.7437194992312
 20
-676.8449667473618
 30
0.0
 11
680.4011621615814
 21
-676.8744860471828
 31
0.0
  0
LINE
  5
26D92
  8
01
 10
680.4011621615814
 20
-676.8744860471828
 30
0.0
 11
680.0598221071582
 21
-676.915764199842
 31
0.0
  0
LINE
  5
26D93
  8
01
 10
680.0598221071582
 20
-676.915764199842
 30
0.0
 11
679.7201028576587
 21
-676.9687524075792
 31
0.0
  0
LINE
  5
26D94
  8
01
 10
679.7201028576587
 20
-676.9687524075792
 30
0.0
 11
679.3824060187094
 21
-677.033388029368
 31
0.0
  0
LINE
  5
26D95
  8
01
 10
679.3824060187094
 20
-677.033388029368
 30
0.0
 11
679.0471308051087
 21
-677.1095946549681
 31
0.0
  0
LINE
  5
26D96
  8
01
 10
679.0471308051087
 20
-677.1095946549681
 30
0.0
 11
678.7146735688834
 21
-677.1972821952548
 31
0.0
  0
LINE
  5
26D97
  8
01
 10
678.7146735688834
 20
-677.1972821952548
 30
0.0
 11
678.3854273307338
 21
-677.29634698872
 31
0.0
  0
LINE
  5
26D98
  8
01
 10
678.3854273307338
 20
-677.29634698872
 30
0.0
 11
678.0597813154168
 21
-677.4066719240174
 31
0.0
  0
LINE
  5
26D99
  8
01
 10
678.0597813154168
 20
-677.4066719240174
 30
0.0
 11
677.7381204916178
 21
-677.5281265784079
 31
0.0
  0
LINE
  5
26D9A
  8
01
 10
677.7381204916178
 20
-677.5281265784079
 30
0.0
 11
677.4208251168507
 21
-677.6605673719415
 31
0.0
  0
LINE
  5
26D9B
  8
01
 10
677.4208251168507
 20
-677.6605673719415
 30
0.0
 11
677.1082702879316
 21
-677.8038377371934
 31
0.0
  0
LINE
  5
26D9C
  8
01
 10
677.1082702879316
 20
-677.8038377371934
 30
0.0
 11
676.8008254975471
 21
-677.957768304352
 31
0.0
  0
LINE
  5
26D9D
  8
01
 10
676.8008254975471
 20
-677.957768304352
 30
0.0
 11
676.4988541974567
 21
-678.1221771014444
 31
0.0
  0
LINE
  5
26D9E
  8
01
 10
676.4988541974567
 20
-678.1221771014444
 30
0.0
 11
676.2027133688239
 21
-678.2968697694565
 31
0.0
  0
LINE
  5
26D9F
  8
01
 10
676.2027133688239
 20
-678.2968697694565
 30
0.0
 11
675.9127531002127
 21
-678.481639792099
 31
0.0
  0
LINE
  5
26DA0
  8
01
 10
675.9127531002127
 20
-678.481639792099
 30
0.0
 11
675.629316173719
 21
-678.6762687399448
 31
0.0
  0
LINE
  5
26DA1
  8
01
 10
675.629316173719
 20
-678.6762687399448
 30
0.0
 11
675.3527376597417
 21
-678.8805265286487
 31
0.0
  0
LINE
  5
26DA2
  8
01
 10
675.3527376597417
 20
-678.8805265286487
 30
0.0
 11
675.0833445208777
 21
-679.0941716909471
 31
0.0
  0
LINE
  5
26DA3
  8
01
 10
675.0833445208777
 20
-679.0941716909471
 30
0.0
 11
674.8214552253962
 21
-679.3169516621119
 31
0.0
  0
LINE
  5
26DA4
  8
01
 10
674.8214552253962
 20
-679.3169516621119
 30
0.0
 11
674.5673793707515
 21
-679.5486030785263
 31
0.0
  0
LINE
  5
26DA5
  8
01
 10
674.5673793707515
 20
-679.5486030785263
 30
0.0
 11
674.5419717852869
 21
-679.5717682201678
 31
0.0
  0
LINE
  5
26DA6
  8
01
 10
674.5419717852869
 20
-679.5717682201678
 30
0.0
 11
674.515782855739
 21
-679.5940462172842
 31
0.0
  0
LINE
  5
26DA7
  8
01
 10
674.515782855739
 20
-679.5940462172842
 30
0.0
 11
674.4888435418529
 21
-679.6154107335141
 31
0.0
  0
LINE
  5
26DA8
  8
01
 10
674.4888435418529
 20
-679.6154107335141
 30
0.0
 11
674.4611856904544
 21
-679.6358365123846
 31
0.0
  0
LINE
  5
26DA9
  8
01
 10
674.4611856904544
 20
-679.6358365123846
 30
0.0
 11
674.4328419978051
 21
-679.6552994071691
 31
0.0
  0
LINE
  5
26DAA
  8
01
 10
674.4328419978051
 20
-679.6552994071691
 30
0.0
 11
674.4038459709441
 21
-679.6737764094333
 31
0.0
  0
LINE
  5
26DAB
  8
01
 10
674.4038459709441
 20
-679.6737764094333
 30
0.0
 11
674.3742318880809
 21
-679.6912456762346
 31
0.0
  0
LINE
  5
26DAC
  8
01
 10
674.3742318880809
 20
-679.6912456762346
 30
0.0
 11
674.3440347580722
 21
-679.7076865559438
 31
0.0
  0
LINE
  5
26DAD
  8
01
 10
674.3440347580722
 20
-679.7076865559438
 30
0.0
 11
674.3132902790335
 21
-679.7230796126597
 31
0.0
  0
LINE
  5
26DAE
  8
01
 10
674.3132902790335
 20
-679.7230796126597
 30
0.0
 11
674.2820347961419
 21
-679.7374066491849
 31
0.0
  0
LINE
  5
26DAF
  8
01
 10
674.2820347961419
 20
-679.7374066491849
 30
0.0
 11
674.2503052586649
 21
-679.7506507285383
 31
0.0
  0
LINE
  5
26DB0
  8
01
 10
674.2503052586649
 20
-679.7506507285383
 30
0.0
 11
674.2181391762847
 21
-679.7627961939774
 31
0.0
  0
LINE
  5
26DB1
  8
01
 10
674.2181391762847
 20
-679.7627961939774
 30
0.0
 11
674.185574574753
 21
-679.7738286875071
 31
0.0
  0
LINE
  5
26DB2
  8
01
 10
674.185574574753
 20
-679.7738286875071
 30
0.0
 11
674.1526499509387
 21
-679.7837351668537
 31
0.0
  0
LINE
  5
26DB3
  8
01
 10
674.1526499509387
 20
-679.7837351668537
 30
0.0
 11
674.119404227316
 21
-679.7925039208824
 31
0.0
  0
LINE
  5
26DB4
  8
01
 10
674.119404227316
 20
-679.7925039208824
 30
0.0
 11
674.0858767059558
 21
-679.8001245834423
 31
0.0
  0
LINE
  5
26DB5
  8
01
 10
674.0858767059558
 20
-679.8001245834423
 30
0.0
 11
674.0521070220607
 21
-679.8065881456213
 31
0.0
  0
LINE
  5
26DB6
  8
01
 10
674.0521070220607
 20
-679.8065881456213
 30
0.0
 11
674.0181350971111
 21
-679.8118869663949
 31
0.0
  0
LINE
  5
26DB7
  8
01
 10
674.0181350971111
 20
-679.8118869663949
 30
0.0
 11
673.9840010916682
 21
-679.8160147816609
 31
0.0
  0
LINE
  5
26DB8
  8
01
 10
673.9840010916682
 20
-679.8160147816609
 30
0.0
 11
673.9497453579038
 21
-679.8189667116429
 31
0.0
  0
LINE
  5
26DB9
  8
01
 10
673.9497453579038
 20
-679.8189667116429
 30
0.0
 11
673.9154083918888
 21
-679.8207392666606
 31
0.0
  0
LINE
  5
26DBA
  8
01
 10
673.9154083918888
 20
-679.8207392666606
 30
0.0
 11
673.881030785727
 21
-679.8213303512538
 31
0.0
  0
LINE
  5
26DBB
  8
01
 10
673.881030785727
 20
-679.8213303512538
 30
0.0
 11
673.289436792455
 21
-679.8213303512538
 31
0.0
  0
LINE
  5
26DBC
  8
01
 10
673.289436792455
 20
-679.8213303512538
 30
0.0
 11
673.2552956822688
 21
-679.82074737362
 31
0.0
  0
LINE
  5
26DBD
  8
01
 10
673.2552956822688
 20
-679.82074737362
 30
0.0
 11
673.2211943790903
 21
-679.8189991204442
 31
0.0
  0
LINE
  5
26DBE
  8
01
 10
673.2211943790903
 20
-679.8189991204442
 30
0.0
 11
673.1871726435124
 21
-679.8160876301118
 31
0.0
  0
LINE
  5
26DBF
  8
01
 10
673.1871726435124
 20
-679.8160876301118
 30
0.0
 11
673.1532701433584
 21
-679.8120162972901
 31
0.0
  0
LINE
  5
26DC0
  8
01
 10
673.1532701433584
 20
-679.8120162972901
 30
0.0
 11
673.1195264074263
 21
-679.8067898689709
 31
0.0
  0
LINE
  5
26DC1
  8
01
 10
673.1195264074263
 20
-679.8067898689709
 30
0.0
 11
673.0859807794018
 21
-679.8004144389361
 31
0.0
  0
LINE
  5
26DC2
  8
01
 10
673.0859807794018
 20
-679.8004144389361
 30
0.0
 11
673.0526723719881
 21
-679.7928974406517
 31
0.0
  0
LINE
  5
26DC3
  8
01
 10
673.0526723719881
 20
-679.7928974406517
 30
0.0
 11
673.0196400212976
 21
-679.7842476386015
 31
0.0
  0
LINE
  5
26DC4
  8
01
 10
673.0196400212976
 20
-679.7842476386015
 30
0.0
 11
672.9869222415732
 21
-679.7744751180679
 31
0.0
  0
LINE
  5
26DC5
  8
01
 10
672.9869222415732
 20
-679.7744751180679
 30
0.0
 11
672.9545571802832
 21
-679.7635912733726
 31
0.0
  0
LINE
  5
26DC6
  8
01
 10
672.9545571802832
 20
-679.7635912733726
 30
0.0
 11
672.9225825736416
 21
-679.7516087945916
 31
0.0
  0
LINE
  5
26DC7
  8
01
 10
672.9225825736416
 20
-679.7516087945916
 30
0.0
 11
672.8910357026084
 21
-679.7385416527593
 31
0.0
  0
LINE
  5
26DC8
  8
01
 10
672.8910357026084
 20
-679.7385416527593
 30
0.0
 11
672.8599533494248
 21
-679.7244050835783
 31
0.0
  0
LINE
  5
26DC9
  8
01
 10
672.8599533494248
 20
-679.7244050835783
 30
0.0
 11
672.8293717547235
 21
-679.7092155696562
 31
0.0
  0
LINE
  5
26DCA
  8
01
 10
672.8293717547235
 20
-679.7092155696562
 30
0.0
 11
672.7993265752762
 21
-679.6929908212866
 31
0.0
  0
LINE
  5
26DCB
  8
01
 10
672.7993265752762
 20
-679.6929908212866
 30
0.0
 11
672.7698528424194
 21
-679.6757497558003
 31
0.0
  0
LINE
  5
26DCC
  8
01
 10
672.7698528424194
 20
-679.6757497558003
 30
0.0
 11
672.7409849212058
 21
-679.6575124755085
 31
0.0
  0
LINE
  5
26DCD
  8
01
 10
672.7409849212058
 20
-679.6575124755085
 30
0.0
 11
672.7127564703401
 21
-679.6383002442642
 31
0.0
  0
LINE
  5
26DCE
  8
01
 10
672.7127564703401
 20
-679.6383002442642
 30
0.0
 11
672.6852004029338
 21
-679.6181354626697
 31
0.0
  0
LINE
  5
26DCF
  8
01
 10
672.6852004029338
 20
-679.6181354626697
 30
0.0
 11
672.6583488481288
 21
-679.5970416419582
 31
0.0
  0
LINE
  5
26DD0
  8
01
 10
672.6583488481288
 20
-679.5970416419582
 30
0.0
 11
672.6322331136366
 21
-679.5750433765811
 31
0.0
  0
LINE
  5
26DD1
  8
01
 10
672.6322331136366
 20
-679.5750433765811
 30
0.0
 11
672.6068836492364
 21
-679.552166315532
 31
0.0
  0
LINE
  5
26DD2
  8
01
 10
672.6068836492364
 20
-679.552166315532
 30
0.0
 11
672.5823300112684
 21
-679.5284371324403
 31
0.0
  0
LINE
  5
26DD3
  8
01
 10
672.5823300112684
 20
-679.5284371324403
 30
0.0
 11
672.5586008281766
 21
-679.5038834944725
 31
0.0
  0
LINE
  5
26DD4
  8
01
 10
672.5586008281766
 20
-679.5038834944725
 30
0.0
 11
672.5357237671274
 21
-679.4785340300717
 31
0.0
  0
LINE
  5
26DD5
  8
01
 10
672.5357237671274
 20
-679.4785340300717
 30
0.0
 11
672.5137255017503
 21
-679.4524182955798
 31
0.0
  0
LINE
  5
26DD6
  8
01
 10
672.5137255017503
 20
-679.4524182955798
 30
0.0
 11
672.4926316810383
 21
-679.4255667407749
 31
0.0
  0
LINE
  5
26DD7
  8
01
 10
672.4926316810383
 20
-679.4255667407749
 30
0.0
 11
672.4724668994445
 21
-679.3980106733686
 31
0.0
  0
LINE
  5
26DD8
  8
01
 10
672.4724668994445
 20
-679.3980106733686
 30
0.0
 11
672.4532546681999
 21
-679.3697822225031
 31
0.0
  0
LINE
  5
26DD9
  8
01
 10
672.4532546681999
 20
-679.3697822225031
 30
0.0
 11
672.4350173879079
 21
-679.3409143012892
 31
0.0
  0
LINE
  5
26DDA
  8
01
 10
672.4350173879079
 20
-679.3409143012892
 30
0.0
 11
672.417776322422
 21
-679.3114405684317
 31
0.0
  0
LINE
  5
26DDB
  8
01
 10
672.417776322422
 20
-679.3114405684317
 30
0.0
 11
672.4015515740525
 21
-679.281395388985
 31
0.0
  0
LINE
  5
26DDC
  8
01
 10
672.4015515740525
 20
-679.281395388985
 30
0.0
 11
672.3863620601301
 21
-679.2508137942839
 31
0.0
  0
LINE
  5
26DDD
  8
01
 10
672.3863620601301
 20
-679.2508137942839
 30
0.0
 11
672.3722254909494
 21
-679.2197314411
 31
0.0
  0
LINE
  5
26DDE
  8
01
 10
672.3722254909494
 20
-679.2197314411
 30
0.0
 11
672.3591583491166
 21
-679.1881845700668
 31
0.0
  0
LINE
  5
26DDF
  8
01
 10
672.3591583491166
 20
-679.1881845700668
 30
0.0
 11
672.3471758703358
 21
-679.1562099634248
 31
0.0
  0
LINE
  5
26DE0
  8
01
 10
672.3471758703358
 20
-679.1562099634248
 30
0.0
 11
672.3362920256409
 21
-679.1238449021348
 31
0.0
  0
LINE
  5
26DE1
  8
01
 10
672.3362920256409
 20
-679.1238449021348
 30
0.0
 11
672.3265195051067
 21
-679.0911271224107
 31
0.0
  0
LINE
  5
26DE2
  8
01
 10
672.3265195051067
 20
-679.0911271224107
 30
0.0
 11
672.3178697030567
 21
-679.0580947717202
 31
0.0
  0
LINE
  5
26DE3
  8
01
 10
672.3178697030567
 20
-679.0580947717202
 30
0.0
 11
672.310352704772
 21
-679.0247863643064
 31
0.0
  0
LINE
  5
26DE4
  8
01
 10
672.310352704772
 20
-679.0247863643064
 30
0.0
 11
672.3039772747375
 21
-678.9912407362824
 31
0.0
  0
LINE
  5
26DE5
  8
01
 10
672.3039772747375
 20
-678.9912407362824
 30
0.0
 11
672.298750846418
 21
-678.95749700035
 31
0.0
  0
LINE
  5
26DE6
  8
01
 10
672.298750846418
 20
-678.95749700035
 30
0.0
 11
672.2946795135963
 21
-678.9235945001958
 31
0.0
  0
LINE
  5
26DE7
  8
01
 10
672.2946795135963
 20
-678.9235945001958
 30
0.0
 11
672.2917680232645
 21
-678.8895727646184
 31
0.0
  0
LINE
  5
26DE8
  8
01
 10
672.2917680232645
 20
-678.8895727646184
 30
0.0
 11
672.2900197700887
 21
-678.8554714614397
 31
0.0
  0
LINE
  5
26DE9
  8
01
 10
672.2900197700887
 20
-678.8554714614397
 30
0.0
 11
672.289436792455
 21
-678.8213303512538
 31
0.0
  0
LINE
  5
26DEA
  8
01
 10
650.0795202190943
 20
-640.8213470557085
 30
0.0
 11
649.8394367924561
 21
-640.8213470557085
 31
0.0
  0
LINE
  5
26DEB
  8
01
 10
654.0894367924561
 20
-648.2800192281202
 30
0.0
 11
654.0894367924561
 21
-647.6696914473235
 31
0.0
  0
LINE
  5
26DEC
  8
01
 10
693.7902905448877
 20
-640.8213470557113
 30
0.0
 11
693.7897260659215
 21
-640.8213470557113
 31
0.0
  0
LINE
  5
26DED
  8
01
 10
672.289436792455
 20
-678.8213303512538
 30
0.0
 11
672.289436792455
 21
-664.8213303512536
 31
0.0
  0
ARC
  5
26DEE
  8
01
 10
-673.2894367924541
 20
-664.8213303512536
 30
0.0
 40
0.9999999999996589
 50
0.0000000000065138
 51
59.70020301817573
210
0.0
220
0.0
230
-1.0
  0
ARC
  5
26DEF
  8
01
 10
-698.789436792456
 20
-680.5213303512663
 30
0.0
 40
0.2999999999999545
 50
180.0
 51
270.0
210
0.0
220
0.0
230
-1.0
  0
ARC
  5
26DF0
  8
01
 10
-697.1840034617012
 20
-680.5213303512669
 30
0.0
 40
0.2999999999994216
 50
270.0
 51
304.9920201984804
210
0.0
220
0.0
230
-1.0
  0
ARC
  5
26DF1
  8
01
 10
694.4636749134838
 20
-675.3213303512665
 30
0.0
 40
0.9999999999998197
 50
235.0079798014461
 51
270.0
  0
LINE
  5
26DF2
  8
01
 10
694.4636749134838
 20
-676.3213303512663
 30
0.0
 11
694.5894367924561
 21
-676.3213303512663
 31
0.0
  0
ARC
  5
26DF3
  8
01
 10
694.5894367924561
 20
-675.3213303512663
 30
0.0
 40
1.0
 50
270.0
 51
0.0
  0
ARC
  5
26DF4
  8
01
 10
694.5894367924552
 20
-643.8213303512664
 30
0.0
 40
1.000000000000227
 50
0.0000000000065138
 51
89.99999999994789
  0
ARC
  5
26DF8
  8
01
 10
-650.0894367924561
 20
-644.2593636665467
 30
0.0
 40
2.999999999999888
 50
304.9920201985706
 51
0.0000000000021713
210
0.0
220
0.0
230
-1.0
  0
LINE
  5
26DF9
  8
01
 10
647.0894367924561
 20
-644.2593636665466
 30
0.0
 11
647.0894367924561
 21
-643.8213303512663
 31
0.0
  0
LINE
  5
26DFA
  8
01
 10
698.789436792456
 20
-680.8213303512663
 30
0.0
 11
697.1840034617012
 21
-680.8213303512663
 31
0.0
  0
ARC
  5
26DFB
  8
01
 10
-698.789436792456
 20
-641.1213303512662
 30
0.0
 40
0.2999999999998693
 50
90.0
 51
179.9999999999566
210
0.0
220
0.0
230
-1.0
  0
LINE
  5
26DFC
  8
01
 10
691.9173980945102
 20
-677.3509199671458
 30
0.0
 11
692.6173983197027
 21
-677.8409201247806
 31
0.0
  0
ARC
  5
26DFD
  8
01
 10
-654.389436792459
 20
-650.7151503872324
 30
0.0
 40
0.3000000000044823
 50
304.9920201986511
 51
313.9629096607673
210
0.0
220
0.0
230
-1.0
  0
ARC
  5
26DFE
  8
01
 10
-692.789436792455
 20
-677.5951503872366
 30
0.0
 40
0.2999999999993968
 50
286.5438072305104
 51
304.9920201984804
210
0.0
220
0.0
230
-1.0
  0
ARC
  5
26DFF
  8
01
 10
-645.8705564751531
 20
-642.4473059257092
 30
0.0
 40
0.299999999999752
 50
285.000000000009
 51
19.09604375802203
210
0.0
220
0.0
230
-1.0
  0
ARC
  5
26E00
  8
01
 10
-646.7427263223749
 20
-642.6810031319347
 30
0.0
 40
0.2999999999998255
 50
200.2159085703817
 51
285.0000000000034
210
0.0
220
0.0
230
-1.0
  0
ARC
  5
26E01
  8
01
 10
-695.4894367924558
 20
-640.5213470557086
 30
0.0
 40
0.2999999999999545
 50
180.0
 51
269.3953625978902
210
0.0
220
0.0
230
-1.0
  0
ARC
  5
26E02
  8
01
 10
-695.4894367924558
 20
-639.6213470557078
 30
0.0
 40
0.3000000000001393
 50
90.0
 51
179.9999999999783
210
0.0
220
0.0
230
-1.0
  0
LINE
  5
26E03
  8
01
 10
695.5894367924561
 20
-675.3213303512663
 30
0.0
 11
695.089571191414
 21
-675.3213303512663
 31
0.0
  0
ARC
  5
26E04
  8
01
 10
-649.8394367924561
 20
-643.8213470557085
 30
0.0
 40
4.499999999999983
 50
51.52994115600964
 51
90.0
210
0.0
220
0.0
230
-1.0
  0
ARC
  5
26E05
  8
01
 10
-649.8394366982006
 20
-643.8213469373094
 30
0.0
 40
4.499999848664716
 50
19.09604265249526
 51
51.52994115778105
210
0.0
220
0.0
230
-1.0
  0
LINE
  5
26E06
  8
01
 10
646.6650806088442
 20
-642.9707808798213
 30
0.0
 11
645.7929107616224
 21
-642.7370836735957
 31
0.0
  0
ARC
  5
26E07
  8
01
 10
-649.8396157691427
 20
-643.821494441421
 30
0.0
 40
3.000218882605001
 50
20.21736873019616
 51
64.24853282144944
210
0.0
220
0.0
230
-1.0
  0
ARC
  5
26E08
  8
01
 10
649.8394367924561
 20
-643.8213470557083
 30
0.0
 40
2.999999999999716
 50
90.0
 51
115.7496114198206
  0
LINE
  5
26E09
  8
01
 10
695.789436792456
 20
-639.6213470557077
 30
0.0
 11
695.789436792456
 21
-640.5213470557086
 31
0.0
  0
LINE
  5
26E0A
  8
01
 10
686.4173980891469
 20
-673.5009199633917
 30
0.0
 11
686.2173980891353
 21
-673.3609199633836
 31
0.0
  0
LINE
  5
26E0B
  8
01
 10
695.5543309429872
 20
-656.5053777060374
 30
0.0
 11
695.5255670020074
 21
-656.5658511894618
 31
0.0
  0
ARC
  5
26E0C
  8
01
 10
-395.2283316477693
 20
-640.552313465423
 30
0.0
 40
2.430280160521139
 50
267.9270006474206
 51
352.985466235124
210
0.0
220
0.0
230
-1.0
  0
ARC
  5
26E0D
  8
01
 10
-604.8041515829597
 20
-640.5523134654223
 30
0.0
 40
2.430280160521819
 50
187.0145337648822
 51
272.0729993525574
210
0.0
220
0.0
230
-1.0
  0
LINE
  5
26E0E
  8
01
 10
620.016241615365
 20
-641.1213303497047
 30
0.0
 11
620.016241615365
 21
-643.8213303513058
 31
0.0
  0
LINE
  5
26E0F
  8
01
 10
620.016241615365
 20
-646.4712898540904
 30
0.0
 11
620.016241615365
 21
-680.5213303512663
 31
0.0
  0
LINE
  5
26E10
  8
01
 10
380.0162416153649
 20
-641.1213303497047
 30
0.0
 11
380.0162416153649
 21
-643.8213303513058
 31
0.0
  0
LINE
  5
26E11
  8
01
 10
380.0162416153649
 20
-646.4712898540904
 30
0.0
 11
380.0162416153649
 21
-680.5213303512663
 31
0.0
  0
LINE
  5
26E12
  8
01
 10
395.0162416153649
 20
-655.6213303512659
 30
0.0
 11
395.017995414191
 21
-655.511651944533
 31
0.0
  0
LINE
  5
26E13
  8
01
 10
395.017995414191
 20
-655.511651944533
 30
0.0
 11
395.0232579075633
 21
-655.4019967308872
 31
0.0
  0
LINE
  5
26E14
  8
01
 10
395.0232579075633
 20
-655.4019967308872
 30
0.0
 11
395.0320307408189
 21
-655.2924064729966
 31
0.0
  0
LINE
  5
26E15
  8
01
 10
395.0320307408189
 20
-655.2924064729966
 30
0.0
 11
395.044315559299
 21
-655.1829229335295
 31
0.0
  0
LINE
  5
26E16
  8
01
 10
395.044315559299
 20
-655.1829229335295
 30
0.0
 11
395.0601140083414
 21
-655.0735878751542
 31
0.0
  0
LINE
  5
26E17
  8
01
 10
395.0601140083414
 20
-655.0735878751542
 30
0.0
 11
395.0794277332849
 21
-654.9644430605387
 31
0.0
  0
LINE
  5
26E18
  8
01
 10
395.0794277332849
 20
-654.9644430605387
 30
0.0
 11
395.1022583794698
 21
-654.8555302523513
 31
0.0
  0
LINE
  5
26E19
  8
01
 10
395.1022583794698
 20
-654.8555302523513
 30
0.0
 11
395.128607592235
 21
-654.7468912132603
 31
0.0
  0
LINE
  5
26E1A
  8
01
 10
395.128607592235
 20
-654.7468912132603
 30
0.0
 11
395.1577584799876
 21
-654.6410284247538
 31
0.0
  0
LINE
  5
26E1B
  8
01
 10
395.1577584799876
 20
-654.6410284247538
 30
0.0
 11
395.1902831637877
 21
-654.535475139919
 31
0.0
  0
LINE
  5
26E1C
  8
01
 10
395.1902831637877
 20
-654.535475139919
 30
0.0
 11
395.2261853730903
 21
-654.4302737462511
 31
0.0
  0
LINE
  5
26E1D
  8
01
 10
395.2261853730903
 20
-654.4302737462511
 30
0.0
 11
395.2654688373501
 21
-654.3254666312456
 31
0.0
  0
LINE
  5
26E1E
  8
01
 10
395.2654688373501
 20
-654.3254666312456
 30
0.0
 11
395.3081372860221
 21
-654.2210961823978
 31
0.0
  0
LINE
  5
26E1F
  8
01
 10
395.3081372860221
 20
-654.2210961823978
 30
0.0
 11
395.3541944485602
 21
-654.1172047872031
 31
0.0
  0
LINE
  5
26E20
  8
01
 10
395.3541944485602
 20
-654.1172047872031
 30
0.0
 11
395.4036440544193
 21
-654.0138348331568
 31
0.0
  0
LINE
  5
26E21
  8
01
 10
395.4036440544193
 20
-654.0138348331568
 30
0.0
 11
395.4564898330542
 21
-653.9110287077543
 31
0.0
  0
LINE
  5
26E22
  8
01
 10
395.4564898330542
 20
-653.9110287077543
 30
0.0
 11
395.513426339881
 21
-653.8076190430643
 31
0.0
  0
LINE
  5
26E23
  8
01
 10
395.513426339881
 20
-653.8076190430643
 30
0.0
 11
395.57388472886
 21
-653.7048189147968
 31
0.0
  0
LINE
  5
26E24
  8
01
 10
395.57388472886
 20
-653.7048189147968
 30
0.0
 11
395.6378665004319
 21
-653.602683979286
 31
0.0
  0
LINE
  5
26E25
  8
01
 10
395.6378665004319
 20
-653.602683979286
 30
0.0
 11
395.7053731550392
 21
-653.5012698928663
 31
0.0
  0
LINE
  5
26E26
  8
01
 10
395.7053731550392
 20
-653.5012698928663
 30
0.0
 11
395.7764061931217
 21
-653.4006323118717
 31
0.0
  0
LINE
  5
26E27
  8
01
 10
395.7764061931217
 20
-653.4006323118717
 30
0.0
 11
395.850967115122
 21
-653.3008268926368
 31
0.0
  0
LINE
  5
26E28
  8
01
 10
395.850967115122
 20
-653.3008268926368
 30
0.0
 11
395.9290574214807
 21
-653.2019092914956
 31
0.0
  0
LINE
  5
26E29
  8
01
 10
395.9290574214807
 20
-653.2019092914956
 30
0.0
 11
396.0106786126386
 21
-653.1039351647823
 31
0.0
  0
LINE
  5
26E2A
  8
01
 10
396.0106786126386
 20
-653.1039351647823
 30
0.0
 11
396.0958321890381
 21
-653.0069601688313
 31
0.0
  0
LINE
  5
26E2B
  8
01
 10
396.0958321890381
 20
-653.0069601688313
 30
0.0
 11
396.1845196511191
 21
-652.9110399599767
 31
0.0
  0
LINE
  5
26E2C
  8
01
 10
396.1845196511191
 20
-652.9110399599767
 30
0.0
 11
396.2767424993241
 21
-652.8162301945528
 31
0.0
  0
LINE
  5
26E2D
  8
01
 10
396.2767424993241
 20
-652.8162301945528
 30
0.0
 11
396.3725022340938
 21
-652.7225865288938
 31
0.0
  0
LINE
  5
26E2E
  8
01
 10
396.3725022340938
 20
-652.7225865288938
 30
0.0
 11
396.4718003558697
 21
-652.6301646193339
 31
0.0
  0
LINE
  5
26E2F
  8
01
 10
396.4718003558697
 20
-652.6301646193339
 30
0.0
 11
396.5746383650918
 21
-652.5390201222075
 31
0.0
  0
LINE
  5
26E30
  8
01
 10
396.5746383650918
 20
-652.5390201222075
 30
0.0
 11
396.6810177622034
 21
-652.4492086938486
 31
0.0
  0
LINE
  5
26E31
  8
01
 10
396.6810177622034
 20
-652.4492086938486
 30
0.0
 11
396.7909400476443
 21
-652.3607859905916
 31
0.0
  0
LINE
  5
26E32
  8
01
 10
396.7909400476443
 20
-652.3607859905916
 30
0.0
 11
396.906630619054
 21
-652.272152793607
 31
0.0
  0
LINE
  5
26E33
  8
01
 10
396.906630619054
 20
-652.272152793607
 30
0.0
 11
397.0259405447338
 21
-652.1851417946276
 31
0.0
  0
LINE
  5
26E34
  8
01
 10
397.0259405447338
 20
-652.1851417946276
 30
0.0
 11
397.1488391588479
 21
-652.0998292504761
 31
0.0
  0
LINE
  5
26E35
  8
01
 10
397.1488391588479
 20
-652.0998292504761
 30
0.0
 11
397.2752957955587
 21
-652.0162914179753
 31
0.0
  0
LINE
  5
26E36
  8
01
 10
397.2752957955587
 20
-652.0162914179753
 30
0.0
 11
397.4052797890305
 21
-651.9346045539475
 31
0.0
  0
LINE
  5
26E37
  8
01
 10
397.4052797890305
 20
-651.9346045539475
 30
0.0
 11
397.5387604734248
 21
-651.8548449152155
 31
0.0
  0
LINE
  5
26E38
  8
01
 10
397.5387604734248
 20
-651.8548449152155
 30
0.0
 11
397.6757071829066
 21
-651.777088758602
 31
0.0
  0
LINE
  5
26E39
  8
01
 10
397.6757071829066
 20
-651.777088758602
 30
0.0
 11
397.8160892516386
 21
-651.7014123409294
 31
0.0
  0
LINE
  5
26E3A
  8
01
 10
397.8160892516386
 20
-651.7014123409294
 30
0.0
 11
397.9598760137829
 21
-651.6278919190207
 31
0.0
  0
LINE
  5
26E3B
  8
01
 10
397.9598760137829
 20
-651.6278919190207
 30
0.0
 11
398.1070368035049
 21
-651.5566037496983
 31
0.0
  0
LINE
  5
26E3C
  8
01
 10
398.1070368035049
 20
-651.5566037496983
 30
0.0
 11
398.257540954966
 21
-651.4876240897848
 31
0.0
  0
LINE
  5
26E3D
  8
01
 10
398.257540954966
 20
-651.4876240897848
 30
0.0
 11
398.4113578023295
 21
-651.421029196103
 31
0.0
  0
LINE
  5
26E3E
  8
01
 10
398.4113578023295
 20
-651.421029196103
 30
0.0
 11
398.5684566797596
 21
-651.3568953254753
 31
0.0
  0
LINE
  5
26E3F
  8
01
 10
398.5684566797596
 20
-651.3568953254753
 30
0.0
 11
398.7288069214188
 21
-651.2952987347246
 31
0.0
  0
LINE
  5
26E40
  8
01
 10
398.7288069214188
 20
-651.2952987347246
 30
0.0
 11
398.8923778614704
 21
-651.2363156806733
 31
0.0
  0
LINE
  5
26E41
  8
01
 10
398.8923778614704
 20
-651.2363156806733
 30
0.0
 11
399.0591388340787
 21
-651.1800224201442
 31
0.0
  0
LINE
  5
26E42
  8
01
 10
399.0591388340787
 20
-651.1800224201442
 30
0.0
 11
399.2236809870197
 21
-651.1281372444306
 31
0.0
  0
LINE
  5
26E43
  8
01
 10
399.2236809870197
 20
-651.1281372444306
 30
0.0
 11
399.3906401303026
 21
-651.0790796038428
 31
0.0
  0
LINE
  5
26E44
  8
01
 10
399.3906401303026
 20
-651.0790796038428
 30
0.0
 11
399.5599436056388
 21
-651.0329068127635
 31
0.0
  0
LINE
  5
26E45
  8
01
 10
399.5599436056388
 20
-651.0329068127635
 30
0.0
 11
399.731518754738
 21
-650.9896761855748
 31
0.0
  0
LINE
  5
26E46
  8
01
 10
399.731518754738
 20
-650.9896761855748
 30
0.0
 11
399.9052929193109
 21
-650.9494450366593
 31
0.0
  0
LINE
  5
26E47
  8
01
 10
399.9052929193109
 20
-650.9494450366593
 30
0.0
 11
400.0811934410682
 21
-650.9122706803994
 31
0.0
  0
LINE
  5
26E48
  8
01
 10
400.0811934410682
 20
-650.9122706803994
 30
0.0
 11
400.2591476617214
 21
-650.8782104311774
 31
0.0
  0
LINE
  5
26E49
  8
01
 10
400.2591476617214
 20
-650.8782104311774
 30
0.0
 11
400.4390829229811
 21
-650.8473216033759
 31
0.0
  0
LINE
  5
26E4A
  8
01
 10
400.4390829229811
 20
-650.8473216033759
 30
0.0
 11
400.6325028059288
 21
-650.8180211242732
 31
0.0
  0
LINE
  5
26E4B
  8
01
 10
400.6325028059288
 20
-650.8180211242732
 30
0.0
 11
400.8272208216446
 21
-650.7925365098422
 31
0.0
  0
LINE
  5
26E4C
  8
01
 10
400.8272208216446
 20
-650.7925365098422
 30
0.0
 11
401.0231200399745
 21
-650.7708957666885
 31
0.0
  0
LINE
  5
26E4D
  8
01
 10
401.0231200399745
 20
-650.7708957666885
 30
0.0
 11
401.2200835307609
 21
-650.7531269014173
 31
0.0
  0
LINE
  5
26E4E
  8
01
 10
401.2200835307609
 20
-650.7531269014173
 30
0.0
 11
401.4179943638488
 21
-650.739257920634
 31
0.0
  0
LINE
  5
26E4F
  8
01
 10
401.4179943638488
 20
-650.739257920634
 30
0.0
 11
401.6167356090833
 21
-650.7293168309442
 31
0.0
  0
LINE
  5
26E50
  8
01
 10
401.6167356090833
 20
-650.7293168309442
 30
0.0
 11
401.8161903363067
 21
-650.7233316389529
 31
0.0
  0
LINE
  5
26E51
  8
01
 10
401.8161903363067
 20
-650.7233316389529
 30
0.0
 11
402.0162416153649
 21
-650.7213303512658
 31
0.0
  0
LINE
  5
26E52
  8
01
 10
598.016241615365
 20
-650.7213303512658
 30
0.0
 11
598.2162928944232
 21
-650.7233316389529
 31
0.0
  0
LINE
  5
26E53
  8
01
 10
598.2162928944232
 20
-650.7233316389529
 30
0.0
 11
598.4157476216466
 21
-650.7293168309442
 31
0.0
  0
LINE
  5
26E54
  8
01
 10
598.4157476216466
 20
-650.7293168309442
 30
0.0
 11
598.6144888668811
 21
-650.739257920634
 31
0.0
  0
LINE
  5
26E55
  8
01
 10
598.6144888668811
 20
-650.739257920634
 30
0.0
 11
598.812399699969
 21
-650.7531269014173
 31
0.0
  0
LINE
  5
26E56
  8
01
 10
598.812399699969
 20
-650.7531269014173
 30
0.0
 11
599.0093631907554
 21
-650.7708957666885
 31
0.0
  0
LINE
  5
26E57
  8
01
 10
599.0093631907554
 20
-650.7708957666885
 30
0.0
 11
599.2052624090853
 21
-650.7925365098422
 31
0.0
  0
LINE
  5
26E58
  8
01
 10
599.2052624090853
 20
-650.7925365098422
 30
0.0
 11
599.3999804248011
 21
-650.8180211242732
 31
0.0
  0
LINE
  5
26E59
  8
01
 10
599.3999804248011
 20
-650.8180211242732
 30
0.0
 11
599.5934003077488
 21
-650.8473216033759
 31
0.0
  0
LINE
  5
26E5A
  8
01
 10
599.5934003077488
 20
-650.8473216033759
 30
0.0
 11
599.7733355690085
 21
-650.8782104311774
 31
0.0
  0
LINE
  5
26E5B
  8
01
 10
599.7733355690085
 20
-650.8782104311774
 30
0.0
 11
599.9512897896617
 21
-650.9122706803994
 31
0.0
  0
LINE
  5
26E5C
  8
01
 10
599.9512897896617
 20
-650.9122706803994
 30
0.0
 11
600.127190311419
 21
-650.9494450366593
 31
0.0
  0
LINE
  5
26E5D
  8
01
 10
600.127190311419
 20
-650.9494450366593
 30
0.0
 11
600.3009644759919
 21
-650.9896761855748
 31
0.0
  0
LINE
  5
26E5E
  8
01
 10
600.3009644759919
 20
-650.9896761855748
 30
0.0
 11
600.4725396250911
 21
-651.0329068127636
 31
0.0
  0
LINE
  5
26E5F
  8
01
 10
600.4725396250911
 20
-651.0329068127636
 30
0.0
 11
600.6418431004273
 21
-651.079079603843
 31
0.0
  0
LINE
  5
26E60
  8
01
 10
600.6418431004273
 20
-651.079079603843
 30
0.0
 11
600.8088022437101
 21
-651.1281372444306
 31
0.0
  0
LINE
  5
26E61
  8
01
 10
600.8088022437101
 20
-651.1281372444306
 30
0.0
 11
600.9733443966521
 21
-651.1800224201442
 31
0.0
  0
LINE
  5
26E62
  8
01
 10
600.9733443966521
 20
-651.1800224201442
 30
0.0
 11
601.1401053692595
 21
-651.2363156806732
 31
0.0
  0
LINE
  5
26E63
  8
01
 10
601.1401053692595
 20
-651.2363156806732
 30
0.0
 11
601.3036763093111
 21
-651.2952987347245
 31
0.0
  0
LINE
  5
26E64
  8
01
 10
601.3036763093111
 20
-651.2952987347245
 30
0.0
 11
601.4640265509703
 21
-651.3568953254753
 31
0.0
  0
LINE
  5
26E65
  8
01
 10
601.4640265509703
 20
-651.3568953254753
 30
0.0
 11
601.6211254284004
 21
-651.421029196103
 31
0.0
  0
LINE
  5
26E66
  8
01
 10
601.6211254284004
 20
-651.421029196103
 30
0.0
 11
601.7749422757639
 21
-651.4876240897848
 31
0.0
  0
LINE
  5
26E67
  8
01
 10
601.7749422757639
 20
-651.4876240897848
 30
0.0
 11
601.925446427225
 21
-651.5566037496983
 31
0.0
  0
LINE
  5
26E68
  8
01
 10
601.925446427225
 20
-651.5566037496983
 30
0.0
 11
602.072607216946
 21
-651.6278919190207
 31
0.0
  0
LINE
  5
26E69
  8
01
 10
602.072607216946
 20
-651.6278919190207
 30
0.0
 11
602.2163939790913
 21
-651.7014123409296
 31
0.0
  0
LINE
  5
26E6A
  8
01
 10
602.2163939790913
 20
-651.7014123409296
 30
0.0
 11
602.3567760478232
 21
-651.777088758602
 31
0.0
  0
LINE
  5
26E6B
  8
01
 10
602.3567760478232
 20
-651.777088758602
 30
0.0
 11
602.4937227573051
 21
-651.8548449152155
 31
0.0
  0
LINE
  5
26E6C
  8
01
 10
602.4937227573051
 20
-651.8548449152155
 30
0.0
 11
602.6272034416994
 21
-651.9346045539476
 31
0.0
  0
LINE
  5
26E6D
  8
01
 10
602.6272034416994
 20
-651.9346045539476
 30
0.0
 11
602.7571874351712
 21
-652.0162914179753
 31
0.0
  0
LINE
  5
26E6E
  8
01
 10
602.7571874351712
 20
-652.0162914179753
 30
0.0
 11
602.883644071882
 21
-652.0998292504762
 31
0.0
  0
LINE
  5
26E6F
  8
01
 10
602.883644071882
 20
-652.0998292504762
 30
0.0
 11
603.0065426859961
 21
-652.1851417946277
 31
0.0
  0
LINE
  5
26E70
  8
01
 10
603.0065426859961
 20
-652.1851417946277
 30
0.0
 11
603.1258526116759
 21
-652.272152793607
 31
0.0
  0
LINE
  5
26E71
  8
01
 10
603.1258526116759
 20
-652.272152793607
 30
0.0
 11
603.2415431830856
 21
-652.3607859905917
 31
0.0
  0
LINE
  5
26E72
  8
01
 10
603.2415431830856
 20
-652.3607859905917
 30
0.0
 11
603.3514654685265
 21
-652.4492086938486
 31
0.0
  0
LINE
  5
26E73
  8
01
 10
603.3514654685265
 20
-652.4492086938486
 30
0.0
 11
603.4578448656381
 21
-652.5390201222075
 31
0.0
  0
LINE
  5
26E74
  8
01
 10
603.4578448656381
 20
-652.5390201222075
 30
0.0
 11
603.5606828748602
 21
-652.630164619334
 31
0.0
  0
LINE
  5
26E75
  8
01
 10
603.5606828748602
 20
-652.630164619334
 30
0.0
 11
603.6599809966361
 21
-652.7225865288939
 31
0.0
  0
LINE
  5
26E76
  8
01
 10
603.6599809966361
 20
-652.7225865288939
 30
0.0
 11
603.7557407314058
 21
-652.8162301945529
 31
0.0
  0
LINE
  5
26E77
  8
01
 10
603.7557407314058
 20
-652.8162301945529
 30
0.0
 11
603.8479635796108
 21
-652.9110399599767
 31
0.0
  0
LINE
  5
26E78
  8
01
 10
603.8479635796108
 20
-652.9110399599767
 30
0.0
 11
603.9366510416918
 21
-653.0069601688314
 31
0.0
  0
LINE
  5
26E79
  8
01
 10
603.9366510416918
 20
-653.0069601688314
 30
0.0
 11
604.0218046180913
 21
-653.1039351647823
 31
0.0
  0
LINE
  5
26E7A
  8
01
 10
604.0218046180913
 20
-653.1039351647823
 30
0.0
 11
604.1034258092492
 21
-653.2019092914956
 31
0.0
  0
LINE
  5
26E7B
  8
01
 10
604.1034258092492
 20
-653.2019092914956
 30
0.0
 11
604.1815161156079
 21
-653.3008268926368
 31
0.0
  0
LINE
  5
26E7C
  8
01
 10
604.1815161156079
 20
-653.3008268926368
 30
0.0
 11
604.2560770376082
 21
-653.4006323118717
 31
0.0
  0
LINE
  5
26E7D
  8
01
 10
604.2560770376082
 20
-653.4006323118717
 30
0.0
 11
604.3271100756907
 21
-653.5012698928663
 31
0.0
  0
LINE
  5
26E7E
  8
01
 10
604.3271100756907
 20
-653.5012698928663
 30
0.0
 11
604.394616730298
 21
-653.602683979286
 31
0.0
  0
LINE
  5
26E7F
  8
01
 10
604.394616730298
 20
-653.602683979286
 30
0.0
 11
604.4585985018699
 21
-653.7048189147968
 31
0.0
  0
LINE
  5
26E80
  8
01
 10
604.4585985018699
 20
-653.7048189147968
 30
0.0
 11
604.5190568908489
 21
-653.8076190430643
 31
0.0
  0
LINE
  5
26E81
  8
01
 10
604.5190568908489
 20
-653.8076190430643
 30
0.0
 11
604.5759933976757
 21
-653.9110287077544
 31
0.0
  0
LINE
  5
26E82
  8
01
 10
604.5759933976757
 20
-653.9110287077544
 30
0.0
 11
604.6288391763106
 21
-654.0138348331568
 31
0.0
  0
LINE
  5
26E83
  8
01
 10
604.6288391763106
 20
-654.0138348331568
 30
0.0
 11
604.6782887821697
 21
-654.1172047872031
 31
0.0
  0
LINE
  5
26E84
  8
01
 10
604.6782887821697
 20
-654.1172047872031
 30
0.0
 11
604.7243459447078
 21
-654.2210961823978
 31
0.0
  0
LINE
  5
26E85
  8
01
 10
604.7243459447078
 20
-654.2210961823978
 30
0.0
 11
604.7670143933798
 21
-654.3254666312456
 31
0.0
  0
LINE
  5
26E86
  8
01
 10
604.7670143933798
 20
-654.3254666312456
 30
0.0
 11
604.8062978576396
 21
-654.4302737462511
 31
0.0
  0
LINE
  5
26E87
  8
01
 10
604.8062978576396
 20
-654.4302737462511
 30
0.0
 11
604.8422000669422
 21
-654.5354751399191
 31
0.0
  0
LINE
  5
26E88
  8
01
 10
604.8422000669422
 20
-654.5354751399191
 30
0.0
 11
604.8747247507423
 21
-654.6410284247538
 31
0.0
  0
LINE
  5
26E89
  8
01
 10
604.8747247507423
 20
-654.6410284247538
 30
0.0
 11
604.9038756384949
 21
-654.7468912132603
 31
0.0
  0
LINE
  5
26E8A
  8
01
 10
604.9038756384949
 20
-654.7468912132603
 30
0.0
 11
604.93022485126
 21
-654.8555302523514
 31
0.0
  0
LINE
  5
26E8B
  8
01
 10
604.93022485126
 20
-654.8555302523514
 30
0.0
 11
604.953055497445
 21
-654.9644430605388
 31
0.0
  0
LINE
  5
26E8C
  8
01
 10
604.953055497445
 20
-654.9644430605388
 30
0.0
 11
604.9723692223894
 21
-655.0735878751542
 31
0.0
  0
LINE
  5
26E8D
  8
01
 10
604.9723692223894
 20
-655.0735878751542
 30
0.0
 11
604.9881676714318
 21
-655.1829229335295
 31
0.0
  0
LINE
  5
26E8E
  8
01
 10
604.9881676714318
 20
-655.1829229335295
 30
0.0
 11
605.000452489911
 21
-655.2924064729966
 31
0.0
  0
LINE
  5
26E8F
  8
01
 10
605.000452489911
 20
-655.2924064729966
 30
0.0
 11
605.0092253231675
 21
-655.4019967308872
 31
0.0
  0
LINE
  5
26E90
  8
01
 10
605.0092253231675
 20
-655.4019967308872
 30
0.0
 11
605.0144878165389
 21
-655.5116519445329
 31
0.0
  0
LINE
  5
26E91
  8
01
 10
605.0144878165389
 20
-655.5116519445329
 30
0.0
 11
605.016241615365
 21
-655.6213303512659
 31
0.0
  0
LINE
  5
26E92
  8
01
 10
605.016241615365
 20
-655.6213303512659
 30
0.0
 11
605.016241615365
 21
-673.4713303512661
 31
0.0
  0
LINE
  5
26E93
  8
01
 10
605.016241615365
 20
-673.4713303512661
 30
0.0
 11
605.0144878165389
 21
-673.581008757999
 31
0.0
  0
LINE
  5
26E94
  8
01
 10
605.0144878165389
 20
-673.581008757999
 30
0.0
 11
605.0092253231675
 21
-673.6906639716449
 31
0.0
  0
LINE
  5
26E95
  8
01
 10
605.0092253231675
 20
-673.6906639716449
 30
0.0
 11
605.000452489911
 21
-673.8002542295354
 31
0.0
  0
LINE
  5
26E96
  8
01
 10
605.000452489911
 20
-673.8002542295354
 30
0.0
 11
604.9881676714318
 21
-673.9097377690025
 31
0.0
  0
LINE
  5
26E97
  8
01
 10
604.9881676714318
 20
-673.9097377690025
 30
0.0
 11
604.9723692223894
 21
-674.0190728273778
 31
0.0
  0
LINE
  5
26E98
  8
01
 10
604.9723692223894
 20
-674.0190728273778
 30
0.0
 11
604.953055497445
 21
-674.1282176419933
 31
0.0
  0
LINE
  5
26E99
  8
01
 10
604.953055497445
 20
-674.1282176419933
 30
0.0
 11
604.93022485126
 21
-674.2371304501806
 31
0.0
  0
LINE
  5
26E9A
  8
01
 10
604.93022485126
 20
-674.2371304501806
 30
0.0
 11
604.9038756384949
 21
-674.3457694892718
 31
0.0
  0
LINE
  5
26E9B
  8
01
 10
604.9038756384949
 20
-674.3457694892718
 30
0.0
 11
604.8747247507423
 21
-674.4516322777782
 31
0.0
  0
LINE
  5
26E9C
  8
01
 10
604.8747247507423
 20
-674.4516322777782
 30
0.0
 11
604.8422000669422
 21
-674.5571855626131
 31
0.0
  0
LINE
  5
26E9D
  8
01
 10
604.8422000669422
 20
-674.5571855626131
 30
0.0
 11
604.8062978576396
 21
-674.6623869562809
 31
0.0
  0
LINE
  5
26E9E
  8
01
 10
604.8062978576396
 20
-674.6623869562809
 30
0.0
 11
604.7670143933798
 21
-674.7671940712864
 31
0.0
  0
LINE
  5
26E9F
  8
01
 10
604.7670143933798
 20
-674.7671940712864
 30
0.0
 11
604.7243459447078
 21
-674.8715645201341
 31
0.0
  0
LINE
  5
26EA0
  8
01
 10
604.7243459447078
 20
-674.8715645201341
 30
0.0
 11
604.6782887821697
 21
-674.9754559153289
 31
0.0
  0
LINE
  5
26EA1
  8
01
 10
604.6782887821697
 20
-674.9754559153289
 30
0.0
 11
604.6288391763106
 21
-675.0788258693751
 31
0.0
  0
LINE
  5
26EA2
  8
01
 10
604.6288391763106
 20
-675.0788258693751
 30
0.0
 11
604.5759933976757
 21
-675.1816319947776
 31
0.0
  0
LINE
  5
26EA3
  8
01
 10
604.5759933976757
 20
-675.1816319947776
 30
0.0
 11
604.5190568908489
 21
-675.2850416594678
 31
0.0
  0
LINE
  5
26EA4
  8
01
 10
604.5190568908489
 20
-675.2850416594678
 30
0.0
 11
604.4585985018699
 21
-675.3878417877353
 31
0.0
  0
LINE
  5
26EA5
  8
01
 10
604.4585985018699
 20
-675.3878417877353
 30
0.0
 11
604.394616730298
 21
-675.4899767232461
 31
0.0
  0
LINE
  5
26EA6
  8
01
 10
604.394616730298
 20
-675.4899767232461
 30
0.0
 11
604.3271100756907
 21
-675.5913908096658
 31
0.0
  0
LINE
  5
26EA7
  8
01
 10
604.3271100756907
 20
-675.5913908096658
 30
0.0
 11
604.2560770376082
 21
-675.6920283906603
 31
0.0
  0
LINE
  5
26EA8
  8
01
 10
604.2560770376082
 20
-675.6920283906603
 30
0.0
 11
604.1815161156079
 21
-675.7918338098953
 31
0.0
  0
LINE
  5
26EA9
  8
01
 10
604.1815161156079
 20
-675.7918338098953
 30
0.0
 11
604.1034258092492
 21
-675.8907514110365
 31
0.0
  0
LINE
  5
26EAA
  8
01
 10
604.1034258092492
 20
-675.8907514110365
 30
0.0
 11
604.0218046180913
 21
-675.9887255377497
 31
0.0
  0
LINE
  5
26EAB
  8
01
 10
604.0218046180913
 20
-675.9887255377497
 30
0.0
 11
603.9366510416918
 21
-676.0857005337008
 31
0.0
  0
LINE
  5
26EAC
  8
01
 10
603.9366510416918
 20
-676.0857005337008
 30
0.0
 11
603.8479635796108
 21
-676.1816207425553
 31
0.0
  0
LINE
  5
26EAD
  8
01
 10
603.8479635796108
 20
-676.1816207425553
 30
0.0
 11
603.7557407314058
 21
-676.2764305079793
 31
0.0
  0
LINE
  5
26EAE
  8
01
 10
603.7557407314058
 20
-676.2764305079793
 30
0.0
 11
603.6599809966361
 21
-676.3700741736383
 31
0.0
  0
LINE
  5
26EAF
  8
01
 10
603.6599809966361
 20
-676.3700741736383
 30
0.0
 11
603.5606828748611
 21
-676.4624960831981
 31
0.0
  0
LINE
  5
26EB0
  8
01
 10
603.5606828748611
 20
-676.4624960831981
 30
0.0
 11
603.4578448656381
 21
-676.5536405803246
 31
0.0
  0
LINE
  5
26EB1
  8
01
 10
603.4578448656381
 20
-676.5536405803246
 30
0.0
 11
603.3514654685265
 21
-676.6434520086834
 31
0.0
  0
LINE
  5
26EB2
  8
01
 10
603.3514654685265
 20
-676.6434520086834
 30
0.0
 11
603.2415431830856
 21
-676.7318747119403
 31
0.0
  0
LINE
  5
26EB3
  8
01
 10
603.2415431830856
 20
-676.7318747119403
 30
0.0
 11
603.1258526116768
 21
-676.820507908925
 31
0.0
  0
LINE
  5
26EB4
  8
01
 10
603.1258526116768
 20
-676.820507908925
 30
0.0
 11
603.0065426859961
 21
-676.9075189079043
 31
0.0
  0
LINE
  5
26EB5
  8
01
 10
603.0065426859961
 20
-676.9075189079043
 30
0.0
 11
602.883644071882
 21
-676.9928314520558
 31
0.0
  0
LINE
  5
26EB6
  8
01
 10
602.883644071882
 20
-676.9928314520558
 30
0.0
 11
602.7571874351712
 21
-677.0763692845568
 31
0.0
  0
LINE
  5
26EB7
  8
01
 10
602.7571874351712
 20
-677.0763692845568
 30
0.0
 11
602.6272034416994
 21
-677.1580561485845
 31
0.0
  0
LINE
  5
26EB8
  8
01
 10
602.6272034416994
 20
-677.1580561485845
 30
0.0
 11
602.4937227573051
 21
-677.2378157873164
 31
0.0
  0
LINE
  5
26EB9
  8
01
 10
602.4937227573051
 20
-677.2378157873164
 30
0.0
 11
602.3567760478232
 21
-677.3155719439301
 31
0.0
  0
LINE
  5
26EBA
  8
01
 10
602.3567760478232
 20
-677.3155719439301
 30
0.0
 11
602.2163939790913
 21
-677.3912483616025
 31
0.0
  0
LINE
  5
26EBB
  8
01
 10
602.2163939790913
 20
-677.3912483616025
 30
0.0
 11
602.072607216947
 21
-677.4647687835113
 31
0.0
  0
LINE
  5
26EBC
  8
01
 10
602.072607216947
 20
-677.4647687835113
 30
0.0
 11
601.925446427225
 21
-677.5360569528337
 31
0.0
  0
LINE
  5
26EBD
  8
01
 10
601.925446427225
 20
-677.5360569528337
 30
0.0
 11
601.7749422757639
 21
-677.6050366127473
 31
0.0
  0
LINE
  5
26EBE
  8
01
 10
601.7749422757639
 20
-677.6050366127473
 30
0.0
 11
601.6211254284004
 21
-677.6716315064292
 31
0.0
  0
LINE
  5
26EBF
  8
01
 10
601.6211254284004
 20
-677.6716315064292
 30
0.0
 11
601.4640265509703
 21
-677.7357653770567
 31
0.0
  0
LINE
  5
26EC0
  8
01
 10
601.4640265509703
 20
-677.7357653770567
 30
0.0
 11
601.3036763093111
 21
-677.7973619678075
 31
0.0
  0
LINE
  5
26EC1
  8
01
 10
601.3036763093111
 20
-677.7973619678075
 30
0.0
 11
601.1401053692595
 21
-677.8563450218588
 31
0.0
  0
LINE
  5
26EC2
  8
01
 10
601.1401053692595
 20
-677.8563450218588
 30
0.0
 11
600.9733443966521
 21
-677.912638282388
 31
0.0
  0
LINE
  5
26EC3
  8
01
 10
600.9733443966521
 20
-677.912638282388
 30
0.0
 11
600.8088022437101
 21
-677.9645234581014
 31
0.0
  0
LINE
  5
26EC4
  8
01
 10
600.8088022437101
 20
-677.9645234581014
 30
0.0
 11
600.6418431004273
 21
-678.0135810986891
 31
0.0
  0
LINE
  5
26EC5
  8
01
 10
600.6418431004273
 20
-678.0135810986891
 30
0.0
 11
600.4725396250911
 21
-678.0597538897686
 31
0.0
  0
LINE
  5
26EC6
  8
01
 10
600.4725396250911
 20
-678.0597538897686
 30
0.0
 11
600.3009644759919
 21
-678.1029845169572
 31
0.0
  0
LINE
  5
26EC7
  8
01
 10
600.3009644759919
 20
-678.1029845169572
 30
0.0
 11
600.127190311419
 21
-678.1432156658727
 31
0.0
  0
LINE
  5
26EC8
  8
01
 10
600.127190311419
 20
-678.1432156658727
 30
0.0
 11
599.9512897896617
 21
-678.1803900221327
 31
0.0
  0
LINE
  5
26EC9
  8
01
 10
599.9512897896617
 20
-678.1803900221327
 30
0.0
 11
599.7733355690085
 21
-678.2144502713546
 31
0.0
  0
LINE
  5
26ECA
  8
01
 10
599.7733355690085
 20
-678.2144502713546
 30
0.0
 11
599.5934003077488
 21
-678.2453390991561
 31
0.0
  0
LINE
  5
26ECB
  8
01
 10
599.5934003077488
 20
-678.2453390991561
 30
0.0
 11
599.399980424802
 21
-678.2746395782589
 31
0.0
  0
LINE
  5
26ECC
  8
01
 10
599.399980424802
 20
-678.2746395782589
 30
0.0
 11
599.2052624090853
 21
-678.3001241926899
 31
0.0
  0
LINE
  5
26ECD
  8
01
 10
599.2052624090853
 20
-678.3001241926899
 30
0.0
 11
599.0093631907563
 21
-678.3217649358436
 31
0.0
  0
LINE
  5
26ECE
  8
01
 10
599.0093631907563
 20
-678.3217649358436
 30
0.0
 11
598.812399699969
 21
-678.3395338011147
 31
0.0
  0
LINE
  5
26ECF
  8
01
 10
598.812399699969
 20
-678.3395338011147
 30
0.0
 11
598.6144888668811
 21
-678.353402781898
 31
0.0
  0
LINE
  5
26ED0
  8
01
 10
598.6144888668811
 20
-678.353402781898
 30
0.0
 11
598.4157476216466
 21
-678.3633438715879
 31
0.0
  0
LINE
  5
26ED1
  8
01
 10
598.4157476216466
 20
-678.3633438715879
 30
0.0
 11
598.2162928944232
 21
-678.3693290635791
 31
0.0
  0
LINE
  5
26ED2
  8
01
 10
598.2162928944232
 20
-678.3693290635791
 30
0.0
 11
598.016241615365
 21
-678.3713303512662
 31
0.0
  0
LINE
  5
26ED3
  8
01
 10
402.0162416153649
 20
-678.3713303512662
 30
0.0
 11
401.8161903363067
 21
-678.3693290635791
 31
0.0
  0
LINE
  5
26ED4
  8
01
 10
401.8161903363067
 20
-678.3693290635791
 30
0.0
 11
401.6167356090833
 21
-678.363343871588
 31
0.0
  0
LINE
  5
26ED5
  8
01
 10
401.6167356090833
 20
-678.363343871588
 30
0.0
 11
401.4179943638488
 21
-678.353402781898
 31
0.0
  0
LINE
  5
26ED6
  8
01
 10
401.4179943638488
 20
-678.353402781898
 30
0.0
 11
401.2200835307609
 21
-678.3395338011147
 31
0.0
  0
LINE
  5
26ED7
  8
01
 10
401.2200835307609
 20
-678.3395338011147
 30
0.0
 11
401.0231200399745
 21
-678.3217649358436
 31
0.0
  0
LINE
  5
26ED8
  8
01
 10
401.0231200399745
 20
-678.3217649358436
 30
0.0
 11
400.8272208216446
 21
-678.3001241926899
 31
0.0
  0
LINE
  5
26ED9
  8
01
 10
400.8272208216446
 20
-678.3001241926899
 30
0.0
 11
400.6325028059288
 21
-678.2746395782589
 31
0.0
  0
LINE
  5
26EDA
  8
01
 10
400.6325028059288
 20
-678.2746395782589
 30
0.0
 11
400.4390829229811
 21
-678.2453390991561
 31
0.0
  0
LINE
  5
26EDB
  8
01
 10
400.4390829229811
 20
-678.2453390991561
 30
0.0
 11
400.2591476617214
 21
-678.2144502713546
 31
0.0
  0
LINE
  5
26EDC
  8
01
 10
400.2591476617214
 20
-678.2144502713546
 30
0.0
 11
400.0811934410682
 21
-678.1803900221327
 31
0.0
  0
LINE
  5
26EDD
  8
01
 10
400.0811934410682
 20
-678.1803900221327
 30
0.0
 11
399.9052929193109
 21
-678.1432156658727
 31
0.0
  0
LINE
  5
26EDE
  8
01
 10
399.9052929193109
 20
-678.1432156658727
 30
0.0
 11
399.731518754738
 21
-678.1029845169572
 31
0.0
  0
LINE
  5
26EDF
  8
01
 10
399.731518754738
 20
-678.1029845169572
 30
0.0
 11
399.5599436056388
 21
-678.0597538897686
 31
0.0
  0
LINE
  5
26EE0
  8
01
 10
399.5599436056388
 20
-678.0597538897686
 30
0.0
 11
399.3906401303026
 21
-678.0135810986891
 31
0.0
  0
LINE
  5
26EE1
  8
01
 10
399.3906401303026
 20
-678.0135810986891
 30
0.0
 11
399.2236809870197
 21
-677.9645234581014
 31
0.0
  0
LINE
  5
26EE2
  8
01
 10
399.2236809870197
 20
-677.9645234581014
 30
0.0
 11
399.0591388340787
 21
-677.9126382823879
 31
0.0
  0
LINE
  5
26EE3
  8
01
 10
399.0591388340787
 20
-677.9126382823879
 30
0.0
 11
398.8923778614704
 21
-677.8563450218588
 31
0.0
  0
LINE
  5
26EE4
  8
01
 10
398.8923778614704
 20
-677.8563450218588
 30
0.0
 11
398.7288069214188
 21
-677.7973619678075
 31
0.0
  0
LINE
  5
26EE5
  8
01
 10
398.7288069214188
 20
-677.7973619678075
 30
0.0
 11
398.5684566797596
 21
-677.7357653770567
 31
0.0
  0
LINE
  5
26EE6
  8
01
 10
398.5684566797596
 20
-677.7357653770567
 30
0.0
 11
398.4113578023295
 21
-677.6716315064291
 31
0.0
  0
LINE
  5
26EE7
  8
01
 10
398.4113578023295
 20
-677.6716315064291
 30
0.0
 11
398.257540954966
 21
-677.6050366127473
 31
0.0
  0
LINE
  5
26EE8
  8
01
 10
398.257540954966
 20
-677.6050366127473
 30
0.0
 11
398.1070368035049
 21
-677.5360569528337
 31
0.0
  0
LINE
  5
26EE9
  8
01
 10
398.1070368035049
 20
-677.5360569528337
 30
0.0
 11
397.9598760137839
 21
-677.4647687835113
 31
0.0
  0
LINE
  5
26EEA
  8
01
 10
397.9598760137839
 20
-677.4647687835113
 30
0.0
 11
397.8160892516386
 21
-677.3912483616025
 31
0.0
  0
LINE
  5
26EEB
  8
01
 10
397.8160892516386
 20
-677.3912483616025
 30
0.0
 11
397.6757071829066
 21
-677.3155719439301
 31
0.0
  0
LINE
  5
26EEC
  8
01
 10
397.6757071829066
 20
-677.3155719439301
 30
0.0
 11
397.5387604734248
 21
-677.2378157873164
 31
0.0
  0
LINE
  5
26EED
  8
01
 10
397.5387604734248
 20
-677.2378157873164
 30
0.0
 11
397.4052797890305
 21
-677.1580561485845
 31
0.0
  0
LINE
  5
26EEE
  8
01
 10
397.4052797890305
 20
-677.1580561485845
 30
0.0
 11
397.2752957955587
 21
-677.0763692845568
 31
0.0
  0
LINE
  5
26EEF
  8
01
 10
397.2752957955587
 20
-677.0763692845568
 30
0.0
 11
397.1488391588479
 21
-676.9928314520558
 31
0.0
  0
LINE
  5
26EF0
  8
01
 10
397.1488391588479
 20
-676.9928314520558
 30
0.0
 11
397.0259405447338
 21
-676.9075189079043
 31
0.0
  0
LINE
  5
26EF1
  8
01
 10
397.0259405447338
 20
-676.9075189079043
 30
0.0
 11
396.906630619054
 21
-676.820507908925
 31
0.0
  0
LINE
  5
26EF2
  8
01
 10
396.906630619054
 20
-676.820507908925
 30
0.0
 11
396.7909400476443
 21
-676.7318747119405
 31
0.0
  0
LINE
  5
26EF3
  8
01
 10
396.7909400476443
 20
-676.7318747119405
 30
0.0
 11
396.6810177622034
 21
-676.6434520086834
 31
0.0
  0
LINE
  5
26EF4
  8
01
 10
396.6810177622034
 20
-676.6434520086834
 30
0.0
 11
396.5746383650918
 21
-676.5536405803246
 31
0.0
  0
LINE
  5
26EF5
  8
01
 10
396.5746383650918
 20
-676.5536405803246
 30
0.0
 11
396.4718003558697
 21
-676.4624960831982
 31
0.0
  0
LINE
  5
26EF6
  8
01
 10
396.4718003558697
 20
-676.4624960831982
 30
0.0
 11
396.3725022340938
 21
-676.3700741736383
 31
0.0
  0
LINE
  5
26EF7
  8
01
 10
396.3725022340938
 20
-676.3700741736383
 30
0.0
 11
396.2767424993241
 21
-676.2764305079793
 31
0.0
  0
LINE
  5
26EF8
  8
01
 10
396.2767424993241
 20
-676.2764305079793
 30
0.0
 11
396.1845196511191
 21
-676.1816207425553
 31
0.0
  0
LINE
  5
26EF9
  8
01
 10
396.1845196511191
 20
-676.1816207425553
 30
0.0
 11
396.0958321890381
 21
-676.0857005337008
 31
0.0
  0
LINE
  5
26EFA
  8
01
 10
396.0958321890381
 20
-676.0857005337008
 30
0.0
 11
396.0106786126386
 21
-675.9887255377497
 31
0.0
  0
LINE
  5
26EFB
  8
01
 10
396.0106786126386
 20
-675.9887255377497
 30
0.0
 11
395.9290574214807
 21
-675.8907514110365
 31
0.0
  0
LINE
  5
26EFC
  8
01
 10
395.9290574214807
 20
-675.8907514110365
 30
0.0
 11
395.850967115122
 21
-675.7918338098953
 31
0.0
  0
LINE
  5
26EFD
  8
01
 10
395.850967115122
 20
-675.7918338098953
 30
0.0
 11
395.7764061931217
 21
-675.6920283906603
 31
0.0
  0
LINE
  5
26EFE
  8
01
 10
395.7764061931217
 20
-675.6920283906603
 30
0.0
 11
395.7053731550392
 21
-675.5913908096659
 31
0.0
  0
LINE
  5
26EFF
  8
01
 10
395.7053731550392
 20
-675.5913908096659
 30
0.0
 11
395.6378665004319
 21
-675.4899767232462
 31
0.0
  0
LINE
  5
26F00
  8
01
 10
395.6378665004319
 20
-675.4899767232462
 30
0.0
 11
395.57388472886
 21
-675.3878417877354
 31
0.0
  0
LINE
  5
26F01
  8
01
 10
395.57388472886
 20
-675.3878417877354
 30
0.0
 11
395.513426339881
 21
-675.2850416594678
 31
0.0
  0
LINE
  5
26F02
  8
01
 10
395.513426339881
 20
-675.2850416594678
 30
0.0
 11
395.4564898330542
 21
-675.1816319947777
 31
0.0
  0
LINE
  5
26F03
  8
01
 10
395.4564898330542
 20
-675.1816319947777
 30
0.0
 11
395.4036440544193
 21
-675.0788258693754
 31
0.0
  0
LINE
  5
26F04
  8
01
 10
395.4036440544193
 20
-675.0788258693754
 30
0.0
 11
395.3541944485602
 21
-674.9754559153291
 31
0.0
  0
LINE
  5
26F05
  8
01
 10
395.3541944485602
 20
-674.9754559153291
 30
0.0
 11
395.3081372860221
 21
-674.8715645201344
 31
0.0
  0
LINE
  5
26F06
  8
01
 10
395.3081372860221
 20
-674.8715645201344
 30
0.0
 11
395.2654688373501
 21
-674.7671940712864
 31
0.0
  0
LINE
  5
26F07
  8
01
 10
395.2654688373501
 20
-674.7671940712864
 30
0.0
 11
395.2261853730903
 21
-674.6623869562808
 31
0.0
  0
LINE
  5
26F08
  8
01
 10
395.2261853730903
 20
-674.6623869562808
 30
0.0
 11
395.1902831637877
 21
-674.5571855626129
 31
0.0
  0
LINE
  5
26F09
  8
01
 10
395.1902831637877
 20
-674.5571855626129
 30
0.0
 11
395.1577584799876
 21
-674.451632277778
 31
0.0
  0
LINE
  5
26F0A
  8
01
 10
395.1577584799876
 20
-674.451632277778
 30
0.0
 11
395.128607592235
 21
-674.3457694892718
 31
0.0
  0
LINE
  5
26F0B
  8
01
 10
395.128607592235
 20
-674.3457694892718
 30
0.0
 11
395.1022583794698
 21
-674.2371304501809
 31
0.0
  0
LINE
  5
26F0C
  8
01
 10
395.1022583794698
 20
-674.2371304501809
 30
0.0
 11
395.0794277332849
 21
-674.1282176419935
 31
0.0
  0
LINE
  5
26F0D
  8
01
 10
395.0794277332849
 20
-674.1282176419935
 30
0.0
 11
395.0601140083414
 21
-674.019072827378
 31
0.0
  0
LINE
  5
26F0E
  8
01
 10
395.0601140083414
 20
-674.019072827378
 30
0.0
 11
395.044315559299
 21
-673.9097377690025
 31
0.0
  0
LINE
  5
26F0F
  8
01
 10
395.044315559299
 20
-673.9097377690025
 30
0.0
 11
395.0320307408189
 21
-673.8002542295353
 31
0.0
  0
LINE
  5
26F10
  8
01
 10
395.0320307408189
 20
-673.8002542295353
 30
0.0
 11
395.0232579075633
 21
-673.6906639716448
 31
0.0
  0
LINE
  5
26F11
  8
01
 10
395.0232579075633
 20
-673.6906639716448
 30
0.0
 11
395.017995414191
 21
-673.5810087579989
 31
0.0
  0
LINE
  5
26F12
  8
01
 10
395.017995414191
 20
-673.5810087579989
 30
0.0
 11
395.0162416153649
 21
-673.4713303512661
 31
0.0
  0
LINE
  5
26F13
  8
01
 10
395.0162416153649
 20
-673.4713303512661
 30
0.0
 11
395.0162416153649
 21
-655.6213303512659
 31
0.0
  0
LINE
  5
26F14
  8
01
 10
604.7162416153648
 20
-673.1151503872147
 30
0.0
 11
604.7149317230302
 21
-673.2097822427161
 31
0.0
  0
LINE
  5
26F15
  8
01
 10
604.7149317230302
 20
-673.2097822427161
 30
0.0
 11
604.7110210830084
 21
-673.304350408913
 31
0.0
  0
LINE
  5
26F16
  8
01
 10
604.7110210830084
 20
-673.304350408913
 30
0.0
 11
604.7045112504935
 21
-673.3988277295136
 31
0.0
  0
LINE
  5
26F17
  8
01
 10
604.7045112504935
 20
-673.3988277295136
 30
0.0
 11
604.6954037806796
 21
-673.493187048226
 31
0.0
  0
LINE
  5
26F18
  8
01
 10
604.6954037806796
 20
-673.493187048226
 30
0.0
 11
604.6837002287599
 21
-673.5874012087583
 31
0.0
  0
LINE
  5
26F19
  8
01
 10
604.6837002287599
 20
-673.5874012087583
 30
0.0
 11
604.6694021499285
 21
-673.6814430548185
 31
0.0
  0
LINE
  5
26F1A
  8
01
 10
604.6694021499285
 20
-673.6814430548185
 30
0.0
 11
604.6525110993786
 21
-673.7752854301148
 31
0.0
  0
LINE
  5
26F1B
  8
01
 10
604.6525110993786
 20
-673.7752854301148
 30
0.0
 11
604.6330286323042
 21
-673.8689011783554
 31
0.0
  0
LINE
  5
26F1C
  8
01
 10
604.6330286323042
 20
-673.8689011783554
 30
0.0
 11
604.6109563038978
 21
-673.9622631432483
 31
0.0
  0
LINE
  5
26F1D
  8
01
 10
604.6109563038978
 20
-673.9622631432483
 30
0.0
 11
604.5862956693551
 21
-674.0553441685016
 31
0.0
  0
LINE
  5
26F1E
  8
01
 10
604.5862956693551
 20
-674.0553441685016
 30
0.0
 11
604.5590482838676
 21
-674.1481170978236
 31
0.0
  0
LINE
  5
26F1F
  8
01
 10
604.5590482838676
 20
-674.1481170978236
 30
0.0
 11
604.5292157026303
 21
-674.2405547749223
 31
0.0
  0
LINE
  5
26F20
  8
01
 10
604.5292157026303
 20
-674.2405547749223
 30
0.0
 11
604.4967994808363
 21
-674.3326300435058
 31
0.0
  0
LINE
  5
26F21
  8
01
 10
604.4967994808363
 20
-674.3326300435058
 30
0.0
 11
604.4618011736799
 21
-674.4243157472821
 31
0.0
  0
LINE
  5
26F22
  8
01
 10
604.4618011736799
 20
-674.4243157472821
 30
0.0
 11
604.4242223363541
 21
-674.5155847299595
 31
0.0
  0
LINE
  5
26F23
  8
01
 10
604.4242223363541
 20
-674.5155847299595
 30
0.0
 11
604.3840645240531
 21
-674.606409835246
 31
0.0
  0
LINE
  5
26F24
  8
01
 10
604.3840645240531
 20
-674.606409835246
 30
0.0
 11
604.3502627289769
 21
-674.6783560638969
 31
0.0
  0
LINE
  5
26F25
  8
01
 10
604.3502627289769
 20
-674.6783560638969
 30
0.0
 11
604.3148341228367
 21
-674.7499753282407
 31
0.0
  0
LINE
  5
26F26
  8
01
 10
604.3148341228367
 20
-674.7499753282407
 30
0.0
 11
604.2777804354288
 21
-674.8212521590074
 31
0.0
  0
LINE
  5
26F27
  8
01
 10
604.2777804354288
 20
-674.8212521590074
 30
0.0
 11
604.239103396552
 21
-674.8921710869272
 31
0.0
  0
LINE
  5
26F28
  8
01
 10
604.239103396552
 20
-674.8921710869272
 30
0.0
 11
604.1988047360015
 21
-674.9627166427302
 31
0.0
  0
LINE
  5
26F29
  8
01
 10
604.1988047360015
 20
-674.9627166427302
 30
0.0
 11
604.1568861835764
 21
-675.0328733571466
 31
0.0
  0
LINE
  5
26F2A
  8
01
 10
604.1568861835764
 20
-675.0328733571466
 30
0.0
 11
604.1133494690736
 21
-675.1026257609063
 31
0.0
  0
LINE
  5
26F2B
  8
01
 10
604.1133494690736
 20
-675.1026257609063
 30
0.0
 11
604.0681963222902
 21
-675.1719583847397
 31
0.0
  0
LINE
  5
26F2C
  8
01
 10
604.0681963222902
 20
-675.1719583847397
 30
0.0
 11
604.0214284730242
 21
-675.2408557593767
 31
0.0
  0
LINE
  5
26F2D
  8
01
 10
604.0214284730242
 20
-675.2408557593767
 30
0.0
 11
603.9730476510728
 21
-675.3093024155474
 31
0.0
  0
LINE
  5
26F2E
  8
01
 10
603.9730476510728
 20
-675.3093024155474
 30
0.0
 11
603.9230555862338
 21
-675.3772828839822
 31
0.0
  0
LINE
  5
26F2F
  8
01
 10
603.9230555862338
 20
-675.3772828839822
 30
0.0
 11
603.8714540083025
 21
-675.4447816954108
 31
0.0
  0
LINE
  5
26F30
  8
01
 10
603.8714540083025
 20
-675.4447816954108
 30
0.0
 11
603.8182446470797
 21
-675.5117833805635
 31
0.0
  0
LINE
  5
26F31
  8
01
 10
603.8182446470797
 20
-675.5117833805635
 30
0.0
 11
603.7634292323597
 21
-675.5782724701705
 31
0.0
  0
LINE
  5
26F32
  8
01
 10
603.7634292323597
 20
-675.5782724701705
 30
0.0
 11
603.7070094939414
 21
-675.6442334949618
 31
0.0
  0
LINE
  5
26F33
  8
01
 10
603.7070094939414
 20
-675.6442334949618
 30
0.0
 11
603.6489871616228
 21
-675.7096509856675
 31
0.0
  0
LINE
  5
26F34
  8
01
 10
603.6489871616228
 20
-675.7096509856675
 30
0.0
 11
603.562003180267
 21
-675.8035188974592
 31
0.0
  0
LINE
  5
26F35
  8
01
 10
603.562003180267
 20
-675.8035188974592
 30
0.0
 11
603.4716681176075
 21
-675.8961555195921
 31
0.0
  0
LINE
  5
26F36
  8
01
 10
603.4716681176075
 20
-675.8961555195921
 30
0.0
 11
603.3502302112289
 21
-676.0137293478813
 31
0.0
  0
LINE
  5
26F37
  8
01
 10
603.3502302112289
 20
-676.0137293478813
 30
0.0
 11
603.2232495663981
 21
-676.1290667769362
 31
0.0
  0
LINE
  5
26F38
  8
01
 10
603.2232495663981
 20
-676.1290667769362
 30
0.0
 11
603.0907569750594
 21
-676.2420479895856
 31
0.0
  0
LINE
  5
26F39
  8
01
 10
603.0907569750594
 20
-676.2420479895856
 30
0.0
 11
602.9527832291539
 21
-676.3525531686583
 31
0.0
  0
LINE
  5
26F3A
  8
01
 10
602.9527832291539
 20
-676.3525531686583
 30
0.0
 11
602.8533445021081
 21
-676.4280808585739
 31
0.0
  0
LINE
  5
26F3B
  8
01
 10
602.8533445021081
 20
-676.4280808585739
 30
0.0
 11
602.7512637247988
 21
-676.5023042678794
 31
0.0
  0
LINE
  5
26F3C
  8
01
 10
602.7512637247988
 20
-676.5023042678794
 30
0.0
 11
602.6465554707817
 21
-676.5751761096243
 31
0.0
  0
LINE
  5
26F3D
  8
01
 10
602.6465554707817
 20
-676.5751761096243
 30
0.0
 11
602.5392343136124
 21
-676.6466490968587
 31
0.0
  0
LINE
  5
26F3E
  8
01
 10
602.5392343136124
 20
-676.6466490968587
 30
0.0
 11
602.4293148268467
 21
-676.7166759426322
 31
0.0
  0
LINE
  5
26F3F
  8
01
 10
602.4293148268467
 20
-676.7166759426322
 30
0.0
 11
602.3168115840396
 21
-676.7852093599945
 31
0.0
  0
LINE
  5
26F40
  8
01
 10
602.3168115840396
 20
-676.7852093599945
 30
0.0
 11
602.2017391587475
 21
-676.8522020619956
 31
0.0
  0
LINE
  5
26F41
  8
01
 10
602.2017391587475
 20
-676.8522020619956
 30
0.0
 11
602.0841121245263
 21
-676.9176067616852
 31
0.0
  0
LINE
  5
26F42
  8
01
 10
602.0841121245263
 20
-676.9176067616852
 30
0.0
 11
601.88372282694
 21
-677.0223183496017
 31
0.0
  0
LINE
  5
26F43
  8
01
 10
601.88372282694
 20
-677.0223183496017
 30
0.0
 11
601.6766786091636
 21
-677.1222568986186
 31
0.0
  0
LINE
  5
26F44
  8
01
 10
601.6766786091636
 20
-677.1222568986186
 30
0.0
 11
601.4631803639737
 21
-677.2171943650351
 31
0.0
  0
LINE
  5
26F45
  8
01
 10
601.4631803639737
 20
-677.2171943650351
 30
0.0
 11
601.2434289841436
 21
-677.30690270515
 31
0.0
  0
LINE
  5
26F46
  8
01
 10
601.2434289841436
 20
-677.30690270515
 30
0.0
 11
601.0176253624492
 21
-677.3911538752627
 31
0.0
  0
LINE
  5
26F47
  8
01
 10
601.0176253624492
 20
-677.3911538752627
 30
0.0
 11
600.7859703916662
 21
-677.4697198316721
 31
0.0
  0
LINE
  5
26F48
  8
01
 10
600.7859703916662
 20
-677.4697198316721
 30
0.0
 11
600.5486649645678
 21
-677.5423725306774
 31
0.0
  0
LINE
  5
26F49
  8
01
 10
600.5486649645678
 20
-677.5423725306774
 30
0.0
 11
600.3059099739318
 21
-677.6088839285777
 31
0.0
  0
LINE
  5
26F4A
  8
01
 10
600.3059099739318
 20
-677.6088839285777
 30
0.0
 11
600.0472083816609
 21
-677.671449259137
 31
0.0
  0
LINE
  5
26F4B
  8
01
 10
600.0472083816609
 20
-677.671449259137
 30
0.0
 11
599.7838472176651
 21
-677.7267052735777
 31
0.0
  0
LINE
  5
26F4C
  8
01
 10
599.7838472176651
 20
-677.7267052735777
 30
0.0
 11
599.5162731866409
 21
-677.7744595923965
 31
0.0
  0
LINE
  5
26F4D
  8
01
 10
599.5162731866409
 20
-677.7744595923965
 30
0.0
 11
599.2449329932839
 21
-677.8145198360901
 31
0.0
  0
LINE
  5
26F4E
  8
01
 10
599.2449329932839
 20
-677.8145198360901
 30
0.0
 11
598.9409883056693
 21
-677.8496443599503
 31
0.0
  0
LINE
  5
26F4F
  8
01
 10
598.9409883056693
 20
-677.8496443599503
 30
0.0
 11
598.6344146246671
 21
-677.8748743864144
 31
0.0
  0
LINE
  5
26F50
  8
01
 10
598.6344146246671
 20
-677.8748743864144
 30
0.0
 11
598.3259272834927
 21
-677.8900847755028
 31
0.0
  0
LINE
  5
26F51
  8
01
 10
598.3259272834927
 20
-677.8900847755028
 30
0.0
 11
598.016241615365
 21
-677.8951503872361
 31
0.0
  0
LINE
  5
26F52
  8
01
 10
402.016241615415
 20
-677.8951503952535
 30
0.0
 11
401.7065559475828
 21
-677.8900847765634
 31
0.0
  0
LINE
  5
26F53
  8
01
 10
401.7065559475828
 20
-677.8900847765634
 30
0.0
 11
401.3980686065412
 21
-677.8748743851753
 31
0.0
  0
LINE
  5
26F54
  8
01
 10
401.3980686065412
 20
-677.8748743851753
 30
0.0
 11
401.091494925388
 21
-677.8496443591288
 31
0.0
  0
LINE
  5
26F55
  8
01
 10
401.091494925388
 20
-677.8496443591288
 30
0.0
 11
400.7875502372168
 21
-677.8145198364633
 31
0.0
  0
LINE
  5
26F56
  8
01
 10
400.7875502372168
 20
-677.8145198364633
 30
0.0
 11
400.5162100435597
 21
-677.774459593258
 31
0.0
  0
LINE
  5
26F57
  8
01
 10
400.5162100435597
 20
-677.774459593258
 30
0.0
 11
400.2486360126564
 21
-677.7267052743481
 31
0.0
  0
LINE
  5
26F58
  8
01
 10
400.2486360126564
 20
-677.7267052743481
 30
0.0
 11
399.985274848969
 21
-677.671449259493
 31
0.0
  0
LINE
  5
26F59
  8
01
 10
399.985274848969
 20
-677.671449259493
 30
0.0
 11
399.7265732569555
 21
-677.6088839284524
 31
0.0
  0
LINE
  5
26F5A
  8
01
 10
399.7265732569555
 20
-677.6088839284524
 30
0.0
 11
399.4838182667205
 21
-677.5423725303251
 31
0.0
  0
LINE
  5
26F5B
  8
01
 10
399.4838182667205
 20
-677.5423725303251
 30
0.0
 11
399.246512839714
 21
-677.4697198312178
 31
0.0
  0
LINE
  5
26F5C
  8
01
 10
399.246512839714
 20
-677.4697198312178
 30
0.0
 11
399.01485786879
 21
-677.3911538748055
 31
0.0
  0
LINE
  5
26F5D
  8
01
 10
399.01485786879
 20
-677.3911538748055
 30
0.0
 11
398.7890542468045
 21
-677.3069027047628
 31
0.0
  0
LINE
  5
26F5E
  8
01
 10
398.7890542468045
 20
-677.3069027047628
 30
0.0
 11
398.5693028666125
 21
-677.2171943647646
 31
0.0
  0
LINE
  5
26F5F
  8
01
 10
398.5693028666125
 20
-677.2171943647646
 30
0.0
 11
398.3558046210698
 21
-677.1222568984858
 31
0.0
  0
LINE
  5
26F60
  8
01
 10
398.3558046210698
 20
-677.1222568984858
 30
0.0
 11
398.1487604030314
 21
-677.0223183496013
 31
0.0
  0
LINE
  5
26F61
  8
01
 10
398.1487604030314
 20
-677.0223183496013
 30
0.0
 11
397.9483711053541
 21
-676.9176067617856
 31
0.0
  0
LINE
  5
26F62
  8
01
 10
397.9483711053541
 20
-676.9176067617856
 30
0.0
 11
397.8307440711184
 21
-676.8522020620917
 31
0.0
  0
LINE
  5
26F63
  8
01
 10
397.8307440711184
 20
-676.8522020620917
 30
0.0
 11
397.7156716459127
 21
-676.78520936008
 31
0.0
  0
LINE
  5
26F64
  8
01
 10
397.7156716459127
 20
-676.78520936008
 30
0.0
 11
397.6031684032693
 21
-676.7166759427029
 31
0.0
  0
LINE
  5
26F65
  8
01
 10
397.6031684032693
 20
-676.7166759427029
 30
0.0
 11
397.4932489167173
 21
-676.6466490969128
 31
0.0
  0
LINE
  5
26F66
  8
01
 10
397.4932489167173
 20
-676.6466490969128
 30
0.0
 11
397.3859277597882
 21
-676.5751761096623
 31
0.0
  0
LINE
  5
26F67
  8
01
 10
397.3859277597882
 20
-676.5751761096623
 30
0.0
 11
397.281219506012
 21
-676.5023042679035
 31
0.0
  0
LINE
  5
26F68
  8
01
 10
397.281219506012
 20
-676.5023042679035
 30
0.0
 11
397.1791387289192
 21
-676.428080858589
 31
0.0
  0
LINE
  5
26F69
  8
01
 10
397.1791387289192
 20
-676.428080858589
 30
0.0
 11
397.0797000020426
 21
-676.3525531686713
 31
0.0
  0
LINE
  5
26F6A
  8
01
 10
397.0797000020426
 20
-676.3525531686713
 30
0.0
 11
396.9417262553767
 21
-676.2420479888826
 31
0.0
  0
LINE
  5
26F6B
  8
01
 10
396.9417262553767
 20
-676.2420479888826
 30
0.0
 11
396.809233663225
 21
-676.1290667755031
 31
0.0
  0
LINE
  5
26F6C
  8
01
 10
396.809233663225
 20
-676.1290667755031
 30
0.0
 11
396.6822530175747
 21
-676.0137293457112
 31
0.0
  0
LINE
  5
26F6D
  8
01
 10
396.6822530175747
 20
-676.0137293457112
 30
0.0
 11
396.5608151104167
 21
-675.8961555166853
 31
0.0
  0
LINE
  5
26F6E
  8
01
 10
396.5608151104167
 20
-675.8961555166853
 30
0.0
 11
396.4704800491151
 21
-675.8035188959898
 31
0.0
  0
LINE
  5
26F6F
  8
01
 10
396.4704800491151
 20
-675.8035188959898
 30
0.0
 11
396.3834960690125
 21
-675.7096509856556
 31
0.0
  0
LINE
  5
26F70
  8
01
 10
396.3834960690125
 20
-675.7096509856556
 30
0.0
 11
396.3254737366339
 21
-675.6442334949595
 31
0.0
  0
LINE
  5
26F71
  8
01
 10
396.3254737366339
 20
-675.6442334949595
 30
0.0
 11
396.2690539981737
 21
-675.5782724701738
 31
0.0
  0
LINE
  5
26F72
  8
01
 10
396.2690539981737
 20
-675.5782724701738
 30
0.0
 11
396.2142385834264
 21
-675.511783380569
 31
0.0
  0
LINE
  5
26F73
  8
01
 10
396.2142385834264
 20
-675.511783380569
 30
0.0
 11
396.16102922219
 21
-675.4447816954154
 31
0.0
  0
LINE
  5
26F74
  8
01
 10
396.16102922219
 20
-675.4447816954154
 30
0.0
 11
396.1094276442578
 21
-675.3772828839834
 31
0.0
  0
LINE
  5
26F75
  8
01
 10
396.1094276442578
 20
-675.3772828839834
 30
0.0
 11
396.059435579427
 21
-675.3093024155436
 31
0.0
  0
LINE
  5
26F76
  8
01
 10
396.059435579427
 20
-675.3093024155436
 30
0.0
 11
396.0110547574928
 21
-675.2408557593664
 31
0.0
  0
LINE
  5
26F77
  8
01
 10
396.0110547574928
 20
-675.2408557593664
 30
0.0
 11
395.9642869082514
 21
-675.1719583847222
 31
0.0
  0
LINE
  5
26F78
  8
01
 10
395.9642869082514
 20
-675.1719583847222
 30
0.0
 11
395.9191337614981
 21
-675.1026257608814
 31
0.0
  0
LINE
  5
26F79
  8
01
 10
395.9191337614981
 20
-675.1026257608814
 30
0.0
 11
395.8755970470289
 21
-675.0328733571147
 31
0.0
  0
LINE
  5
26F7A
  8
01
 10
395.8755970470289
 20
-675.0328733571147
 30
0.0
 11
395.8336784946401
 21
-674.9627166426923
 31
0.0
  0
LINE
  5
26F7B
  8
01
 10
395.8336784946401
 20
-674.9627166426923
 30
0.0
 11
395.7933798341261
 21
-674.8921710868846
 31
0.0
  0
LINE
  5
26F7C
  8
01
 10
395.7933798341261
 20
-674.8921710868846
 30
0.0
 11
395.7547027952838
 21
-674.8212521589622
 31
0.0
  0
LINE
  5
26F7D
  8
01
 10
395.7547027952838
 20
-674.8212521589622
 30
0.0
 11
395.7176491079096
 21
-674.7499753281955
 31
0.0
  0
LINE
  5
26F7E
  8
01
 10
395.7176491079096
 20
-674.7499753281955
 30
0.0
 11
395.6822205017976
 21
-674.6783560638551
 31
0.0
  0
LINE
  5
26F7F
  8
01
 10
395.6822205017976
 20
-674.6783560638551
 30
0.0
 11
395.6484187067441
 21
-674.6064098352113
 31
0.0
  0
LINE
  5
26F80
  8
01
 10
395.6484187067441
 20
-674.6064098352113
 30
0.0
 11
395.6082608944185
 21
-674.5155847298563
 31
0.0
  0
LINE
  5
26F81
  8
01
 10
395.6082608944185
 20
-674.5155847298563
 30
0.0
 11
395.5706820570746
 21
-674.4243157471687
 31
0.0
  0
LINE
  5
26F82
  8
01
 10
395.5706820570746
 20
-674.4243157471687
 30
0.0
 11
395.5356837499063
 21
-674.33263004343
 31
0.0
  0
LINE
  5
26F83
  8
01
 10
395.5356837499063
 20
-674.33263004343
 30
0.0
 11
395.503267528106
 21
-674.2405547749214
 31
0.0
  0
LINE
  5
26F84
  8
01
 10
395.503267528106
 20
-674.2405547749214
 30
0.0
 11
395.4734349468669
 21
-674.1481170979246
 31
0.0
  0
LINE
  5
26F85
  8
01
 10
395.4734349468669
 20
-674.1481170979246
 30
0.0
 11
395.4461875613803
 21
-674.055344168721
 31
0.0
  0
LINE
  5
26F86
  8
01
 10
395.4461875613803
 20
-674.055344168721
 30
0.0
 11
395.4215269268403
 21
-673.962263143592
 31
0.0
  0
LINE
  5
26F87
  8
01
 10
395.4215269268403
 20
-673.962263143592
 30
0.0
 11
395.3994545984393
 21
-673.8689011788193
 31
0.0
  0
LINE
  5
26F88
  8
01
 10
395.3994545984393
 20
-673.8689011788193
 30
0.0
 11
395.3799721313695
 21
-673.7752854306841
 31
0.0
  0
LINE
  5
26F89
  8
01
 10
395.3799721313695
 20
-673.7752854306841
 30
0.0
 11
395.3630810808251
 21
-673.681443055468
 31
0.0
  0
LINE
  5
26F8A
  8
01
 10
395.3630810808251
 20
-673.681443055468
 30
0.0
 11
395.3487830019973
 21
-673.5874012094524
 31
0.0
  0
LINE
  5
26F8B
  8
01
 10
395.3487830019973
 20
-673.5874012094524
 30
0.0
 11
395.3370794500803
 21
-673.4931870489189
 31
0.0
  0
LINE
  5
26F8C
  8
01
 10
395.3370794500803
 20
-673.4931870489189
 30
0.0
 11
395.3279719802646
 21
-673.3988277301488
 31
0.0
  0
LINE
  5
26F8D
  8
01
 10
395.3279719802646
 20
-673.3988277301488
 30
0.0
 11
395.321462147746
 21
-673.3043504094238
 31
0.0
  0
LINE
  5
26F8E
  8
01
 10
395.321462147746
 20
-673.3043504094238
 30
0.0
 11
395.3175515077152
 21
-673.2097822430252
 31
0.0
  0
LINE
  5
26F8F
  8
01
 10
395.3175515077152
 20
-673.2097822430252
 30
0.0
 11
395.3162416153651
 21
-673.1151503872344
 31
0.0
  0
LINE
  5
26F90
  8
01
 10
604.7162416153648
 20
-642.9810031319346
 30
0.0
 11
395.3162416153651
 21
-642.9810031319346
 31
0.0
  0
LINE
  5
26F91
  8
01
 10
395.3162416153651
 20
-673.1151503872355
 30
0.0
 11
395.3162416153651
 21
-655.1951503872043
 31
0.0
  0
LINE
  5
26F92
  8
01
 10
604.7162416153648
 20
-655.1951503872357
 30
0.0
 11
604.7162416153648
 21
-673.1151503872298
 31
0.0
  0
LINE
  5
26F93
  8
01
 10
392.8162416153651
 20
-640.8490200553106
 30
0.0
 11
392.8162416153651
 21
-640.5346777970934
 31
0.0
  0
LINE
  5
26F94
  8
01
 10
392.8162416153651
 20
-640.5213470556758
 30
0.0
 11
392.8162416153651
 21
-640.5330528212218
 31
0.0
  0
LINE
  5
26F95
  8
01
 10
607.2162416153648
 20
-640.8490200553106
 30
0.0
 11
607.2162416153648
 21
-640.5346330206769
 31
0.0
  0
LINE
  5
26F96
  8
01
 10
393.1162416153653
 20
-639.3213470557085
 30
0.0
 11
606.9162416153646
 21
-639.3213470557085
 31
0.0
  0
LINE
  5
26F97
  8
01
 10
607.2162416001134
 20
-640.5329779250516
 30
0.0
 11
607.2162414839692
 21
-640.5345199406449
 31
0.0
  0
LINE
  5
26F98
  8
01
 10
607.2163924082121
 20
-640.8213303512663
 30
0.0
 11
619.7162416153648
 21
-640.8213303512663
 31
0.0
  0
ARC
  5
26F99
  8
01
 10
601.4534068057707
 20
-671.0181060839751
 30
0.0
 40
3.562854726684503
 50
336.3237479347127
 51
359.8084193141466
  0
LINE
  5
26F9A
  8
01
 10
604.7162416153648
 20
-654.20221053529
 30
0.0
 11
604.7162416153648
 21
-655.1951503872357
 31
0.0
  0
LINE
  5
26F9B
  8
01
 10
494.80990499039
 20
-677.895150387236
 30
0.0
 11
402.0162416153649
 21
-677.895150387236
 31
0.0
  0
LINE
  5
26F9C
  8
01
 10
380.3162416153651
 20
-640.8213303512663
 30
0.0
 11
392.8162794943288
 21
-640.8213303512663
 31
0.0
  0
LINE
  5
26F9D
  8
01
 10
495.423102253511
 20
-678.3713303512662
 30
0.0
 11
402.0162416153649
 21
-678.3713303512662
 31
0.0
  0
LINE
  5
26F9E
  8
01
 10
620.016241615365
 20
-644.2593636665921
 30
0.0
 11
620.016241615365
 21
-646.4712898562682
 31
0.0
  0
LINE
  5
26F9F
  8
01
 10
380.0162416153649
 20
-644.2593636665921
 30
0.0
 11
380.0162416153649
 21
-646.4712898562682
 31
0.0
  0
ARC
  5
26FA0
  8
01
 10
-619.7162416153648
 20
-641.1213303512661
 30
0.0
 40
0.2999999999998408
 50
90.0
 51
179.9999999999783
210
0.0
220
0.0
230
-1.0
  0
ARC
  5
26FA1
  8
01
 10
380.3162416153651
 20
-641.1213303512662
 30
0.0
 40
0.2999999999999403
 50
90.0
 51
180.0
  0
ARC
  5
26FA2
  8
01
 10
-619.7162416153648
 20
-680.5213303512663
 30
0.0
 40
0.3000000000001251
 50
179.9999999999783
 51
270.0
210
0.0
220
0.0
230
-1.0
  0
ARC
  5
26FA3
  8
01
 10
380.3162416153651
 20
-680.5213303512664
 30
0.0
 40
0.2999999999998124
 50
179.9999999999783
 51
270.0
  0
LINE
  5
26FA4
  8
01
 10
620.016241615365
 20
-643.8213303512729
 30
0.0
 11
620.016241615365
 21
-644.2593636665921
 31
0.0
  0
LINE
  5
26FA5
  8
01
 10
380.0162416153649
 20
-643.8213303512729
 30
0.0
 11
380.0162416153649
 21
-644.2593636665921
 31
0.0
  0
LINE
  5
26FA6
  8
01
 10
619.7162416153648
 20
-680.8213303512663
 30
0.0
 11
380.3162416153651
 21
-680.8213303512663
 31
0.0
  0
ARC
  5
26FA7
  8
01
 10
398.5791341537011
 20
-671.0180982928591
 30
0.0
 40
3.56291248116305
 50
180.1917028712507
 51
203.6813150412746
  0
LINE
  5
26FA8
  8
01
 10
402.0162416153649
 20
-650.7213303512658
 30
0.0
 11
598.016241615365
 21
-650.7213303512658
 31
0.0
  0
LINE
  5
26FA9
  8
01
 10
598.016241615365
 20
-678.3713303512662
 30
0.0
 11
504.6099850419965
 21
-678.3713303512662
 31
0.0
  0
ARC
  5
26FAA
  8
01
 10
-393.1162416154326
 20
-640.5213470556446
 30
0.0
 40
0.3000000000673421
 50
357.77977940096
 51
0.0000000002822636
210
0.0
220
0.0
230
-1.0
  0
LINE
  5
26FAB
  8
01
 10
402.0162416153649
 20
-651.6451503872357
 30
0.0
 11
401.7773771567323
 21
-651.6489205597863
 31
0.0
  0
LINE
  5
26FAC
  8
01
 10
401.7773771567323
 20
-651.6489205597863
 30
0.0
 11
401.5394994485702
 21
-651.6602182971415
 31
0.0
  0
LINE
  5
26FAD
  8
01
 10
401.5394994485702
 20
-651.6602182971415
 30
0.0
 11
401.3031294663193
 21
-651.6789520874587
 31
0.0
  0
LINE
  5
26FAE
  8
01
 10
401.3031294663193
 20
-651.6789520874587
 30
0.0
 11
401.0687881854225
 21
-651.7050304188957
 31
0.0
  0
LINE
  5
26FAF
  8
01
 10
401.0687881854225
 20
-651.7050304188957
 30
0.0
 11
400.9226658834147
 21
-651.7251533702897
 31
0.0
  0
LINE
  5
26FB0
  8
01
 10
400.9226658834147
 20
-651.7251533702897
 30
0.0
 11
400.7779230584343
 21
-651.748068548038
 31
0.0
  0
LINE
  5
26FB1
  8
01
 10
400.7779230584343
 20
-651.748068548038
 30
0.0
 11
400.6346677368098
 21
-651.7737241551637
 31
0.0
  0
LINE
  5
26FB2
  8
01
 10
400.6346677368098
 20
-651.7737241551637
 30
0.0
 11
400.4930079448692
 21
-651.80206839469
 31
0.0
  0
LINE
  5
26FB3
  8
01
 10
400.4930079448692
 20
-651.80206839469
 30
0.0
 11
400.2867160234497
 21
-651.8487855977127
 31
0.0
  0
LINE
  5
26FB4
  8
01
 10
400.2867160234497
 20
-651.8487855977127
 30
0.0
 11
400.0848527852664
 21
-651.9009744540367
 31
0.0
  0
LINE
  5
26FB5
  8
01
 10
400.0848527852664
 20
-651.9009744540367
 30
0.0
 11
399.8876887474177
 21
-651.9584273067163
 31
0.0
  0
LINE
  5
26FB6
  8
01
 10
399.8876887474177
 20
-651.9584273067163
 30
0.0
 11
399.6954944270007
 21
-652.0209364988058
 31
0.0
  0
LINE
  5
26FB7
  8
01
 10
399.6954944270007
 20
-652.0209364988058
 30
0.0
 11
399.5116501634553
 21
-652.0871076385504
 31
0.0
  0
LINE
  5
26FB8
  8
01
 10
399.5116501634553
 20
-652.0871076385504
 30
0.0
 11
399.3333929057841
 21
-652.1575983916873
 31
0.0
  0
LINE
  5
26FB9
  8
01
 10
399.3333929057841
 20
-652.1575983916873
 30
0.0
 11
399.160833491194
 21
-652.232176587047
 31
0.0
  0
LINE
  5
26FBA
  8
01
 10
399.160833491194
 20
-652.232176587047
 30
0.0
 11
398.994082756895
 21
-652.3106100534594
 31
0.0
  0
LINE
  5
26FBB
  8
01
 10
398.994082756895
 20
-652.3106100534594
 30
0.0
 11
398.8332515400931
 21
-652.3926666197547
 31
0.0
  0
LINE
  5
26FBC
  8
01
 10
398.8332515400931
 20
-652.3926666197547
 30
0.0
 11
398.6784506779965
 21
-652.4781141147631
 31
0.0
  0
LINE
  5
26FBD
  8
01
 10
398.6784506779965
 20
-652.4781141147631
 30
0.0
 11
398.529791007814
 21
-652.5667203673148
 31
0.0
  0
LINE
  5
26FBE
  8
01
 10
398.529791007814
 20
-652.5667203673148
 30
0.0
 11
398.3873833667527
 21
-652.65825320624
 31
0.0
  0
LINE
  5
26FBF
  8
01
 10
398.3873833667527
 20
-652.65825320624
 30
0.0
 11
398.2939925009947
 21
-652.7221709680887
 31
0.0
  0
LINE
  5
26FC0
  8
01
 10
398.2939925009947
 20
-652.7221709680887
 30
0.0
 11
398.203542574997
 21
-652.7872796098055
 31
0.0
  0
LINE
  5
26FC1
  8
01
 10
398.203542574997
 20
-652.7872796098055
 30
0.0
 11
398.1160343522339
 21
-652.8535161300251
 31
0.0
  0
LINE
  5
26FC2
  8
01
 10
398.1160343522339
 20
-652.8535161300251
 30
0.0
 11
398.0314685961772
 21
-652.9208175273816
 31
0.0
  0
LINE
  5
26FC3
  8
01
 10
398.0314685961772
 20
-652.9208175273816
 30
0.0
 11
397.9498460703013
 21
-652.9891208005092
 31
0.0
  0
LINE
  5
26FC4
  8
01
 10
397.9498460703013
 20
-652.9891208005092
 30
0.0
 11
397.8711675380797
 21
-653.0583629480425
 31
0.0
  0
LINE
  5
26FC5
  8
01
 10
397.8711675380797
 20
-653.0583629480425
 30
0.0
 11
397.7954337629841
 21
-653.1284809686156
 31
0.0
  0
LINE
  5
26FC6
  8
01
 10
397.7954337629841
 20
-653.1284809686156
 30
0.0
 11
397.7226455084889
 21
-653.1994118608628
 31
0.0
  0
LINE
  5
26FC7
  8
01
 10
397.7226455084889
 20
-653.1994118608628
 30
0.0
 11
397.6583359126322
 21
-653.2652745531847
 31
0.0
  0
LINE
  5
26FC8
  8
01
 10
397.6583359126322
 20
-653.2652745531847
 30
0.0
 11
397.5964949441028
 21
-653.3317414128115
 31
0.0
  0
LINE
  5
26FC9
  8
01
 10
397.5964949441028
 20
-653.3317414128115
 30
0.0
 11
397.5371129081956
 21
-653.3987750367978
 31
0.0
  0
LINE
  5
26FCA
  8
01
 10
397.5371129081956
 20
-653.3987750367978
 30
0.0
 11
397.4801801102036
 21
-653.4663380221981
 31
0.0
  0
LINE
  5
26FCB
  8
01
 10
397.4801801102036
 20
-653.4663380221981
 30
0.0
 11
397.4377518209636
 21
-653.5190164396173
 31
0.0
  0
LINE
  5
26FCC
  8
01
 10
397.4377518209636
 20
-653.5190164396173
 30
0.0
 11
397.3967828972023
 21
-653.571968967044
 31
0.0
  0
LINE
  5
26FCD
  8
01
 10
397.3967828972023
 20
-653.571968967044
 30
0.0
 11
397.3572672802253
 21
-653.6251821409991
 31
0.0
  0
LINE
  5
26FCE
  8
01
 10
397.3572672802253
 20
-653.6251821409991
 30
0.0
 11
397.319198911338
 21
-653.6786424980038
 31
0.0
  0
LINE
  5
26FCF
  8
01
 10
397.319198911338
 20
-653.6786424980038
 30
0.0
 11
397.2825717318461
 21
-653.7323365745789
 31
0.0
  0
LINE
  5
26FD0
  8
01
 10
397.2825717318461
 20
-653.7323365745789
 30
0.0
 11
397.247379683056
 21
-653.7862509072455
 31
0.0
  0
LINE
  5
26FD1
  8
01
 10
397.247379683056
 20
-653.7862509072455
 30
0.0
 11
397.2136167062732
 21
-653.8403720325247
 31
0.0
  0
LINE
  5
26FD2
  8
01
 10
397.2136167062732
 20
-653.8403720325247
 30
0.0
 11
397.1812767428042
 21
-653.8946864869373
 31
0.0
  0
LINE
  5
26FD3
  8
01
 10
397.1812767428042
 20
-653.8946864869373
 30
0.0
 11
397.1503537339537
 21
-653.9491808070045
 31
0.0
  0
LINE
  5
26FD4
  8
01
 10
397.1503537339537
 20
-653.9491808070045
 30
0.0
 11
397.120841621028
 21
-654.0038415292471
 31
0.0
  0
LINE
  5
26FD5
  8
01
 10
397.120841621028
 20
-654.0038415292471
 30
0.0
 11
397.0927343453337
 21
-654.0586551901862
 31
0.0
  0
LINE
  5
26FD6
  8
01
 10
397.0927343453337
 20
-654.0586551901862
 30
0.0
 11
397.0660258481754
 21
-654.1136083263426
 31
0.0
  0
LINE
  5
26FD7
  8
01
 10
397.0660258481754
 20
-654.1136083263426
 30
0.0
 11
397.0407100708604
 21
-654.1686874742376
 31
0.0
  0
LINE
  5
26FD8
  8
01
 10
397.0407100708604
 20
-654.1686874742376
 30
0.0
 11
397.0167809546925
 21
-654.223879170392
 31
0.0
  0
LINE
  5
26FD9
  8
01
 10
397.0167809546925
 20
-654.223879170392
 30
0.0
 11
396.9942324409791
 21
-654.2791699513269
 31
0.0
  0
LINE
  5
26FDA
  8
01
 10
396.9942324409791
 20
-654.2791699513269
 30
0.0
 11
396.9730584710256
 21
-654.3345463535633
 31
0.0
  0
LINE
  5
26FDB
  8
01
 10
396.9730584710256
 20
-654.3345463535633
 30
0.0
 11
396.9539660035558
 21
-654.3879271060446
 31
0.0
  0
LINE
  5
26FDC
  8
01
 10
396.9539660035558
 20
-654.3879271060446
 30
0.0
 11
396.9361266441625
 21
-654.4413934432401
 31
0.0
  0
LINE
  5
26FDD
  8
01
 10
396.9361266441625
 20
-654.4413934432401
 30
0.0
 11
396.9195373386571
 21
-654.494938654129
 31
0.0
  0
LINE
  5
26FDE
  8
01
 10
396.9195373386571
 20
-654.494938654129
 30
0.0
 11
396.9041950328516
 21
-654.54855602769
 31
0.0
  0
LINE
  5
26FDF
  8
01
 10
396.9041950328516
 20
-654.54855602769
 30
0.0
 11
396.8900966725574
 21
-654.602238852902
 31
0.0
  0
LINE
  5
26FE0
  8
01
 10
396.8900966725574
 20
-654.602238852902
 30
0.0
 11
396.8772392035886
 21
-654.6559804187439
 31
0.0
  0
LINE
  5
26FE1
  8
01
 10
396.8772392035886
 20
-654.6559804187439
 30
0.0
 11
396.8656195717546
 21
-654.7097740141945
 31
0.0
  0
LINE
  5
26FE2
  8
01
 10
396.8656195717546
 20
-654.7097740141945
 30
0.0
 11
396.8552347228703
 21
-654.7636129282328
 31
0.0
  0
LINE
  5
26FE3
  8
01
 10
396.8552347228703
 20
-654.7636129282328
 30
0.0
 11
396.8460816027451
 21
-654.8174904498376
 31
0.0
  0
LINE
  5
26FE4
  8
01
 10
396.8460816027451
 20
-654.8174904498376
 30
0.0
 11
396.8381571571923
 21
-654.8713998679877
 31
0.0
  0
LINE
  5
26FE5
  8
01
 10
396.8381571571923
 20
-654.8713998679877
 30
0.0
 11
396.8314583320231
 21
-654.9253344716623
 31
0.0
  0
LINE
  5
26FE6
  8
01
 10
396.8314583320231
 20
-654.9253344716623
 30
0.0
 11
396.8259820730515
 21
-654.9792875498399
 31
0.0
  0
LINE
  5
26FE7
  8
01
 10
396.8259820730515
 20
-654.9792875498399
 30
0.0
 11
396.8217253260869
 21
-655.0332523914997
 31
0.0
  0
LINE
  5
26FE8
  8
01
 10
396.8217253260869
 20
-655.0332523914997
 30
0.0
 11
396.8186850369435
 21
-655.0872222856203
 31
0.0
  0
LINE
  5
26FE9
  8
01
 10
396.8186850369435
 20
-655.0872222856203
 30
0.0
 11
396.8168581514316
 21
-655.1411905211808
 31
0.0
  0
LINE
  5
26FEA
  8
01
 10
396.8168581514316
 20
-655.1411905211808
 30
0.0
 11
396.8162416153651
 21
-655.1951503871599
 31
0.0
  0
LINE
  5
26FEB
  8
01
 10
396.8162414055138
 20
-673.2554410825649
 30
0.0
 11
396.8162392494793
 21
-673.2576801526084
 31
0.0
  0
LINE
  5
26FEC
  8
01
 10
603.2162667853441
 20
-673.2631180165962
 30
0.0
 11
603.2162439957398
 21
-673.2561294358909
 31
0.0
  0
LINE
  5
26FED
  8
01
 10
598.016241615364
 20
-651.6451503872357
 30
0.0
 11
402.0162416153649
 21
-651.6451503872357
 31
0.0
  0
LINE
  5
26FEE
  8
01
 10
598.016241615365
 20
-677.895150387236
 30
0.0
 11
505.2229789622339
 21
-677.895150387236
 31
0.0
  0
ARC
  5
26FEF
  8
01
 10
-393.1162414562756
 20
-639.6213429864368
 30
0.0
 40
0.2999998409106483
 50
359.9999225108205
 51
90.00003038391505
210
0.0
220
0.0
230
-1.0
  0
ARC
  5
26FF0
  8
01
 10
-606.9162417744543
 20
-639.6213429864366
 30
0.0
 40
0.2999998409105014
 50
89.99996961608498
 51
180.000077489223
210
0.0
220
0.0
230
-1.0
  0
LINE
  5
26FF1
  8
01
 10
392.8162417467616
 20
-640.5345199406505
 30
0.0
 11
392.8162416306174
 21
-640.5329779250513
 31
0.0
  0
LINE
  5
26FF2
  8
01
 10
395.3162416153651
 20
-655.1951503872043
 30
0.0
 11
395.3162416153651
 21
-654.20221053529
 31
0.0
  0
LINE
  5
26FF3
  8
01
 10
603.2162416153648
 20
-673.2551503872361
 30
0.0
 11
603.2162416153648
 21
-655.1951503871815
 31
0.0
  0
LINE
  5
26FF4
  8
01
 10
396.8162416153651
 20
-655.1951503872141
 30
0.0
 11
396.8162416153651
 21
-673.25515038723
 31
0.0
  0
LINE
  5
26FF5
  8
01
 10
392.8162416153651
 20
-639.6213433992077
 30
0.0
 11
392.8162416153651
 21
-640.5213470557086
 31
0.0
  0
LINE
  5
26FF6
  8
01
 10
607.2162416153648
 20
-640.5213470556758
 30
0.0
 11
607.2162416153648
 21
-640.5330528212218
 31
0.0
  0
LINE
  5
26FF7
  8
01
 10
607.2162416153648
 20
-639.6213433992077
 30
0.0
 11
607.2162416153648
 21
-640.5213470557086
 31
0.0
  0
LINE
  5
26FF8
  8
01
 10
603.2162416153648
 20
-655.1951503871597
 30
0.0
 11
603.2156266386424
 21
-655.1411922351152
 31
0.0
  0
LINE
  5
26FF9
  8
01
 10
603.2156266386424
 20
-655.1411922351152
 30
0.0
 11
603.2138008720909
 21
-655.087225456798
 31
0.0
  0
LINE
  5
26FFA
  8
01
 10
603.2138008720909
 20
-655.087225456798
 30
0.0
 11
603.2107613027607
 21
-655.0332567671967
 31
0.0
  0
LINE
  5
26FFB
  8
01
 10
603.2107613027607
 20
-655.0332567671967
 30
0.0
 11
603.2065049177023
 21
-654.9792928812996
 31
0.0
  0
LINE
  5
26FFC
  8
01
 10
603.2065049177023
 20
-654.9792928812996
 30
0.0
 11
603.2010287039644
 21
-654.9253405140952
 31
0.0
  0
LINE
  5
26FFD
  8
01
 10
603.2010287039644
 20
-654.9253405140952
 30
0.0
 11
603.1943296485985
 21
-654.8714063805718
 31
0.0
  0
LINE
  5
26FFE
  8
01
 10
603.1943296485985
 20
-654.8714063805718
 30
0.0
 11
603.1864047386531
 21
-654.8174971957179
 31
0.0
  0
LINE
  5
26FFF
  8
01
 10
603.1864047386531
 20
-654.8174971957179
 30
0.0
 11
603.1772509611798
 21
-654.763619674522
 31
0.0
  0
LINE
  5
27000
  8
01
 10
603.1772509611798
 20
-654.763619674522
 30
0.0
 11
603.1668653032262
 21
-654.7097805319725
 31
0.0
  0
LINE
  5
27001
  8
01
 10
603.1668653032262
 20
-654.7097805319725
 30
0.0
 11
603.1552447518449
 21
-654.6559864830576
 31
0.0
  0
LINE
  5
27002
  8
01
 10
603.1552447518449
 20
-654.6559864830576
 30
0.0
 11
603.1423862940834
 21
-654.602244242766
 31
0.0
  0
LINE
  5
27003
  8
01
 10
603.1423862940834
 20
-654.602244242766
 30
0.0
 11
603.1282869169933
 21
-654.548560526086
 31
0.0
  0
LINE
  5
27004
  8
01
 10
603.1282869169933
 20
-654.548560526086
 30
0.0
 11
603.1129436076241
 21
-654.494942048006
 31
0.0
  0
LINE
  5
27005
  8
01
 10
603.1129436076241
 20
-654.494942048006
 30
0.0
 11
603.0963533530254
 21
-654.4413955235145
 31
0.0
  0
LINE
  5
27006
  8
01
 10
603.0963533530254
 20
-654.4413955235145
 30
0.0
 11
603.0785131402469
 21
-654.3879276675998
 31
0.0
  0
LINE
  5
27007
  8
01
 10
603.0785131402469
 20
-654.3879276675998
 30
0.0
 11
603.0594199563399
 21
-654.3345451952505
 31
0.0
  0
LINE
  5
27008
  8
01
 10
603.0594199563399
 20
-654.3345451952505
 30
0.0
 11
603.0382454929792
 21
-654.2791668768165
 31
0.0
  0
LINE
  5
27009
  8
01
 10
603.0382454929792
 20
-654.2791668768165
 30
0.0
 11
603.0156970397053
 21
-654.2238748304002
 31
0.0
  0
LINE
  5
2700A
  8
01
 10
603.0156970397053
 20
-654.2238748304002
 30
0.0
 11
602.9917684509443
 21
-654.1686824352578
 31
0.0
  0
LINE
  5
2700B
  8
01
 10
602.9917684509443
 20
-654.1686824352578
 30
0.0
 11
602.9664535811186
 21
-654.1136030706455
 31
0.0
  0
LINE
  5
2700C
  8
01
 10
602.9664535811186
 20
-654.1136030706455
 30
0.0
 11
602.9397462846533
 21
-654.0586501158195
 31
0.0
  0
LINE
  5
2700D
  8
01
 10
602.9397462846533
 20
-654.0586501158195
 30
0.0
 11
602.9116404159719
 21
-654.0038369500361
 31
0.0
  0
LINE
  5
2700E
  8
01
 10
602.9116404159719
 20
-654.0038369500361
 30
0.0
 11
602.8821298295003
 21
-653.9491769525516
 31
0.0
  0
LINE
  5
2700F
  8
01
 10
602.8821298295003
 20
-653.9491769525516
 30
0.0
 11
602.851208379661
 21
-653.8946835026221
 31
0.0
  0
LINE
  5
27010
  8
01
 10
602.851208379661
 20
-653.8946835026221
 30
0.0
 11
602.81886992088
 21
-653.8403699795039
 31
0.0
  0
LINE
  5
27011
  8
01
 10
602.81886992088
 20
-653.8403699795039
 30
0.0
 11
602.7851083075799
 21
-653.7862497624533
 31
0.0
  0
LINE
  5
27012
  8
01
 10
602.7851083075799
 20
-653.7862497624533
 30
0.0
 11
602.7499173941857
 21
-653.7323362307263
 31
0.0
  0
LINE
  5
27013
  8
01
 10
602.7499173941857
 20
-653.7323362307263
 30
0.0
 11
602.7132910351226
 21
-653.6786427635794
 31
0.0
  0
LINE
  5
27014
  8
01
 10
602.7132910351226
 20
-653.6786427635794
 30
0.0
 11
602.675223084813
 21
-653.6251827402687
 31
0.0
  0
LINE
  5
27015
  8
01
 10
602.675223084813
 20
-653.6251827402687
 30
0.0
 11
602.635707397682
 21
-653.5719695400505
 31
0.0
  0
LINE
  5
27016
  8
01
 10
602.635707397682
 20
-653.5719695400505
 30
0.0
 11
602.594737828155
 21
-653.5190165421809
 31
0.0
  0
LINE
  5
27017
  8
01
 10
602.594737828155
 20
-653.5190165421809
 30
0.0
 11
602.5523082306541
 21
-653.4663371259163
 31
0.0
  0
LINE
  5
27018
  8
01
 10
602.5523082306541
 20
-653.4663371259163
 30
0.0
 11
602.4953835143739
 21
-653.3987847732325
 31
0.0
  0
LINE
  5
27019
  8
01
 10
602.4953835143739
 20
-653.3987847732325
 30
0.0
 11
602.4360096575225
 21
-653.3317614521858
 31
0.0
  0
LINE
  5
2701A
  8
01
 10
602.4360096575225
 20
-653.3317614521858
 30
0.0
 11
602.3741773480666
 21
-653.2653048380149
 31
0.0
  0
LINE
  5
2701B
  8
01
 10
602.3741773480666
 20
-653.2653048380149
 30
0.0
 11
602.3098772739701
 21
-653.1994526059584
 31
0.0
  0
LINE
  5
2701C
  8
01
 10
602.3098772739701
 20
-653.1994526059584
 30
0.0
 11
602.2370846940008
 21
-653.1285183356539
 31
0.0
  0
LINE
  5
2701D
  8
01
 10
602.2370846940008
 20
-653.1285183356539
 30
0.0
 11
602.1613461470203
 21
-653.0583969794006
 31
0.0
  0
LINE
  5
2701E
  8
01
 10
602.1613461470203
 20
-653.0583969794006
 30
0.0
 11
602.0826625103979
 21
-652.9891514289451
 31
0.0
  0
LINE
  5
2701F
  8
01
 10
602.0826625103979
 20
-652.9891514289451
 30
0.0
 11
602.0010346615005
 21
-652.9208445760335
 31
0.0
  0
LINE
  5
27020
  8
01
 10
602.0010346615005
 20
-652.9208445760335
 30
0.0
 11
601.916463477695
 21
-652.8535393124123
 31
0.0
  0
LINE
  5
27021
  8
01
 10
601.916463477695
 20
-652.8535393124123
 30
0.0
 11
601.8289498363489
 21
-652.7872985298281
 31
0.0
  0
LINE
  5
27022
  8
01
 10
601.8289498363489
 20
-652.7872985298281
 30
0.0
 11
601.7384946148301
 21
-652.7221851200273
 31
0.0
  0
LINE
  5
27023
  8
01
 10
601.7384946148301
 20
-652.7221851200273
 30
0.0
 11
601.6450986905053
 21
-652.6582619747563
 31
0.0
  0
LINE
  5
27024
  8
01
 10
601.6450986905053
 20
-652.6582619747563
 30
0.0
 11
601.502693355738
 21
-652.5667254641702
 31
0.0
  0
LINE
  5
27025
  8
01
 10
601.502693355738
 20
-652.5667254641702
 30
0.0
 11
601.3540346397427
 21
-652.4781124072647
 31
0.0
  0
LINE
  5
27026
  8
01
 10
601.3540346397427
 20
-652.4781124072647
 30
0.0
 11
601.1992337312473
 21
-652.3926566797626
 31
0.0
  0
LINE
  5
27027
  8
01
 10
601.1992337312473
 20
-652.3926566797626
 30
0.0
 11
601.0384018189822
 21
-652.3105921573867
 31
0.0
  0
LINE
  5
27028
  8
01
 10
601.0384018189822
 20
-652.3105921573867
 30
0.0
 11
600.8716500916759
 21
-652.2321527158601
 31
0.0
  0
LINE
  5
27029
  8
01
 10
600.8716500916759
 20
-652.2321527158601
 30
0.0
 11
600.6990897380571
 21
-652.1575722309057
 31
0.0
  0
LINE
  5
2702A
  8
01
 10
600.6990897380571
 20
-652.1575722309057
 30
0.0
 11
600.5208319468562
 21
-652.087084578246
 31
0.0
  0
LINE
  5
2702B
  8
01
 10
600.5208319468562
 20
-652.087084578246
 30
0.0
 11
600.3369879068028
 21
-652.0209236336044
 31
0.0
  0
LINE
  5
2702C
  8
01
 10
600.3369879068028
 20
-652.0209236336044
 30
0.0
 11
600.1761442898029
 21
-651.9681762552588
 31
0.0
  0
LINE
  5
2702D
  8
01
 10
600.1761442898029
 20
-651.9681762552588
 30
0.0
 11
600.0118488302274
 21
-651.9189821951373
 31
0.0
  0
LINE
  5
2702E
  8
01
 10
600.0118488302274
 20
-651.9189821951373
 30
0.0
 11
599.844281898018
 21
-651.8734586464868
 31
0.0
  0
LINE
  5
2702F
  8
01
 10
599.844281898018
 20
-651.8734586464868
 30
0.0
 11
599.6736238631171
 21
-651.8317228025539
 31
0.0
  0
LINE
  5
27030
  8
01
 10
599.6736238631171
 20
-651.8317228025539
 30
0.0
 11
599.5000550954679
 21
-651.7938918565856
 31
0.0
  0
LINE
  5
27031
  8
01
 10
599.5000550954679
 20
-651.7938918565856
 30
0.0
 11
599.3237559650121
 21
-651.7600830018283
 31
0.0
  0
LINE
  5
27032
  8
01
 10
599.3237559650121
 20
-651.7600830018283
 30
0.0
 11
599.1449068416929
 21
-651.7304134315292
 31
0.0
  0
LINE
  5
27033
  8
01
 10
599.1449068416929
 20
-651.7304134315292
 30
0.0
 11
598.9636880954519
 21
-651.7050003389348
 31
0.0
  0
LINE
  5
27034
  8
01
 10
598.9636880954519
 20
-651.7050003389348
 30
0.0
 11
598.7293373205908
 21
-651.6789333250009
 31
0.0
  0
LINE
  5
27035
  8
01
 10
598.7293373205908
 20
-651.6789333250009
 30
0.0
 11
598.49297784877
 21
-651.6602272971273
 31
0.0
  0
LINE
  5
27036
  8
01
 10
598.49297784877
 20
-651.6602272971273
 30
0.0
 11
598.2551118802681
 21
-651.6489453022327
 31
0.0
  0
LINE
  5
27037
  8
01
 10
598.2551118802681
 20
-651.6489453022327
 30
0.0
 11
598.016241615365
 21
-651.6451503872357
 31
0.0
  0
CIRCLE
  5
27108
  8
01
 10
500.0162416153649
 20
-671.8213303512537
 30
0.0
 40
7.99982692825638
  0
LINE
  5
2715D
  8
1PHANTOM
 10
600.016241615365
 20
-658.0713303512663
 30
0.0
 11
550.016241615365
 21
-658.0713303512663
 31
0.0
  0
ARC
  5
2715E
  8
1PHANTOM
 10
600.016241615365
 20
-655.8213303512664
 30
0.0
 40
2.250000000000057
 50
270.0
 51
90.0
  0
LINE
  5
2715F
  8
1PHANTOM
 10
550.016241615365
 20
-653.5713303512663
 30
0.0
 11
600.016241615365
 21
-653.5713303512663
 31
0.0
  0
ARC
  5
27160
  8
1PHANTOM
 10
550.016241615365
 20
-655.8213303512663
 30
0.0
 40
2.25
 50
90.0
 51
270.0
  0
LINE
  5
27161
  8
1PHANTOM
 10
400.0162416153649
 20
-653.5713303512663
 30
0.0
 11
450.0162416153649
 21
-653.5713303512663
 31
0.0
  0
ARC
  5
27162
  8
1PHANTOM
 10
400.0162416153649
 20
-655.8213303512663
 30
0.0
 40
2.25
 50
90.0
 51
270.0
  0
LINE
  5
27163
  8
1PHANTOM
 10
450.0162416153649
 20
-658.0713303512663
 30
0.0
 11
400.0162416153649
 21
-658.0713303512663
 31
0.0
  0
ARC
  5
27164
  8
1PHANTOM
 10
450.0162416153649
 20
-655.8213303512663
 30
0.0
 40
2.25
 50
270.0
 51
90.0
  0
ARC
  5
2732B
  8
01
 10
652.0894367924561
 20
-643.8213303512664
 30
0.0
 40
1.0
 50
90.0
 51
180.0
  0
LINE
  5
2732C
  8
01
 10
651.0894367924561
 20
-645.6593636665468
 30
0.0
 11
651.0894367924561
 21
-643.8213303512664
 31
0.0
  0
ARC
  5
2732D
  8
01
 10
652.0894367924561
 20
-645.6593636665468
 30
0.0
 40
1.0
 50
180.0
 51
235.0079798014264
  0
ARC
  5
27376
  8
01
 10
652.0894367924561
 20
-645.6593636665373
 30
0.0
 40
0.5
 50
180.0
 51
235.0079798014418
  0
LINE
  5
273C2
  8
1PHANTOM
 10
694.5894367924562
 20
-660.354393524724
 30
0.0
 11
694.5894367924561
 21
-651.3159625602516
 31
0.0
  0
LINE
  5
273C8
  8
1PHANTOM
 10
695.5894367924562
 20
-660.5713303450577
 30
0.0
 11
695.5894367924561
 21
-651.0713303450577
 31
0.0
  0
LINE
  5
273C9
  8
1PHANTOM
 10
695.5894367924561
 20
-651.0713303450577
 30
0.0
 11
694.5894367924561
 21
-651.0713303450577
 31
0.0
  0
ARC
  5
273CA
  8
1PHANTOM
 10
701.3602701257897
 20
-655.8213303450576
 30
0.0
 40
8.270833333333439
 50
144.948863252556
 51
215.0511367474462
  0
LINE
  5
273CB
  8
1PHANTOM
 10
694.5894367924562
 20
-660.5713303450577
 30
0.0
 11
695.5894367924562
 21
-660.5713303450577
 31
0.0
  0
LINE
  5
273CD
  8
01
 10
730.5894402825944
 20
-655.8213768809557
 30
0.0
 11
725.2894437727327
 21
-654.3213768809557
 31
0.0
  0
LINE
  5
273CE
  8
01
 10
725.2894437727327
 20
-654.3213768809557
 30
0.0
 11
695.5894437728408
 21
-654.3213768809559
 31
0.0
  0
LINE
  5
273CF
  8
01
 10
730.5894402825944
 20
-655.8213768809557
 30
0.0
 11
725.2894367923491
 21
-657.3213768809558
 31
0.0
  0
LINE
  5
273D1
  8
01
 10
725.2894367923491
 20
-657.3213768809558
 30
0.0
 11
695.5894367924561
 21
-657.3213768809559
 31
0.0
  0
LINE
  5
273D7
  8
1CENTER
 10
732.0202352000598
 20
-655.8213303450577
 30
0.0
 11
691.9191638734479
 21
-655.8213303450577
 31
0.0
  0
LINE
  5
273D8
  8
01
 10
728.4894428289166
 20
-654.7270065310627
 30
0.0
 11
729.2894382629676
 21
-656.6893416199381
 31
0.0
  0
LINE
  5
273D9
  8
01
 10
729.2894382629676
 20
-656.6893416199381
 30
0.0
 11
729.6012081192197
 21
-656.1010650448957
 31
0.0
  0
LINE
  5
273DA
  8
01
 10
706.0894449361266
 20
-653.8213768809557
 30
0.0
 11
706.8894356289449
 21
-657.8213768809557
 31
0.0
  0
LINE
  5
273DB
  8
01
 10
717.289444936131
 20
-653.8213768809557
 30
0.0
 11
718.0894356289535
 21
-657.8213768809557
 31
0.0
  0
LINE
  5
273DC
  8
01
 10
720.489444936131
 20
-653.8213768809557
 30
0.0
 11
721.2894356289536
 21
-657.8213768809557
 31
0.0
  0
LINE
  5
273DD
  8
01
 10
721.2894356289536
 20
-657.8213768809557
 30
0.0
 11
721.3894367923508
 21
-657.3213768809557
 31
0.0
  0
LINE
  5
273DE
  8
01
 10
721.9894437727338
 20
-654.3213768809557
 30
0.0
 11
722.089444936131
 21
-653.8213768809557
 31
0.0
  0
LINE
  5
273DF
  8
01
 10
718.0894356289535
 20
-657.8213768809557
 30
0.0
 11
718.1894367923508
 21
-657.3213768809557
 31
0.0
  0
LINE
  5
273E0
  8
01
 10
719.6894356289537
 20
-657.8213768809557
 30
0.0
 11
719.7894367923508
 21
-657.3213768809557
 31
0.0
  0
LINE
  5
273E1
  8
01
 10
720.3894437727339
 20
-654.3213768809557
 30
0.0
 11
720.489444936131
 21
-653.8213768809557
 31
0.0
  0
LINE
  5
273E2
  8
01
 10
718.789443772734
 20
-654.3213768809557
 30
0.0
 11
718.8894449361311
 21
-653.8213768809557
 31
0.0
  0
LINE
  5
273E3
  8
01
 10
718.8894449361311
 20
-653.8213768809557
 30
0.0
 11
719.6894356289537
 21
-657.8213768809557
 31
0.0
  0
LINE
  5
273E4
  8
01
 10
727.6894372093619
 20
-657.1421557243449
 30
0.0
 11
727.8722013519899
 21
-656.5904062605416
 31
0.0
  0
LINE
  5
273E5
  8
01
 10
724.4894356289536
 20
-657.8213768809557
 30
0.0
 11
724.5894367923507
 21
-657.3213768809557
 31
0.0
  0
LINE
  5
273E6
  8
01
 10
722.8894356289536
 20
-657.8213768809557
 30
0.0
 11
722.9894367923506
 21
-657.3213768809557
 31
0.0
  0
LINE
  5
273E7
  8
01
 10
726.0894361557563
 20
-657.5949698287517
 30
0.0
 11
726.2187068533862
 21
-657.0583760934805
 31
0.0
  0
LINE
  5
273E8
  8
01
 10
726.7766743701708
 20
-654.7422914781644
 30
0.0
 11
726.8894438825208
 21
-654.2741930230144
 31
0.0
  0
LINE
  5
273E9
  8
01
 10
723.589443772734
 20
-654.3213768809557
 30
0.0
 11
723.689444936131
 21
-653.8213768809557
 31
0.0
  0
LINE
  5
273EA
  8
01
 10
725.1894437727339
 20
-654.3213768809557
 30
0.0
 11
725.289444936131
 21
-653.8213768809557
 31
0.0
  0
LINE
  5
273EB
  8
01
 10
728.3380070324762
 20
-655.1841783716937
 30
0.0
 11
728.4894428289166
 21
-654.7270065310627
 31
0.0
  0
LINE
  5
273EC
  8
01
 10
726.8894438825208
 20
-654.2741930230144
 30
0.0
 11
727.6894372093619
 21
-657.1421557243449
 31
0.0
  0
LINE
  5
273ED
  8
01
 10
723.689444936131
 20
-653.8213768809557
 30
0.0
 11
724.4894356289536
 21
-657.8213768809557
 31
0.0
  0
LINE
  5
273EE
  8
01
 10
725.289444936131
 20
-653.8213768809557
 30
0.0
 11
726.0894361557563
 21
-657.5949698287517
 31
0.0
  0
LINE
  5
273EF
  8
01
 10
722.089444936131
 20
-653.8213768809557
 30
0.0
 11
722.8894356289536
 21
-657.8213768809557
 31
0.0
  0
LINE
  5
273F0
  8
01
 10
709.2894449361266
 20
-653.8213768809557
 30
0.0
 11
710.0894356289449
 21
-657.8213768809557
 31
0.0
  0
LINE
  5
273F1
  8
01
 10
710.0894356289449
 20
-657.8213768809557
 30
0.0
 11
710.1894367923426
 21
-657.3213768809557
 31
0.0
  0
LINE
  5
273F2
  8
01
 10
710.7894437727333
 20
-654.3213768809557
 30
0.0
 11
710.889444936131
 21
-653.8213768809557
 31
0.0
  0
LINE
  5
273F3
  8
01
 10
708.4894356289448
 20
-657.8213768809557
 30
0.0
 11
708.5894367923424
 21
-657.3213768809557
 31
0.0
  0
LINE
  5
273F4
  8
01
 10
706.8894356289449
 20
-657.8213768809557
 30
0.0
 11
706.9894367923425
 21
-657.3213768809557
 31
0.0
  0
LINE
  5
273F5
  8
01
 10
709.189443772729
 20
-654.3213768809557
 30
0.0
 11
709.2894449361266
 21
-653.8213768809557
 31
0.0
  0
LINE
  5
273F6
  8
01
 10
707.5894437727288
 20
-654.3213768809557
 30
0.0
 11
707.6894449361265
 21
-653.8213768809557
 31
0.0
  0
LINE
  5
273F7
  8
01
 10
707.6894449361265
 20
-653.8213768809557
 30
0.0
 11
708.4894356289448
 21
-657.8213768809557
 31
0.0
  0
LINE
  5
273F8
  8
01
 10
714.8894356289493
 20
-657.8213768809557
 30
0.0
 11
714.989436792347
 21
-657.3213768809557
 31
0.0
  0
LINE
  5
273F9
  8
01
 10
716.4894356289536
 20
-657.8213768809557
 30
0.0
 11
716.5894367923507
 21
-657.3213768809557
 31
0.0
  0
LINE
  5
273FA
  8
01
 10
711.6894356289492
 20
-657.8213768809557
 30
0.0
 11
711.7894367923469
 21
-657.3213768809557
 31
0.0
  0
LINE
  5
273FB
  8
01
 10
713.2894356289491
 20
-657.8213768809557
 30
0.0
 11
713.3894367923468
 21
-657.3213768809557
 31
0.0
  0
LINE
  5
273FC
  8
01
 10
717.1894437727339
 20
-654.3213768809557
 30
0.0
 11
717.289444936131
 21
-653.8213768809557
 31
0.0
  0
LINE
  5
273FD
  8
01
 10
715.5894437727333
 20
-654.3213768809557
 30
0.0
 11
715.689444936131
 21
-653.8213768809557
 31
0.0
  0
LINE
  5
273FE
  8
01
 10
712.3894437727332
 20
-654.3213768809557
 30
0.0
 11
712.4894449361309
 21
-653.8213768809557
 31
0.0
  0
LINE
  5
273FF
  8
01
 10
713.9894437727334
 20
-654.3213768809557
 30
0.0
 11
714.089444936131
 21
-653.8213768809557
 31
0.0
  0
LINE
  5
27400
  8
01
 10
714.089444936131
 20
-653.8213768809557
 30
0.0
 11
714.8894356289493
 21
-657.8213768809557
 31
0.0
  0
LINE
  5
27401
  8
01
 10
715.689444936131
 20
-653.8213768809557
 30
0.0
 11
716.4894356289536
 21
-657.8213768809557
 31
0.0
  0
LINE
  5
27402
  8
01
 10
712.4894449361309
 20
-653.8213768809557
 30
0.0
 11
713.2894356289491
 21
-657.8213768809557
 31
0.0
  0
LINE
  5
27403
  8
01
 10
710.889444936131
 20
-653.8213768809557
 30
0.0
 11
711.6894356289492
 21
-657.8213768809557
 31
0.0
  0
LINE
  5
27404
  8
01
 10
701.1894437727248
 20
-654.3213768809557
 30
0.0
 11
701.2894449361224
 21
-653.8213768809557
 31
0.0
  0
LINE
  5
27405
  8
01
 10
701.2894449361224
 20
-653.8213768809557
 30
0.0
 11
702.0894356289407
 21
-657.8213768809557
 31
0.0
  0
LINE
  5
27406
  8
01
 10
702.0894356289407
 20
-657.8213768809557
 30
0.0
 11
702.1894367923384
 21
-657.3213768809557
 31
0.0
  0
LINE
  5
27407
  8
01
 10
702.7894437727247
 20
-654.3213768809557
 30
0.0
 11
702.8894449361223
 21
-653.8213768809557
 31
0.0
  0
LINE
  5
27408
  8
01
 10
704.3894437727246
 20
-654.3213768809557
 30
0.0
 11
704.4894449361223
 21
-653.8213768809557
 31
0.0
  0
LINE
  5
27409
  8
01
 10
704.4894449361223
 20
-653.8213768809557
 30
0.0
 11
705.2894356289405
 21
-657.8213768809557
 31
0.0
  0
LINE
  5
2740A
  8
01
 10
703.6894356289406
 20
-657.8213768809557
 30
0.0
 11
703.7894367923383
 21
-657.3213768809557
 31
0.0
  0
LINE
  5
2740B
  8
01
 10
705.2894356289405
 20
-657.8213768809557
 30
0.0
 11
705.3894367923382
 21
-657.3213768809557
 31
0.0
  0
LINE
  5
2740C
  8
01
 10
702.8894449361223
 20
-653.8213768809557
 30
0.0
 11
703.6894356289406
 21
-657.8213768809557
 31
0.0
  0
LINE
  5
2740D
  8
01
 10
705.9894437727289
 20
-654.3213768809557
 30
0.0
 11
706.0894449361266
 21
-653.8213768809557
 31
0.0
  0
LINE
  5
2740E
  8
01
 10
699.5894437727248
 20
-654.3213768809557
 30
0.0
 11
699.6894449361225
 21
-653.8213768809557
 31
0.0
  0
LINE
  5
2740F
  8
01
 10
699.6894449361225
 20
-653.8213768809557
 30
0.0
 11
700.4894356289408
 21
-657.8213768809557
 31
0.0
  0
LINE
  5
27410
  8
01
 10
700.4894356289408
 20
-657.8213768809557
 30
0.0
 11
700.5894367923385
 21
-657.3213768809557
 31
0.0
  0
LINE
  5
27411
  8
01
 10
697.9894437727249
 20
-654.3213768809557
 30
0.0
 11
698.0894449361226
 21
-653.8213768809557
 31
0.0
  0
LINE
  5
27412
  8
01
 10
698.0894449361226
 20
-653.8213768809557
 30
0.0
 11
698.8894356289409
 21
-657.8213768809557
 31
0.0
  0
LINE
  5
27413
  8
01
 10
698.8894356289409
 20
-657.8213768809557
 30
0.0
 11
698.9894367923386
 21
-657.3213768809557
 31
0.0
  0
LINE
  5
27414
  8
01
 10
696.389443772725
 20
-654.3213768809557
 30
0.0
 11
696.4894449361227
 21
-653.8213768809557
 31
0.0
  0
LINE
  5
27415
  8
01
 10
696.4894449361227
 20
-653.8213768809557
 30
0.0
 11
697.289435628941
 21
-657.8213768809557
 31
0.0
  0
LINE
  5
27416
  8
01
 10
697.289435628941
 20
-657.8213768809557
 30
0.0
 11
697.3894367923386
 21
-657.3213768809557
 31
0.0
  0
LINE
  5
2745B
  8
01
 10
600.0162881512628
 20
-523.8213268611282
 30
0.0
 11
598.5162881512628
 21
-529.1213233709899
 31
0.0
  0
LINE
  5
2745C
  8
01
 10
598.5162881512628
 20
-529.1213233709899
 30
0.0
 11
598.516288151263
 21
-558.8213233708818
 31
0.0
  0
LINE
  5
2745D
  8
01
 10
600.0162881512628
 20
-523.8213268611282
 30
0.0
 11
601.516288151263
 21
-529.1213303513736
 31
0.0
  0
LINE
  5
2745E
  8
01
 10
601.516288151263
 20
-529.1213303513736
 30
0.0
 11
601.516288151263
 21
-558.8213303512665
 31
0.0
  0
LINE
  5
2745F
  8
1CENTER
 10
600.016241615365
 20
-522.3905319436628
 30
0.0
 11
600.016241615365
 21
-562.4916032702747
 31
0.0
  0
LINE
  5
27460
  8
01
 10
598.9219178013699
 20
-525.921324314806
 30
0.0
 11
600.8842528902452
 21
-525.1213288807551
 31
0.0
  0
LINE
  5
27461
  8
01
 10
600.8842528902452
 20
-525.1213288807551
 30
0.0
 11
600.2959763152029
 21
-524.809559024503
 31
0.0
  0
LINE
  5
27462
  8
01
 10
598.0162881512628
 20
-548.321322207596
 30
0.0
 11
602.0162881512628
 21
-547.5213315147778
 31
0.0
  0
LINE
  5
27463
  8
01
 10
598.0162881512628
 20
-537.1213222075917
 30
0.0
 11
602.0162881512628
 21
-536.3213315147691
 31
0.0
  0
LINE
  5
27464
  8
01
 10
598.0162881512628
 20
-533.9213222075916
 30
0.0
 11
602.0162881512628
 21
-533.121331514769
 31
0.0
  0
LINE
  5
27465
  8
01
 10
602.0162881512628
 20
-533.121331514769
 30
0.0
 11
601.5162881512628
 21
-533.0213303513718
 31
0.0
  0
LINE
  5
27466
  8
01
 10
598.5162881512628
 20
-532.4213233709888
 30
0.0
 11
598.0162881512628
 21
-532.3213222075916
 31
0.0
  0
LINE
  5
27467
  8
01
 10
602.0162881512628
 20
-536.3213315147691
 30
0.0
 11
601.5162881512628
 21
-536.2213303513719
 31
0.0
  0
LINE
  5
27468
  8
01
 10
602.0162881512628
 20
-534.721331514769
 30
0.0
 11
601.5162881512628
 21
-534.6213303513719
 31
0.0
  0
LINE
  5
27469
  8
01
 10
598.5162881512628
 20
-534.0213233709887
 30
0.0
 11
598.0162881512628
 21
-533.9213222075916
 31
0.0
  0
LINE
  5
2746A
  8
01
 10
598.5162881512628
 20
-535.6213233709886
 30
0.0
 11
598.0162881512628
 21
-535.5213222075915
 31
0.0
  0
LINE
  5
2746B
  8
01
 10
598.0162881512628
 20
-535.5213222075915
 30
0.0
 11
602.0162881512628
 21
-534.721331514769
 31
0.0
  0
LINE
  5
2746C
  8
01
 10
601.337066994652
 20
-526.7213299343607
 30
0.0
 11
600.7853175308488
 21
-526.5385657917327
 31
0.0
  0
LINE
  5
2746D
  8
01
 10
602.0162881512628
 20
-529.921331514769
 30
0.0
 11
601.5162881512628
 21
-529.8213303513719
 31
0.0
  0
LINE
  5
2746E
  8
01
 10
602.0162881512628
 20
-531.521331514769
 30
0.0
 11
601.5162881512628
 21
-531.421330351372
 31
0.0
  0
LINE
  5
2746F
  8
01
 10
601.7898810990588
 20
-528.3213309879663
 30
0.0
 11
601.2532873637878
 21
-528.1920602903365
 31
0.0
  0
LINE
  5
27470
  8
01
 10
598.9372027484716
 20
-527.6340927735519
 30
0.0
 11
598.4691042933215
 21
-527.5213232612018
 31
0.0
  0
LINE
  5
27471
  8
01
 10
598.5162881512628
 20
-530.8213233709887
 30
0.0
 11
598.0162881512628
 21
-530.7213222075916
 31
0.0
  0
LINE
  5
27472
  8
01
 10
598.5162881512628
 20
-529.2213233709888
 30
0.0
 11
598.0162881512628
 21
-529.1213222075917
 31
0.0
  0
LINE
  5
27473
  8
01
 10
599.3790896420008
 20
-526.0727601112465
 30
0.0
 11
598.9219178013699
 21
-525.921324314806
 31
0.0
  0
LINE
  5
27474
  8
01
 10
598.4691042933215
 20
-527.5213232612018
 30
0.0
 11
601.337066994652
 21
-526.7213299343607
 31
0.0
  0
LINE
  5
27475
  8
01
 10
598.0162881512628
 20
-530.7213222075916
 30
0.0
 11
602.0162881512628
 21
-529.921331514769
 31
0.0
  0
LINE
  5
27476
  8
01
 10
598.0162881512628
 20
-529.1213222075917
 30
0.0
 11
601.7898810990588
 21
-528.3213309879663
 31
0.0
  0
LINE
  5
27477
  8
01
 10
598.0162881512628
 20
-532.3213222075916
 30
0.0
 11
602.0162881512628
 21
-531.521331514769
 31
0.0
  0
LINE
  5
27478
  8
01
 10
598.0162881512628
 20
-545.121322207596
 30
0.0
 11
602.0162881512628
 21
-544.3213315147777
 31
0.0
  0
LINE
  5
27479
  8
01
 10
602.0162881512628
 20
-544.3213315147777
 30
0.0
 11
601.5162881512628
 21
-544.2213303513801
 31
0.0
  0
LINE
  5
2747A
  8
01
 10
598.5162881512628
 20
-543.6213233709893
 30
0.0
 11
598.0162881512628
 21
-543.5213222075917
 31
0.0
  0
LINE
  5
2747B
  8
01
 10
602.0162881512628
 20
-545.9213315147779
 30
0.0
 11
601.5162881512628
 21
-545.8213303513802
 31
0.0
  0
LINE
  5
2747C
  8
01
 10
602.0162881512628
 20
-547.5213315147778
 30
0.0
 11
601.5162881512628
 21
-547.4213303513801
 31
0.0
  0
LINE
  5
2747D
  8
01
 10
598.5162881512628
 20
-545.2213233709937
 30
0.0
 11
598.0162881512628
 21
-545.121322207596
 31
0.0
  0
LINE
  5
2747E
  8
01
 10
598.5162881512628
 20
-546.8213233709938
 30
0.0
 11
598.0162881512628
 21
-546.7213222075961
 31
0.0
  0
LINE
  5
2747F
  8
01
 10
598.0162881512628
 20
-546.7213222075961
 30
0.0
 11
602.0162881512628
 21
-545.9213315147779
 31
0.0
  0
LINE
  5
27480
  8
01
 10
602.0162881512628
 20
-539.5213315147734
 30
0.0
 11
601.5162881512628
 21
-539.4213303513757
 31
0.0
  0
LINE
  5
27481
  8
01
 10
602.0162881512628
 20
-537.921331514769
 30
0.0
 11
601.5162881512628
 21
-537.8213303513719
 31
0.0
  0
LINE
  5
27482
  8
01
 10
602.0162881512628
 20
-542.7213315147734
 30
0.0
 11
601.5162881512628
 21
-542.6213303513757
 31
0.0
  0
LINE
  5
27483
  8
01
 10
602.0162881512628
 20
-541.1213315147735
 30
0.0
 11
601.5162881512628
 21
-541.0213303513758
 31
0.0
  0
LINE
  5
27484
  8
01
 10
598.5162881512628
 20
-537.2213233709888
 30
0.0
 11
598.0162881512628
 21
-537.1213222075917
 31
0.0
  0
LINE
  5
27485
  8
01
 10
598.5162881512628
 20
-538.8213233709894
 30
0.0
 11
598.0162881512628
 21
-538.7213222075916
 31
0.0
  0
LINE
  5
27486
  8
01
 10
598.5162881512628
 20
-542.0213233709894
 30
0.0
 11
598.0162881512628
 21
-541.9213222075917
 31
0.0
  0
LINE
  5
27487
  8
01
 10
598.5162881512628
 20
-540.4213233709893
 30
0.0
 11
598.0162881512628
 21
-540.3213222075916
 31
0.0
  0
LINE
  5
27488
  8
01
 10
598.0162881512628
 20
-540.3213222075916
 30
0.0
 11
602.0162881512628
 21
-539.5213315147734
 31
0.0
  0
LINE
  5
27489
  8
01
 10
598.0162881512628
 20
-538.7213222075916
 30
0.0
 11
602.0162881512628
 21
-537.921331514769
 31
0.0
  0
LINE
  5
2748A
  8
01
 10
598.0162881512628
 20
-541.9213222075917
 30
0.0
 11
602.0162881512628
 21
-541.1213315147735
 31
0.0
  0
LINE
  5
2748B
  8
01
 10
598.0162881512628
 20
-543.5213222075917
 30
0.0
 11
602.0162881512628
 21
-542.7213315147734
 31
0.0
  0
LINE
  5
2748C
  8
01
 10
598.5162881512628
 20
-553.2213233709979
 30
0.0
 11
598.0162881512628
 21
-553.1213222076002
 31
0.0
  0
LINE
  5
2748D
  8
01
 10
598.0162881512628
 20
-553.1213222076002
 30
0.0
 11
602.0162881512628
 21
-552.321331514782
 31
0.0
  0
LINE
  5
2748E
  8
01
 10
602.0162881512628
 20
-552.321331514782
 30
0.0
 11
601.5162881512628
 21
-552.2213303513843
 31
0.0
  0
LINE
  5
2748F
  8
01
 10
598.5162881512628
 20
-551.621323370998
 30
0.0
 11
598.0162881512628
 21
-551.5213222076003
 31
0.0
  0
LINE
  5
27490
  8
01
 10
598.5162881512628
 20
-550.0213233709981
 30
0.0
 11
598.0162881512628
 21
-549.9213222076004
 31
0.0
  0
LINE
  5
27491
  8
01
 10
598.0162881512628
 20
-549.9213222076004
 30
0.0
 11
602.0162881512628
 21
-549.1213315147821
 31
0.0
  0
LINE
  5
27492
  8
01
 10
602.0162881512628
 20
-550.721331514782
 30
0.0
 11
601.5162881512628
 21
-550.6213303513844
 31
0.0
  0
LINE
  5
27493
  8
01
 10
602.0162881512628
 20
-549.1213315147821
 30
0.0
 11
601.5162881512628
 21
-549.0213303513844
 31
0.0
  0
LINE
  5
27494
  8
01
 10
598.0162881512628
 20
-551.5213222076003
 30
0.0
 11
602.0162881512628
 21
-550.721331514782
 31
0.0
  0
LINE
  5
27495
  8
01
 10
598.5162881512628
 20
-548.4213233709937
 30
0.0
 11
598.0162881512628
 21
-548.321322207596
 31
0.0
  0
LINE
  5
27496
  8
01
 10
598.5162881512628
 20
-554.8213233709978
 30
0.0
 11
598.0162881512628
 21
-554.7213222076001
 31
0.0
  0
LINE
  5
27497
  8
01
 10
598.0162881512628
 20
-554.7213222076001
 30
0.0
 11
602.0162881512628
 21
-553.9213315147819
 31
0.0
  0
LINE
  5
27498
  8
01
 10
602.0162881512628
 20
-553.9213315147819
 30
0.0
 11
601.5162881512628
 21
-553.8213303513842
 31
0.0
  0
LINE
  5
27499
  8
01
 10
598.5162881512628
 20
-556.4213233709977
 30
0.0
 11
598.0162881512628
 21
-556.3213222076
 31
0.0
  0
LINE
  5
2749A
  8
01
 10
598.0162881512628
 20
-556.3213222076
 30
0.0
 11
602.0162881512628
 21
-555.5213315147818
 31
0.0
  0
LINE
  5
2749B
  8
01
 10
602.0162881512628
 20
-555.5213315147818
 30
0.0
 11
601.5162881512628
 21
-555.4213303513841
 31
0.0
  0
LINE
  5
2749C
  8
01
 10
598.5162881512628
 20
-558.0213233709976
 30
0.0
 11
598.0162881512628
 21
-557.9213222075999
 31
0.0
  0
LINE
  5
2749D
  8
01
 10
598.0162881512628
 20
-557.9213222075999
 30
0.0
 11
602.0162881512628
 21
-557.1213315147817
 31
0.0
  0
LINE
  5
2749E
  8
01
 10
602.0162881512628
 20
-557.1213315147817
 30
0.0
 11
601.5162881512628
 21
-557.021330351384
 31
0.0
  0
LINE
  5
2749F
  8
1PHANTOM
 10
604.7662416153648
 20
-558.8213303512664
 30
0.0
 11
595.266241615365
 21
-558.8213303512665
 31
0.0
  0
LINE
  5
274A0
  8
1PHANTOM
 10
595.266241615365
 20
-558.8213303512665
 30
0.0
 11
595.266241615365
 21
-559.8213303512665
 31
0.0
  0
ARC
  5
274A1
  8
1PHANTOM
 10
600.0162416153647
 20
-553.0504970179329
 30
0.0
 40
8.270833333333439
 50
234.9488632525566
 51
305.0511367474463
  0
LINE
  5
274A2
  8
1PHANTOM
 10
604.7662416153648
 20
-559.8213303512664
 30
0.0
 11
604.7662416153648
 21
-558.8213303512664
 31
0.0
  0
LINE
  5
274A3
  8
1PHANTOM
 10
604.549304795031
 20
-559.8213303512664
 30
0.0
 11
595.5108738305588
 21
-559.8213303512665
 31
0.0
  0
LINE
  5
274A5
  8
01
 10
400.0162881512629
 20
-523.8213268611282
 30
0.0
 11
398.5162881512629
 21
-529.1213233709899
 31
0.0
  0
LINE
  5
274A6
  8
01
 10
398.5162881512629
 20
-529.1213233709899
 30
0.0
 11
398.5162881512631
 21
-558.8213233708818
 31
0.0
  0
LINE
  5
274A7
  8
01
 10
400.0162881512629
 20
-523.8213268611282
 30
0.0
 11
401.5162881512631
 21
-529.1213303513736
 31
0.0
  0
LINE
  5
274A8
  8
01
 10
401.5162881512631
 20
-529.1213303513736
 30
0.0
 11
401.5162881512631
 21
-558.8213303512665
 31
0.0
  0
LINE
  5
274A9
  8
1CENTER
 10
400.0162416153651
 20
-522.3905319436628
 30
0.0
 11
400.0162416153651
 21
-562.4916032702747
 31
0.0
  0
LINE
  5
274AA
  8
01
 10
398.92191780137
 20
-525.921324314806
 30
0.0
 11
400.8842528902453
 21
-525.1213288807551
 31
0.0
  0
LINE
  5
274AB
  8
01
 10
400.8842528902453
 20
-525.1213288807551
 30
0.0
 11
400.295976315203
 21
-524.809559024503
 31
0.0
  0
LINE
  5
274AC
  8
01
 10
398.0162881512629
 20
-548.321322207596
 30
0.0
 11
402.0162881512629
 21
-547.5213315147778
 31
0.0
  0
LINE
  5
274AD
  8
01
 10
398.0162881512629
 20
-537.1213222075917
 30
0.0
 11
402.0162881512629
 21
-536.3213315147691
 31
0.0
  0
LINE
  5
274AE
  8
01
 10
398.0162881512629
 20
-533.9213222075916
 30
0.0
 11
402.0162881512629
 21
-533.121331514769
 31
0.0
  0
LINE
  5
274AF
  8
01
 10
402.0162881512629
 20
-533.121331514769
 30
0.0
 11
401.5162881512629
 21
-533.0213303513718
 31
0.0
  0
LINE
  5
274B0
  8
01
 10
398.5162881512629
 20
-532.4213233709888
 30
0.0
 11
398.0162881512629
 21
-532.3213222075916
 31
0.0
  0
LINE
  5
274B1
  8
01
 10
402.0162881512629
 20
-536.3213315147691
 30
0.0
 11
401.5162881512629
 21
-536.2213303513719
 31
0.0
  0
LINE
  5
274B2
  8
01
 10
402.0162881512629
 20
-534.721331514769
 30
0.0
 11
401.5162881512629
 21
-534.6213303513719
 31
0.0
  0
LINE
  5
274B3
  8
01
 10
398.5162881512629
 20
-534.0213233709887
 30
0.0
 11
398.0162881512629
 21
-533.9213222075916
 31
0.0
  0
LINE
  5
274B4
  8
01
 10
398.5162881512629
 20
-535.6213233709886
 30
0.0
 11
398.0162881512629
 21
-535.5213222075915
 31
0.0
  0
LINE
  5
274B5
  8
01
 10
398.0162881512629
 20
-535.5213222075915
 30
0.0
 11
402.0162881512629
 21
-534.721331514769
 31
0.0
  0
LINE
  5
274B6
  8
01
 10
401.3370669946521
 20
-526.7213299343607
 30
0.0
 11
400.7853175308489
 21
-526.5385657917327
 31
0.0
  0
LINE
  5
274B7
  8
01
 10
402.0162881512629
 20
-529.921331514769
 30
0.0
 11
401.5162881512629
 21
-529.8213303513719
 31
0.0
  0
LINE
  5
274B8
  8
01
 10
402.0162881512629
 20
-531.521331514769
 30
0.0
 11
401.5162881512629
 21
-531.421330351372
 31
0.0
  0
LINE
  5
274B9
  8
01
 10
401.7898810990589
 20
-528.3213309879663
 30
0.0
 11
401.2532873637879
 21
-528.1920602903365
 31
0.0
  0
LINE
  5
274BA
  8
01
 10
398.9372027484717
 20
-527.6340927735519
 30
0.0
 11
398.4691042933216
 21
-527.5213232612018
 31
0.0
  0
LINE
  5
274BB
  8
01
 10
398.5162881512629
 20
-530.8213233709887
 30
0.0
 11
398.0162881512629
 21
-530.7213222075916
 31
0.0
  0
LINE
  5
274BC
  8
01
 10
398.5162881512629
 20
-529.2213233709888
 30
0.0
 11
398.0162881512629
 21
-529.1213222075917
 31
0.0
  0
LINE
  5
274BD
  8
01
 10
399.379089642001
 20
-526.0727601112465
 30
0.0
 11
398.92191780137
 21
-525.921324314806
 31
0.0
  0
LINE
  5
274BE
  8
01
 10
398.4691042933216
 20
-527.5213232612018
 30
0.0
 11
401.3370669946521
 21
-526.7213299343607
 31
0.0
  0
LINE
  5
274BF
  8
01
 10
398.0162881512629
 20
-530.7213222075916
 30
0.0
 11
402.0162881512629
 21
-529.921331514769
 31
0.0
  0
LINE
  5
274C0
  8
01
 10
398.0162881512629
 20
-529.1213222075917
 30
0.0
 11
401.7898810990589
 21
-528.3213309879663
 31
0.0
  0
LINE
  5
274C1
  8
01
 10
398.0162881512629
 20
-532.3213222075916
 30
0.0
 11
402.0162881512629
 21
-531.521331514769
 31
0.0
  0
LINE
  5
274C2
  8
01
 10
398.0162881512629
 20
-545.121322207596
 30
0.0
 11
402.0162881512629
 21
-544.3213315147777
 31
0.0
  0
LINE
  5
274C3
  8
01
 10
402.0162881512629
 20
-544.3213315147777
 30
0.0
 11
401.5162881512629
 21
-544.2213303513801
 31
0.0
  0
LINE
  5
274C4
  8
01
 10
398.5162881512629
 20
-543.6213233709893
 30
0.0
 11
398.0162881512629
 21
-543.5213222075917
 31
0.0
  0
LINE
  5
274C5
  8
01
 10
402.0162881512629
 20
-545.9213315147779
 30
0.0
 11
401.5162881512629
 21
-545.8213303513802
 31
0.0
  0
LINE
  5
274C6
  8
01
 10
402.0162881512629
 20
-547.5213315147778
 30
0.0
 11
401.5162881512629
 21
-547.4213303513801
 31
0.0
  0
LINE
  5
274C7
  8
01
 10
398.5162881512629
 20
-545.2213233709937
 30
0.0
 11
398.0162881512629
 21
-545.121322207596
 31
0.0
  0
LINE
  5
274C8
  8
01
 10
398.5162881512629
 20
-546.8213233709938
 30
0.0
 11
398.0162881512629
 21
-546.7213222075961
 31
0.0
  0
LINE
  5
274C9
  8
01
 10
398.0162881512629
 20
-546.7213222075961
 30
0.0
 11
402.0162881512629
 21
-545.9213315147779
 31
0.0
  0
LINE
  5
274CA
  8
01
 10
402.0162881512629
 20
-539.5213315147734
 30
0.0
 11
401.5162881512629
 21
-539.4213303513757
 31
0.0
  0
LINE
  5
274CB
  8
01
 10
402.0162881512629
 20
-537.921331514769
 30
0.0
 11
401.5162881512629
 21
-537.8213303513719
 31
0.0
  0
LINE
  5
274CC
  8
01
 10
402.0162881512629
 20
-542.7213315147734
 30
0.0
 11
401.5162881512629
 21
-542.6213303513757
 31
0.0
  0
LINE
  5
274CD
  8
01
 10
402.0162881512629
 20
-541.1213315147735
 30
0.0
 11
401.5162881512629
 21
-541.0213303513758
 31
0.0
  0
LINE
  5
274CE
  8
01
 10
398.5162881512629
 20
-537.2213233709888
 30
0.0
 11
398.0162881512629
 21
-537.1213222075917
 31
0.0
  0
LINE
  5
274CF
  8
01
 10
398.5162881512629
 20
-538.8213233709894
 30
0.0
 11
398.0162881512629
 21
-538.7213222075916
 31
0.0
  0
LINE
  5
274D0
  8
01
 10
398.5162881512629
 20
-542.0213233709894
 30
0.0
 11
398.0162881512629
 21
-541.9213222075917
 31
0.0
  0
LINE
  5
274D1
  8
01
 10
398.5162881512629
 20
-540.4213233709893
 30
0.0
 11
398.0162881512629
 21
-540.3213222075916
 31
0.0
  0
LINE
  5
274D2
  8
01
 10
398.0162881512629
 20
-540.3213222075916
 30
0.0
 11
402.0162881512629
 21
-539.5213315147734
 31
0.0
  0
LINE
  5
274D3
  8
01
 10
398.0162881512629
 20
-538.7213222075916
 30
0.0
 11
402.0162881512629
 21
-537.921331514769
 31
0.0
  0
LINE
  5
274D4
  8
01
 10
398.0162881512629
 20
-541.9213222075917
 30
0.0
 11
402.0162881512629
 21
-541.1213315147735
 31
0.0
  0
LINE
  5
274D5
  8
01
 10
398.0162881512629
 20
-543.5213222075917
 30
0.0
 11
402.0162881512629
 21
-542.7213315147734
 31
0.0
  0
LINE
  5
274D6
  8
01
 10
398.5162881512629
 20
-553.2213233709979
 30
0.0
 11
398.0162881512629
 21
-553.1213222076002
 31
0.0
  0
LINE
  5
274D7
  8
01
 10
398.0162881512629
 20
-553.1213222076002
 30
0.0
 11
402.0162881512629
 21
-552.321331514782
 31
0.0
  0
LINE
  5
274D8
  8
01
 10
402.0162881512629
 20
-552.321331514782
 30
0.0
 11
401.5162881512629
 21
-552.2213303513843
 31
0.0
  0
LINE
  5
274D9
  8
01
 10
398.5162881512629
 20
-551.621323370998
 30
0.0
 11
398.0162881512629
 21
-551.5213222076003
 31
0.0
  0
LINE
  5
274DA
  8
01
 10
398.5162881512629
 20
-550.0213233709981
 30
0.0
 11
398.0162881512629
 21
-549.9213222076004
 31
0.0
  0
LINE
  5
274DB
  8
01
 10
398.0162881512629
 20
-549.9213222076004
 30
0.0
 11
402.0162881512629
 21
-549.1213315147821
 31
0.0
  0
LINE
  5
274DC
  8
01
 10
402.0162881512629
 20
-550.721331514782
 30
0.0
 11
401.5162881512629
 21
-550.6213303513844
 31
0.0
  0
LINE
  5
274DD
  8
01
 10
402.0162881512629
 20
-549.1213315147821
 30
0.0
 11
401.5162881512629
 21
-549.0213303513844
 31
0.0
  0
LINE
  5
274DE
  8
01
 10
398.0162881512629
 20
-551.5213222076003
 30
0.0
 11
402.0162881512629
 21
-550.721331514782
 31
0.0
  0
LINE
  5
274DF
  8
01
 10
398.5162881512629
 20
-548.4213233709937
 30
0.0
 11
398.0162881512629
 21
-548.321322207596
 31
0.0
  0
LINE
  5
274E0
  8
01
 10
398.5162881512629
 20
-554.8213233709978
 30
0.0
 11
398.0162881512629
 21
-554.7213222076001
 31
0.0
  0
LINE
  5
274E1
  8
01
 10
398.0162881512629
 20
-554.7213222076001
 30
0.0
 11
402.0162881512629
 21
-553.9213315147819
 31
0.0
  0
LINE
  5
274E2
  8
01
 10
402.0162881512629
 20
-553.9213315147819
 30
0.0
 11
401.5162881512629
 21
-553.8213303513842
 31
0.0
  0
LINE
  5
274E3
  8
01
 10
398.5162881512629
 20
-556.4213233709977
 30
0.0
 11
398.0162881512629
 21
-556.3213222076
 31
0.0
  0
LINE
  5
274E4
  8
01
 10
398.0162881512629
 20
-556.3213222076
 30
0.0
 11
402.0162881512629
 21
-555.5213315147818
 31
0.0
  0
LINE
  5
274E5
  8
01
 10
402.0162881512629
 20
-555.5213315147818
 30
0.0
 11
401.5162881512629
 21
-555.4213303513841
 31
0.0
  0
LINE
  5
274E6
  8
01
 10
398.5162881512629
 20
-558.0213233709976
 30
0.0
 11
398.0162881512629
 21
-557.9213222075999
 31
0.0
  0
LINE
  5
274E7
  8
01
 10
398.0162881512629
 20
-557.9213222075999
 30
0.0
 11
402.0162881512629
 21
-557.1213315147817
 31
0.0
  0
LINE
  5
274E8
  8
01
 10
402.0162881512629
 20
-557.1213315147817
 30
0.0
 11
401.5162881512629
 21
-557.021330351384
 31
0.0
  0
LINE
  5
274E9
  8
1PHANTOM
 10
404.7662416153649
 20
-558.8213303512664
 30
0.0
 11
395.2662416153651
 21
-558.8213303512665
 31
0.0
  0
LINE
  5
274EA
  8
1PHANTOM
 10
395.2662416153651
 20
-558.8213303512665
 30
0.0
 11
395.2662416153651
 21
-559.8213303512665
 31
0.0
  0
ARC
  5
274EB
  8
1PHANTOM
 10
400.0162416153648
 20
-553.0504970179329
 30
0.0
 40
8.270833333333439
 50
234.9488632525566
 51
305.0511367474463
  0
LINE
  5
274EC
  8
1PHANTOM
 10
404.7662416153649
 20
-559.8213303512664
 30
0.0
 11
404.7662416153649
 21
-558.8213303512664
 31
0.0
  0
LINE
  5
274ED
  8
1PHANTOM
 10
404.5493047950312
 20
-559.8213303512664
 30
0.0
 11
395.5108738305589
 21
-559.8213303512665
 31
0.0
  0
LINE
  5
274F1
  8
1CENTER
 10
396.6412
 20
-655.8213
 30
0.0
 11
403.3912
 21
-655.8213
 31
0.0
  0
LINE
  5
274F2
  8
1CENTER
 10
400.0162
 20
-659.1963
 30
0.0
 11
400.0162
 21
-652.4463
 31
0.0
  0
LINE
  5
274F3
  8
1CENTER
 10
603.3912832307299
 20
-655.8213
 30
0.0
 11
596.6412832307299
 21
-655.8213
 31
0.0
  0
LINE
  5
274F4
  8
1CENTER
 10
600.0162832307299
 20
-659.1963
 30
0.0
 11
600.0162832307299
 21
-652.4463
 31
0.0
  0
SOLID
  5
274F6
  8
1DIM
 10
614.1594924879009
 20
-559.6672606826686
 30
0.0
 11
612.543678756664
 21
-560.8921105089972
 31
0.0
 12
613.6749026128085
 22
-559.2094210847716
 32
0.0
 13
613.6749026128085
 23
-559.2094210847716
 33
0.0
1001
ACAD
1000
DSTYLE
1002
{
1070
    45
1040
0.5
1002
}
  0
LINE
  5
274F7
  8
1DIM
 10
613.9171975503548
 20
-559.4383408837201
 30
0.0
 11
626.3070790014093
 21
-546.3245535827633
 31
0.0
1001
ACAD
1000
DSTYLE
1002
{
1070
    45
1040
0.5
1002
}
  0
LINE
  5
274F8
  8
1DIM
 10
626.3070790014093
 20
-546.3245535827633
 30
0.0
 11
652.4570790014093
 21
-546.3245535827633
 31
0.0
1001
ACAD
1000
DSTYLE
1002
{
1070
    45
1040
0.5
1002
}
  0
TEXT
  5
274F9
  8
1DIM
  6
CONTINUOUS
 10
628.773745668076
 20
-545.6245535827633
 30
0.0
 40
3.5
  1
材質：アルミ
  0
LINE
  5
274FA
  8
1DIM
 10
731.0202317097592
 20
-655.8213303450577
 30
0.0
 11
741.5894367924558
 21
-655.8213303450577
 31
0.0
1001
ACAD
1000
DSTYLE
1002
{
1070
    45
1040
0.5
1070
   271
1070
     0
1002
}
  0
LINE
  5
274FB
  8
1DIM
 10
695.4894367924558
 20
-639.3213470557076
 30
0.0
 11
741.5894367924558
 21
-639.3213470557076
 31
0.0
1001
ACAD
1000
DSTYLE
1002
{
1070
    45
1040
0.5
1070
   271
1070
     0
1002
}
  0
LINE
  5
274FC
  8
1DIM
 10
740.5894367924558
 20
-653.8213303450577
 30
0.0
 11
740.5894367924558
 21
-641.3213470557076
 31
0.0
1001
ACAD
1000
DSTYLE
1002
{
1070
    45
1040
0.5
1070
   271
1070
     0
1002
}
  0
LINE
  5
27500
  8
1DIM
 10
698.789436792456
 20
-680.8213303512663
 30
0.0
 11
751.5894367924558
 21
-680.8213303512663
 31
0.0
1001
ACAD
1000
DSTYLE
1002
{
1070
    45
1040
0.5
1002
}
  0
LINE
  5
27501
  8
1DIM
 10
695.4894367924558
 20
-639.3213470557076
 30
0.0
 11
751.5894367924558
 21
-639.3213470557076
 31
0.0
1001
ACAD
1000
DSTYLE
1002
{
1070
    45
1040
0.5
1002
}
  0
LINE
  5
27502
  8
1DIM
 10
750.5894367924558
 20
-678.8213303512663
 30
0.0
 11
750.5894367924558
 21
-641.3213470557076
 31
0.0
1001
ACAD
1000
DSTYLE
1002
{
1070
    45
1040
0.5
1002
}
  0
LINE
  5
27506
  8
1DIM
 10
645.5705564751534
 20
-642.4473059257092
 30
0.0
 11
645.5705564751534
 21
-627.3495039365478
 31
0.0
1001
ACAD
1000
DSTYLE
1002
{
1070
    45
1040
0.5
1002
}
  0
LINE
  5
27507
  8
1DIM
 10
699.0894367924558
 20
-641.121330351266
 30
0.0
 11
699.0894367924558
 21
-627.3495039365478
 31
0.0
1001
ACAD
1000
DSTYLE
1002
{
1070
    45
1040
0.5
1002
}
  0
LINE
  5
27508
  8
1DIM
 10
647.5705564751534
 20
-628.3495039365478
 30
0.0
 11
697.0894367924558
 21
-628.3495039365478
 31
0.0
1001
ACAD
1000
DSTYLE
1002
{
1070
    45
1040
0.5
1002
}
  0
LINE
  5
2750C
  8
1DIM
 10
380.0162416153652
 20
-641.1213303512662
 30
0.0
 11
380.0162416153652
 21
-626.8691475490259
 31
0.0
  0
LINE
  5
2750D
  8
1DIM
 10
620.0162416153646
 20
-641.121330351266
 30
0.0
 11
620.0162416153646
 21
-626.8691475490259
 31
0.0
  0
LINE
  5
2750E
  8
1DIM
 10
382.0162416153652
 20
-627.8691475490259
 30
0.0
 11
618.0162416153646
 21
-627.8691475490259
 31
0.0
  0
LINE
  5
27512
  8
1DIM
 10
400.0162416153649
 20
-655.8213303512663
 30
0.0
 11
400.0162416153649
 21
-705.1655226870741
 31
0.0
1001
ACAD
1000
DSTYLE
1002
{
1070
    70
1070
     0
1070
    69
1070
     0
1002
}
  0
LINE
  5
27513
  8
1DIM
 10
600.016241615365
 20
-655.8213303512664
 30
0.0
 11
600.016241615365
 21
-705.1655226870741
 31
0.0
1001
ACAD
1000
DSTYLE
1002
{
1070
    70
1070
     0
1070
    69
1070
     0
1002
}
  0
LINE
  5
27514
  8
1DIM
 10
402.0162416153649
 20
-704.1655226870741
 30
0.0
 11
598.016241615365
 21
-704.1655226870741
 31
0.0
1001
ACAD
1000
DSTYLE
1002
{
1070
    70
1070
     0
1070
    69
1070
     0
1002
}
  0
LINE
  5
27518
  8
1DIM
 10
396.8162416153651
 20
-594.1213303512665
 30
0.0
 11
396.8162416153651
 21
-619.2104288550064
 31
0.0
1001
ACAD
1000
DSTYLE
1002
{
1070
    45
1040
0.5
1002
}
  0
LINE
  5
27519
  8
1DIM
 10
603.216241615365
 20
-594.1213303512665
 30
0.0
 11
603.216241615365
 21
-619.2104288550064
 31
0.0
1001
ACAD
1000
DSTYLE
1002
{
1070
    45
1040
0.5
1002
}
  0
LINE
  5
2751A
  8
1DIM
 10
398.8162416153651
 20
-618.2104288550064
 30
0.0
 11
601.216241615365
 21
-618.2104288550064
 31
0.0
1001
ACAD
1000
DSTYLE
1002
{
1070
    45
1040
0.5
1002
}
  0
LINE
  5
2751E
  8
1DIM
 10
598.016241615365
 20
-599.3213303512665
 30
0.0
 11
636.8172713308886
 21
-599.3213303512665
 31
0.0
1001
ACAD
1000
DSTYLE
1002
{
1070
    45
1040
0.5
1002
}
  0
LINE
  5
2751F
  8
1DIM
 10
598.016241615365
 20
-563.1213303512666
 30
0.0
 11
636.8172713308886
 21
-563.1213303512666
 31
0.0
1001
ACAD
1000
DSTYLE
1002
{
1070
    45
1040
0.5
1002
}
  0
LINE
  5
27520
  8
1DIM
 10
635.8172713308886
 20
-597.3213303512665
 30
0.0
 11
635.8172713308886
 21
-565.1213303512666
 31
0.0
1001
ACAD
1000
DSTYLE
1002
{
1070
    45
1040
0.5
1002
}
  0
SOLID
  5
27524
  8
1DIM
 10
428.59564096762
 20
-559.6672606826686
 30
0.0
 11
426.9798272363831
 21
-560.8921105089972
 31
0.0
 12
428.1110510925276
 22
-559.2094210847716
 32
0.0
 13
428.1110510925276
 23
-559.2094210847716
 33
0.0
1001
ACAD
1000
DSTYLE
1002
{
1070
    45
1040
0.5
1002
}
  0
LINE
  5
27525
  8
1DIM
 10
428.3533460300739
 20
-559.4383408837201
 30
0.0
 11
440.7432274811284
 21
-546.3245535827633
 31
0.0
1001
ACAD
1000
DSTYLE
1002
{
1070
    45
1040
0.5
1002
}
  0
LINE
  5
27526
  8
1DIM
 10
440.7432274811284
 20
-546.3245535827633
 30
0.0
 11
473.3432274811285
 21
-546.3245535827633
 31
0.0
1001
ACAD
1000
DSTYLE
1002
{
1070
    45
1040
0.5
1002
}
  0
TEXT
  5
27527
  8
1DIM
  6
CONTINUOUS
 10
443.2098941477951
 20
-545.6245535827633
 30
0.0
 40
3.5
  1
材質：ABS樹脂
  0
SOLID
  5
27528
  8
1DIM
 10
502.2820201264965
 20
-564.9483017214421
 30
0.0
 11
500.8765123738502
 21
-566.4096911522108
 31
0.0
 12
501.7320825947528
 22
-564.5714553925174
 32
0.0
 13
501.7320825947528
 23
-564.5714553925174
 33
0.0
1001
ACAD
1000
DSTYLE
1002
{
1070
    45
1040
0.5
1002
}
  0
LINE
  5
27529
  8
1DIM
 10
502.0070513606246
 20
-564.7598785569797
 30
0.0
 11
514.6399126185955
 21
-546.3245535827633
 31
0.0
1001
ACAD
1000
DSTYLE
1002
{
1070
    45
1040
0.5
1002
}
  0
LINE
  5
2752A
  8
1DIM
 10
514.6399126185955
 20
-546.3245535827633
 30
0.0
 11
547.2399126185956
 21
-546.3245535827633
 31
0.0
1001
ACAD
1000
DSTYLE
1002
{
1070
    45
1040
0.5
1002
}
  0
TEXT
  5
2752B
  8
1DIM
  6
CONTINUOUS
 10
517.1065792852622
 20
-545.6245535827633
 30
0.0
 40
3.5
  1
材質：ABS樹脂
  0
SOLID
  5
2752C
  8
1DIM
 10
686.3178398320586
 20
-643.2296968568957
 30
0.0
 11
685.2447039884414
 21
-644.9500138545026
 31
0.0
 12
685.7018918412878
 22
-642.9746429074851
 32
0.0
 13
685.7018918412878
 23
-642.9746429074851
 33
0.0
1001
ACAD
1000
DSTYLE
1002
{
1070
    45
1040
0.5
1002
}
  0
LINE
  5
2752D
  8
1DIM
 10
686.0098658366732
 20
-643.1021698821903
 30
0.0
 11
698.4597442122482
 21
-613.0360697943569
 31
0.0
1001
ACAD
1000
DSTYLE
1002
{
1070
    45
1040
0.5
1002
}
  0
LINE
  5
2752E
  8
1DIM
 10
698.4597442122482
 20
-613.0360697943569
 30
0.0
 11
731.0597442122482
 21
-613.0360697943569
 31
0.0
1001
ACAD
1000
DSTYLE
1002
{
1070
    45
1040
0.5
1002
}
  0
TEXT
  5
2752F
  8
1DIM
  6
CONTINUOUS
 10
700.9264108789149
 20
-612.3360697943568
 30
0.0
 40
3.5
  1
材質：ABS樹脂
  0
TEXT
  5
27530
  8
1DIM
  6
CONTINUOUS
 10
693.0423010946805
 20
-566.8514093794729
 30
0.0
 40
3.5
  1
※には色品番が入ります。
  0
LINE
  5
27531
  8
0
  6
BYBLOCK
 10
741.1253351724558
 20
-653.8213303450577
 30
0.0
 11
740.5894367924558
 21
-655.8213303450577
 31
0.0
  0
LINE
  5
27532
  8
0
  6
BYBLOCK
 10
740.5894367924558
 20
-655.8213303450577
 30
0.0
 11
740.0535384124557
 21
-653.8213303450577
 31
0.0
  0
LINE
  5
27533
  8
0
  6
BYBLOCK
 10
740.5894367924558
 20
-655.8213303450577
 30
0.0
 11
740.5894367924558
 21
-653.8213303450577
 31
0.0
  0
LINE
  5
27534
  8
0
  6
BYBLOCK
 10
740.0535384124557
 20
-641.3213470557076
 30
0.0
 11
740.5894367924558
 21
-639.3213470557076
 31
0.0
  0
LINE
  5
27535
  8
0
  6
BYBLOCK
 10
740.5894367924558
 20
-639.3213470557076
 30
0.0
 11
741.1253351724558
 21
-641.3213470557076
 31
0.0
  0
LINE
  5
27536
  8
0
  6
BYBLOCK
 10
740.5894367924558
 20
-639.3213470557076
 30
0.0
 11
740.5894367924558
 21
-641.3213470557076
 31
0.0
  0
TEXT
  5
27537
  8
1DIM
  6
CONTINUOUS
 10
739.8894367924557
 20
-649.904672033716
 30
0.0
 40
3.5
  1
17
 50
90.0
1001
ACAD
1000
DSTYLE
1002
{
1070
    45
1040
0.5
1070
   271
1070
     0
1002
}
  0
LINE
  5
27538
  8
0
  6
BYBLOCK
 10
751.1253351724558
 20
-678.8213303512663
 30
0.0
 11
750.5894367924558
 21
-680.8213303512663
 31
0.0
  0
LINE
  5
27539
  8
0
  6
BYBLOCK
 10
750.5894367924558
 20
-680.8213303512663
 30
0.0
 11
750.0535384124557
 21
-678.8213303512663
 31
0.0
  0
LINE
  5
2753A
  8
0
  6
BYBLOCK
 10
750.5894367924558
 20
-680.8213303512663
 30
0.0
 11
750.5894367924558
 21
-678.8213303512663
 31
0.0
  0
LINE
  5
2753B
  8
0
  6
BYBLOCK
 10
750.0535384124557
 20
-641.3213470557076
 30
0.0
 11
750.5894367924558
 21
-639.3213470557076
 31
0.0
  0
LINE
  5
2753C
  8
0
  6
BYBLOCK
 10
750.5894367924558
 20
-639.3213470557076
 30
0.0
 11
751.1253351724558
 21
-641.3213470557076
 31
0.0
  0
LINE
  5
2753D
  8
0
  6
BYBLOCK
 10
750.5894367924558
 20
-639.3213470557076
 30
0.0
 11
750.5894367924558
 21
-641.3213470557076
 31
0.0
  0
TEXT
  5
2753E
  8
1DIM
  6
CONTINUOUS
 10
749.8894367924559
 20
-664.7380053701536
 30
0.0
 40
3.5
  1
41.5
 50
90.0
1001
ACAD
1000
DSTYLE
1002
{
1070
    45
1040
0.5
1002
}
  0
LINE
  5
2753F
  8
0
  6
BYBLOCK
 10
647.5705564751534
 20
-628.8854023165478
 30
0.0
 11
645.5705564751534
 21
-628.3495039365478
 31
0.0
  0
LINE
  5
27540
  8
0
  6
BYBLOCK
 10
645.5705564751534
 20
-628.3495039365478
 30
0.0
 11
647.5705564751534
 21
-627.8136055565477
 31
0.0
  0
LINE
  5
27541
  8
0
  6
BYBLOCK
 10
645.5705564751534
 20
-628.3495039365478
 30
0.0
 11
647.5705564751534
 21
-628.3495039365478
 31
0.0
  0
LINE
  5
27542
  8
0
  6
BYBLOCK
 10
697.0894367924558
 20
-627.8136055565477
 30
0.0
 11
699.0894367924558
 21
-628.3495039365478
 31
0.0
  0
LINE
  5
27543
  8
0
  6
BYBLOCK
 10
699.0894367924558
 20
-628.3495039365478
 30
0.0
 11
697.0894367924558
 21
-628.8854023165478
 31
0.0
  0
LINE
  5
27544
  8
0
  6
BYBLOCK
 10
699.0894367924558
 20
-628.3495039365478
 30
0.0
 11
697.0894367924558
 21
-628.3495039365478
 31
0.0
  0
TEXT
  5
27545
  8
1DIM
  6
CONTINUOUS
 10
667.0678438560267
 20
-627.6495039365476
 30
0.0
 40
3.5
  1
53.5
1001
ACAD
1000
DSTYLE
1002
{
1070
    45
1040
0.5
1002
}
  0
LINE
  5
27546
  8
0
  6
BYBLOCK
 10
382.0162416153652
 20
-628.405045929026
 30
0.0
 11
380.0162416153652
 21
-627.8691475490259
 31
0.0
  0
LINE
  5
27547
  8
0
  6
BYBLOCK
 10
380.0162416153652
 20
-627.8691475490259
 30
0.0
 11
382.0162416153652
 21
-627.3332491690259
 31
0.0
  0
LINE
  5
27548
  8
0
  6
BYBLOCK
 10
380.0162416153652
 20
-627.8691475490259
 30
0.0
 11
382.0162416153652
 21
-627.8691475490259
 31
0.0
  0
LINE
  5
27549
  8
0
  6
BYBLOCK
 10
618.0162416153646
 20
-627.3332491690259
 30
0.0
 11
620.0162416153646
 21
-627.8691475490259
 31
0.0
  0
LINE
  5
2754A
  8
0
  6
BYBLOCK
 10
620.0162416153646
 20
-627.8691475490259
 30
0.0
 11
618.0162416153646
 21
-628.405045929026
 31
0.0
  0
LINE
  5
2754B
  8
0
  6
BYBLOCK
 10
620.0162416153646
 20
-627.8691475490259
 30
0.0
 11
618.0162416153646
 21
-627.8691475490259
 31
0.0
  0
TEXT
  5
2754C
  8
1DIM
  6
CONTINUOUS
 10
495.5683249486982
 20
-627.1691475490259
 30
0.0
 40
3.5
  1
240
  0
LINE
  5
2754D
  8
0
  6
BYBLOCK
 10
402.0162416153649
 20
-704.7014210670742
 30
0.0
 11
400.0162416153649
 21
-704.1655226870741
 31
0.0
  0
LINE
  5
2754E
  8
0
  6
BYBLOCK
 10
400.0162416153649
 20
-704.1655226870741
 30
0.0
 11
402.0162416153649
 21
-703.6296243070741
 31
0.0
  0
LINE
  5
2754F
  8
0
  6
BYBLOCK
 10
400.0162416153649
 20
-704.1655226870741
 30
0.0
 11
402.0162416153649
 21
-704.1655226870741
 31
0.0
  0
LINE
  5
27550
  8
0
  6
BYBLOCK
 10
598.016241615365
 20
-703.6296243070741
 30
0.0
 11
600.016241615365
 21
-704.1655226870741
 31
0.0
  0
LINE
  5
27551
  8
0
  6
BYBLOCK
 10
600.016241615365
 20
-704.1655226870741
 30
0.0
 11
598.016241615365
 21
-704.7014210670742
 31
0.0
  0
LINE
  5
27552
  8
0
  6
BYBLOCK
 10
600.016241615365
 20
-704.1655226870741
 30
0.0
 11
598.016241615365
 21
-704.1655226870741
 31
0.0
  0
TEXT
  5
27553
  8
1DIM
  6
CONTINUOUS
 10
488.2766582820316
 20
-703.4655226870741
 30
0.0
 40
3.5
  1
P100~200
1001
ACAD
1000
DSTYLE
1002
{
1070
    70
1070
     0
1070
    69
1070
     0
1002
}
  0
LINE
  5
27554
  8
0
  6
BYBLOCK
 10
398.8162416153651
 20
-618.7463272350064
 30
0.0
 11
396.8162416153651
 21
-618.2104288550064
 31
0.0
  0
LINE
  5
27555
  8
0
  6
BYBLOCK
 10
396.8162416153651
 20
-618.2104288550064
 30
0.0
 11
398.8162416153651
 21
-617.6745304750063
 31
0.0
  0
LINE
  5
27556
  8
0
  6
BYBLOCK
 10
396.8162416153651
 20
-618.2104288550064
 30
0.0
 11
398.8162416153651
 21
-618.2104288550064
 31
0.0
  0
LINE
  5
27557
  8
0
  6
BYBLOCK
 10
601.216241615365
 20
-617.6745304750063
 30
0.0
 11
603.216241615365
 21
-618.2104288550064
 31
0.0
  0
LINE
  5
27558
  8
0
  6
BYBLOCK
 10
603.216241615365
 20
-618.2104288550064
 30
0.0
 11
601.216241615365
 21
-618.7463272350064
 31
0.0
  0
LINE
  5
27559
  8
0
  6
BYBLOCK
 10
603.216241615365
 20
-618.2104288550064
 30
0.0
 11
601.216241615365
 21
-618.2104288550064
 31
0.0
  0
TEXT
  5
2755A
  8
1DIM
  6
CONTINUOUS
 10
493.295755504254
 20
-617.5104288550065
 30
0.0
 40
3.5
  1
206.5
1001
ACAD
1000
DSTYLE
1002
{
1070
    45
1040
0.5
1002
}
  0
LINE
  5
2755B
  8
0
  6
BYBLOCK
 10
636.3531697108887
 20
-597.3213303512665
 30
0.0
 11
635.8172713308886
 21
-599.3213303512665
 31
0.0
  0
LINE
  5
2755C
  8
0
  6
BYBLOCK
 10
635.8172713308886
 20
-599.3213303512665
 30
0.0
 11
635.2813729508886
 21
-597.3213303512665
 31
0.0
  0
LINE
  5
2755D
  8
0
  6
BYBLOCK
 10
635.8172713308886
 20
-599.3213303512665
 30
0.0
 11
635.8172713308886
 21
-597.3213303512665
 31
0.0
  0
LINE
  5
2755E
  8
0
  6
BYBLOCK
 10
635.2813729508886
 20
-565.1213303512666
 30
0.0
 11
635.8172713308886
 21
-563.1213303512666
 31
0.0
  0
LINE
  5
2755F
  8
0
  6
BYBLOCK
 10
635.8172713308886
 20
-563.1213303512666
 30
0.0
 11
636.3531697108887
 21
-565.1213303512666
 31
0.0
  0
LINE
  5
27560
  8
0
  6
BYBLOCK
 10
635.8172713308886
 20
-563.1213303512666
 30
0.0
 11
635.8172713308886
 21
-565.1213303512666
 31
0.0
  0
TEXT
  5
27561
  8
1DIM
  6
CONTINUOUS
 10
635.1172713308886
 20
-584.1379970179331
 30
0.0
 40
3.5
  1
36
 50
90.0
1001
ACAD
1000
DSTYLE
1002
{
1070
    45
1040
0.5
1002
}
  0
VIEWPORT
  5
57
 67
     1
  8
0
 10
0.0
 20
0.0
 30
0.0
 40
544.3287197231833
 41
297.0
 68
     1
 69
     1
1001
ACAD
1000
MVIEW
1002
{
1070
    16
1010
0.0
1020
0.0
1030
0.0
1010
0.0
1020
0.0
1030
1.0
1040
0.0
1040
297.0
1040
-4.171999999925333
1040
12.83903210976956
1040
50.0
1040
0.0
1040
0.0
1070
    16
1070
   100
1070
     0
1070
     1
1070
     0
1070
     0
1070
     0
1070
     0
1040
0.0
1040
0.0
1040
0.0
1040
10.0
1040
10.0
1040
10.0
1040
10.0
1070
     0
1002
{
1002
}
1002
}
  0
ENDSEC
  0
EOF
