  0
SECTION
  2
HEADER
  9
$ACADVER
  1
AC1009
  9
$DWGCODEPAGE
  3
ansi_932
  9
$INSBASE
 10
0.0
 20
0.0
 30
0.0
  9
$EXTMIN
 10
16380.0
 20
6446.0
 30
0.0
  9
$EXTMAX
 10
19698.52978356192
 20
7219.074777375117
 30
0.0
  9
$LIMMIN
 10
0.0
 20
0.0
  9
$LIMMAX
 10
420.0
 20
297.0
  9
$ORTHOMODE
 70
     0
  9
$REGENMODE
 70
     1
  9
$FILLMODE
 70
     1
  9
$QTEXTMODE
 70
     0
  9
$MIRRTEXT
 70
     0
  9
$DRAGMODE
 70
     2
  9
$LTSCALE
 40
0.5
  9
$OSMODE
 70
   951
  9
$ATTMODE
 70
     1
  9
$TEXTSIZE
 40
2.0
  9
$TRACEWID
 40
1.0
  9
$TEXTSTYLE
  7
STANDARD
  9
$CLAYER
  8
1TEXT
  9
$CELTYPE
  6
BYLAYER
  9
$CECOLOR
 62
   256
  9
$DIMSCALE
 40
1.0
  9
$DIMASZ
 40
2.0
  9
$DIMEXO
 40
0.0
  9
$DIMDLI
 40
7.0
  9
$DIMRND
 40
0.0
  9
$DIMDLE
 40
0.0
  9
$DIMEXE
 40
1.0
  9
$DIMTP
 40
0.0
  9
$DIMTM
 40
0.0
  9
$DIMTXT
 40
3.5
  9
$DIMCEN
 40
0.0
  9
$DIMTSZ
 40
0.0
  9
$DIMTOL
 70
     0
  9
$DIMLIM
 70
     0
  9
$DIMTIH
 70
     0
  9
$DIMTOH
 70
     0
  9
$DIMSE1
 70
     0
  9
$DIMSE2
 70
     0
  9
$DIMTAD
 70
     1
  9
$DIMZIN
 70
     8
  9
$DIMBLK
  1

  9
$DIMASO
 70
     1
  9
$DIMSHO
 70
     1
  9
$DIMPOST
  1
 
  9
$DIMAPOST
  1

  9
$DIMALT
 70
     0
  9
$DIMALTD
 70
     2
  9
$DIMALTF
 40
25.4
  9
$DIMLFAC
 40
1.0
  9
$DIMTOFL
 70
     1
  9
$DIMTVP
 40
0.0
  9
$DIMTIX
 70
     0
  9
$DIMSOXD
 70
     0
  9
$DIMSAH
 70
     1
  9
$DIMBLK1
  1
OPEN30
  9
$DIMBLK2
  1
OPEN30
  9
$DIMSTYLE
  2
NEWX10
  9
$DIMCLRD
 70
   256
  9
$DIMCLRE
 70
   256
  9
$DIMCLRT
 70
   201
  9
$DIMTFAC
 40
0.7
  9
$DIMGAP
 40
0.7
  9
$LUNITS
 70
     2
  9
$LUPREC
 70
     4
  9
$SKETCHINC
 40
1.0
  9
$FILLETRAD
 40
0.3
  9
$AUNITS
 70
     0
  9
$AUPREC
 70
     2
  9
$MENU
  1
acad
  9
$ELEVATION
 40
0.0
  9
$PELEVATION
 40
0.0
  9
$THICKNESS
 40
0.0
  9
$LIMCHECK
 70
     0
  9
$CHAMFERA
 40
1.0
  9
$CHAMFERB
 40
1.0
  9
$SKPOLY
 70
     0
  9
$TDCREATE
 40
2459965.625447141
  9
$TDUPDATE
 40
2460306.60687654
  9
$TDINDWG
 40
1.0012086458
  9
$TDUSRTIMER
 40
1.0012086458
  9
$USRTIMER
 70
     1
  9
$ANGBASE
 50
0.0
  9
$ANGDIR
 70
     0
  9
$PDMODE
 70
     0
  9
$PDSIZE
 40
0.0
  9
$PLINEWID
 40
0.0
  9
$COORDS
 70
     1
  9
$SPLFRAME
 70
     0
  9
$SPLINETYPE
 70
     6
  9
$SPLINESEGS
 70
     8
  9
$ATTDIA
 70
     0
  9
$ATTREQ
 70
     1
  9
$HANDLING
 70
     1
  9
$HANDSEED
  5
1DD93
  9
$SURFTAB1
 70
     6
  9
$SURFTAB2
 70
     6
  9
$SURFTYPE
 70
     6
  9
$SURFU
 70
     6
  9
$SURFV
 70
     6
  9
$UCSNAME
  2

  9
$UCSORG
 10
0.0
 20
0.0
 30
0.0
  9
$UCSXDIR
 10
1.0
 20
0.0
 30
0.0
  9
$UCSYDIR
 10
0.0
 20
1.0
 30
0.0
  9
$PUCSNAME
  2

  9
$PUCSORG
 10
0.0
 20
0.0
 30
0.0
  9
$PUCSXDIR
 10
1.0
 20
0.0
 30
0.0
  9
$PUCSYDIR
 10
0.0
 20
1.0
 30
0.0
  9
$USERI1
 70
     0
  9
$USERI2
 70
     0
  9
$USERI3
 70
     0
  9
$USERI4
 70
     0
  9
$USERI5
 70
     0
  9
$USERR1
 40
0.0
  9
$USERR2
 40
0.0
  9
$USERR3
 40
0.0
  9
$USERR4
 40
0.0
  9
$USERR5
 40
4.5
  9
$WORLDVIEW
 70
     1
  9
$SHADEDGE
 70
     1
  9
$SHADEDIF
 70
    70
  9
$TILEMODE
 70
     1
  9
$MAXACTVP
 70
    48
  9
$PLIMCHECK
 70
     0
  9
$PEXTMIN
 10
1.000000000000000E+20
 20
1.000000000000000E+20
 30
1.000000000000000E+20
  9
$PEXTMAX
 10
-1.000000000000000E+20
 20
-1.000000000000000E+20
 30
-1.000000000000000E+20
  9
$PLIMMIN
 10
-20.0
 20
-7.5
  9
$PLIMMAX
 10
277.0
 20
202.5
  9
$UNITMODE
 70
     0
  9
$VISRETAIN
 70
     1
  9
$PLINEGEN
 70
     0
  9
$PSLTSCALE
 70
     1
  0
ENDSEC
  0
SECTION
  2
TABLES
  0
TABLE
  2
VPORT
 70
     1
  0
VPORT
  2
*ACTIVE
 70
     0
 10
0.0
 20
0.0
 11
1.0
 21
1.0
 12
6977.604346780956
 22
-654.0462603124415
 13
0.0
 23
0.0
 14
10.0
 24
10.0
 15
10.0
 25
10.0
 16
0.0
 26
0.0
 36
1.0
 17
11061.660545
 27
7486.583649
 37
474.311593
 40
1688.292454467516
 41
2.11044776119403
 42
50.0
 43
0.0
 44
0.0
 50
0.0
 51
0.0
 71
    16
 72
    20
 73
     1
 74
     1
 75
     1
 76
     0
 77
     0
 78
     0
  0
ENDTAB
  0
TABLE
  2
LTYPE
 70
     8
  0
LTYPE
  2
CONTINUOUS
 70
     0
  3
Solid line
 72
    65
 73
     0
 40
0.0
  0
LTYPE
  2
CENTER2
 70
     0
  3
Center (.5x) ___ _ ___ _ ___ _ ___ _ ___ _ ___
 72
    65
 73
     4
 40
28.575
 49
19.05
 49
-3.175
 49
3.175
 49
-3.175
  0
LTYPE
  2
HIDDEN
 70
     0
  3
Hidden __ __ __ __ __ __ __ __ __ __ __ __ __ _
 72
    65
 73
     2
 40
9.524999999999999
 49
6.35
 49
-3.175
  0
ENDTAB
  0
TABLE
  2
LAYER
 70
    55
  0
LAYER
  2
0
 70
     0
 62
     7
  6
CONTINUOUS
  0
LAYER
  2
01
 70
     0
 62
     1
  6
CONTINUOUS
  0
LAYER
  2
1CENTER
 70
     0
 62
     7
  6
CENTER2
  0
LAYER
  2
1DIM
 70
     0
 62
     7
  6
CONTINUOUS
  0
LAYER
  2
1TEXT
 70
     0
 62
     7
  6
CONTINUOUS
  0
LAYER
  2
1DIM1
 70
     0
 62
     7
  6
CONTINUOUS
  0
LAYER
  2
1HIDDEN
 70
     0
 62
     7
  6
HIDDEN
  0
ENDTAB
  0
TABLE
  2
STYLE
 70
     6
  0
STYLE
  2
STANDARD
 70
     0
 40
0.0
 41
1.0
 50
0.0
 71
     0
 42
2.0
  3
romans.shx
  4
extfont2.shx
  0
ENDTAB
  0
TABLE
  2
VIEW
 70
     0
  0
ENDTAB
  0
TABLE
  2
UCS
 70
     0
  0
ENDTAB
  0
TABLE
  2
APPID
 70
    29
  0
APPID
  2
ACAD
 70
     0
  0
APPID
  2
ACAD_PSEXT
 70
     0
  0
APPID
  2
ACAD_DSTYLE_DIMRADIAL_EXTE
 70
     0
  0
APPID
  2
ACDBBLOCKREPETAG
 70
     0
  0
APPID
  2
ACDBDYNAMICBLOCKGUID
 70
     0
  0
APPID
  2
ACADANNOTATIVE
 70
     0
  0
APPID
  2
ACLAYERTOOLS
 70
     0
  0
APPID
  2
ACAD_NAV_VCDISPLAY
 70
     0
  0
APPID
  2
ACADSTRINGINFO
 70
     0
  0
APPID
  2
GRADIENTCOLOR1ACI
 70
     0
  0
APPID
  2
GRADIENTCOLOR2ACI
 70
     0
  0
APPID
  2
CONTENTTABDATA
 70
     0
  0
APPID
  2
CONTENTCURRENTTAB
 70
     0
  0
APPID
  2
CONTENTBLOCKDESCRIPTION
 70
     0
  0
APPID
  2
CONTENTBLOCKICON
 70
     0
  0
APPID
  2
DRAWINGVARIABLESXDATA
 70
     0
  0
APPID
  2
CONTENTLONGBLOCKNAME
 70
     0
  0
APPID
  2
ACAECLAYERSTANDARD
 70
     0
  0
APPID
  2
AECBASE
 70
     0
  0
APPID
  2
AEC_2DSECTION_XDATA
 70
     0
  0
APPID
  2
AEC_MASSGROUP_XDADA
 70
     0
  0
APPID
  2
ACAD_DSTYLE_DIMJOGGED_JOGA
 70
     0
  0
APPID
  2
ACAD_DSTYLE_DIM_LINETYPE
 70
     0
  0
APPID
  2
ACAD_DSTYLE_DIM_EXT1_LINET
 70
     0
  0
APPID
  2
ACAD_DSTYLE_DIM_EXT2_LINET
 70
     0
  0
APPID
  2
ACAD_OBJECT_CHANGE_GUID
 70
     0
  0
APPID
  2
ACAD_MLEADERVER
 70
     0
  0
APPID
  2
ACAD_DSTYLE_DIMJAG
 70
     0
  0
APPID
  2
ACAD_DSTYLE_DIMTALN
 70
     0
  0
ENDTAB
  0
TABLE
  2
DIMSTYLE
 70
     5
  0
DIMSTYLE
  2
NEWX10
 70
     0
  3
 
  4

  5

  6
OPEN30
  7
OPEN30
 40
1.0
 41
2.0
 42
0.0
 43
7.0
 44
1.0
 45
0.0
 46
0.0
 47
0.0
 48
0.0
140
3.5
141
0.0
142
0.0
143
25.4
144
1.0
145
0.0
146
0.7
147
0.7
 71
     0
 72
     0
 73
     0
 74
     0
 75
     0
 76
     0
 77
     1
 78
     8
170
     0
171
     2
172
     1
173
     1
174
     0
175
     0
176
   256
177
   256
178
   201
  0
DIMSTYLE
  2
ISO-25
 70
     0
  3

  4

  5

  6

  7

 40
1.0
 41
20.0
 42
3.0
 43
3.75
 44
2.0
 45
0.0
 46
0.0
 47
0.0
 48
0.0
140
30.0
141
5.0
142
0.0
143
0.03937
144
1.0
145
0.0
146
1.0
147
8.0
 71
     0
 72
     0
 73
     0
 74
     0
 75
     0
 76
     0
 77
     1
 78
     8
170
     0
171
     3
172
     1
173
     0
174
     0
175
     0
176
     1
177
     1
178
     1
  0
ENDTAB
  0
ENDSEC
  0
SECTION
  2
BLOCKS
  0
BLOCK
  8
0
  2
$MODEL_SPACE
 70
     0
 10
0.0
 20
0.0
 30
0.0
  3
$MODEL_SPACE
  1

  0
ENDBLK
  5
F764
  8
0
  0
BLOCK
 67
     1
  8
0
  2
$PAPER_SPACE
 70
     0
 10
0.0
 20
0.0
 30
0.0
  3
$PAPER_SPACE
  1

  0
ENDBLK
  5
FB7D
 67
     1
  8
0
  0
BLOCK
  8
0
  2
_OPEN30
 70
     0
 10
0.0
 20
0.0
 30
0.0
  3
_OPEN30
  1

  0
LINE
  5
29
  8
0
  6
BYBLOCK
 62
     0
 10
-1.0
 20
0.267949
 30
0.0
 11
0.0
 21
0.0
 31
0.0
  0
LINE
  5
2A
  8
0
  6
BYBLOCK
 62
     0
 10
0.0
 20
0.0
 30
0.0
 11
-1.0
 21
-0.267949
 31
0.0
  0
LINE
  5
2B
  8
0
  6
BYBLOCK
 62
     0
 10
0.0
 20
0.0
 30
0.0
 11
-1.0
 21
0.0
 31
0.0
  0
ENDBLK
  5
F762
  8
0
  0
BLOCK
  8
0
  2
A3WAKUKAWAJUN2017_HYOUDAI_
 70
     0
 10
0.0
 20
0.0
 30
0.0
  3
A3WAKUKAWAJUN2017_HYOUDAI_
  1

  0
LINE
  5
6D9B
  8
0
 10
13.26299999998673
 20
-0.0001000000000317
 30
0.0
 11
9.236999999990758
 21
8.999899999990987
 31
0.0
1001
ACAD
1000
ASC_BOUNDS
1002
{
1070
    19
1005
6DDC
1002
}
  0
LINE
  5
6D9C
  8
0
 10
5.657999999994331
 20
0.9999999999989768
 30
0.0
 11
9.236999999990758
 21
8.999999999991019
 31
0.0
1001
ACAD
1000
ASC_BOUNDS
1002
{
1070
    19
1005
6DDC
1002
}
  0
LINE
  5
6D9D
  8
0
 10
18.59199999998134
 20
-0.2368999999997641
 30
0.0
 11
16.46099999998353
 21
5.432899999994561
 31
0.0
1001
ACAD
1000
ASC_BOUNDS
1002
{
1070
    19
1005
6DDD
1002
}
  0
LINE
  5
6D9E
  8
0
 10
18.59199999998134
 20
-0.2368999999997641
 30
0.0
 11
22.38199999997767
 21
8.763099999991255
 31
0.0
1001
ACAD
1000
ASC_BOUNDS
1002
{
1070
    19
1005
6DDD
1002
}
  0
LINE
  5
6D9F
  8
0
 10
14.32899999998563
 20
-0.2368999999997641
 30
0.0
 11
16.46099999998353
 21
5.432899999994561
 31
0.0
1001
ACAD
1000
ASC_BOUNDS
1002
{
1070
    19
1005
6DDD
1002
}
  0
LINE
  5
6DA0
  8
0
 10
14.32899999998563
 20
-0.2368999999997641
 30
0.0
 11
10.53899999998941
 21
8.763099999991255
 31
0.0
1001
ACAD
1000
ASC_BOUNDS
1002
{
1070
    19
1005
6DDD
1002
}
  0
LINE
  5
6DA1
  8
0
 10
19.53899999998043
 20
-0.0001000000000317
 30
0.0
 11
23.56599999997638
 21
8.999899999990987
 31
0.0
1001
ACAD
1000
ASC_BOUNDS
1002
{
1070
    19
1005
6DDE
1002
}
  0
LINE
  5
6DA2
  8
0
 10
26.97358892824991
 20
1.383099999991202
 30
0.0
 11
23.56599999997638
 21
8.999899999990987
 31
0.0
1001
ACAD
1000
ASC_BOUNDS
1002
{
1070
    19
1005
6DDE
1002
}
  0
LINE
  5
6DA3
  8
0
 10
5.657999999994331
 20
0.9999999999989768
 30
0.0
 11
3.181999999996833
 21
4.668599999995308
 31
0.0
1001
ACAD
1000
ASC_BOUNDS
1002
{
1070
    19
1005
6DDC
1002
}
  0
LINE
  5
6DA4
  8
0
 10
4.617999999995391
 20
-0.0001000000000317
 30
0.0
 11
1.420999999998571
 21
4.736799999995242
 31
0.0
1001
ACAD
1000
ASC_BOUNDS
1002
{
1070
    19
1005
6DDC
1002
}
  0
LINE
  5
6DA5
  8
0
 10
1.420999999998571
 20
8.763099999991255
 30
0.0
 11
1.420999999998571
 21
0.0
 31
0.0
1001
ACAD
1000
ASC_BOUNDS
1002
{
1070
    19
1005
6DE1
1002
}
  0
LINE
  5
6DA6
  8
0
 10
0.0
 20
8.763099999991255
 30
0.0
 11
0.0
 21
0.0
 31
0.0
1001
ACAD
1000
ASC_BOUNDS
1002
{
1070
    19
1005
6DE1
1002
}
  0
LINE
  5
6DA7
  8
0
 10
6.766999999993232
 20
-0.0001000000000317
 30
0.0
 11
7.826999999992154
 21
2.368399999997621
 31
0.0
1001
ACAD
1000
ASC_BOUNDS
1002
{
1070
    19
1005
6DDC
1002
}
  0
LINE
  5
6DA8
  8
0
 10
0.0
 20
0.0
 30
0.0
 11
1.420999999998571
 21
0.0
 31
0.0
1001
ACAD
1000
ASC_BOUNDS
1002
{
1070
    19
1005
6DE1
1002
}
  0
LINE
  5
6DA9
  8
0
 10
4.617999999995391
 20
0.0
 30
0.0
 11
6.766999999993232
 21
0.0
 31
0.0
1001
ACAD
1000
ASC_BOUNDS
1002
{
1070
    19
1005
6DDC
1002
}
  0
LINE
  5
6DAA
  8
0
 10
11.70599999998831
 20
-0.0001000000000317
 30
0.0
 11
10.64699999998936
 21
2.368399999997621
 31
0.0
1001
ACAD
1000
ASC_BOUNDS
1002
{
1070
    19
1005
6DDC
1002
}
  0
LINE
  5
6DAB
  8
0
 10
7.826999999992154
 20
2.368399999997621
 30
0.0
 11
10.64699999998936
 21
2.368399999997621
 31
0.0
1001
ACAD
1000
ASC_BOUNDS
1002
{
1070
    19
1005
6DDC
1002
}
  0
LINE
  5
6DAC
  8
0
 10
11.70599999998831
 20
0.0
 30
0.0
 11
13.26299999998673
 21
0.0
 31
0.0
1001
ACAD
1000
ASC_BOUNDS
1002
{
1070
    19
1005
6DDC
1002
}
  0
LINE
  5
6DAD
  8
0
 10
22.15599999997789
 20
2.368399999997621
 30
0.0
 11
24.97599999997499
 21
2.368399999997621
 31
0.0
1001
ACAD
1000
ASC_BOUNDS
1002
{
1070
    19
1005
6DDE
1002
}
  0
LINE
  5
6DAE
  8
0
 10
19.53899999998043
 20
0.0
 30
0.0
 11
21.09599999997886
 21
0.0
 31
0.0
1001
ACAD
1000
ASC_BOUNDS
1002
{
1070
    19
1005
6DDE
1002
}
  0
LINE
  5
6DAF
  8
0
 10
21.09599999997886
 20
-0.0001000000000317
 30
0.0
 11
22.15599999997789
 21
2.368399999997621
 31
0.0
1001
ACAD
1000
ASC_BOUNDS
1002
{
1070
    19
1005
6DDE
1002
}
  0
LINE
  5
6DB0
  8
0
 10
26.02015566812236
 20
0.0330999999912365
 30
0.0
 11
24.97599999997499
 21
2.368399999997621
 31
0.0
1001
ACAD
1000
ASC_BOUNDS
1002
{
1070
    19
1005
6DDE
1002
}
  0
LINE
  5
6DB1
  8
0
 10
14.32399999998563
 20
3.315799999996671
 30
0.0
 11
16.46099999998353
 21
8.999899999990987
 31
0.0
1001
ACAD
1000
ASC_BOUNDS
1002
{
1070
    19
1005
6DDD
1002
}
  0
LINE
  5
6DB2
  8
0
 10
6.432999999993513
 20
8.763099999991255
 30
0.0
 11
3.181999999996833
 21
4.668599999995308
 31
0.0
1001
ACAD
1000
ASC_BOUNDS
1002
{
1070
    19
1005
6DDC
1002
}
  0
LINE
  5
6DB3
  8
0
 10
4.617999999995391
 20
8.763099999991255
 30
0.0
 11
1.420999999998571
 21
4.736799999995242
 31
0.0
1001
ACAD
1000
ASC_BOUNDS
1002
{
1070
    19
1005
6DDC
1002
}
  0
LINE
  5
6DB4
  8
0
 10
0.0
 20
8.763099999991255
 30
0.0
 11
1.420999999998571
 21
8.763099999991255
 31
0.0
1001
ACAD
1000
ASC_BOUNDS
1002
{
1070
    19
1005
6DE1
1002
}
  0
LINE
  5
6DB5
  8
0
 10
4.617999999995391
 20
8.763099999991255
 30
0.0
 11
6.432999999993513
 21
8.763099999991255
 31
0.0
1001
ACAD
1000
ASC_BOUNDS
1002
{
1070
    19
1005
6DDC
1002
}
  0
LINE
  5
6DB6
  8
0
 10
14.32399999998563
 20
3.315799999996671
 30
0.0
 11
12.02999999998792
 21
8.763099999991255
 31
0.0
1001
ACAD
1000
ASC_BOUNDS
1002
{
1070
    19
1005
6DDD
1002
}
  0
LINE
  5
6DB7
  8
0
 10
10.06399999998996
 20
3.670999999996297
 30
0.0
 11
9.236999999990758
 21
5.5200999999945
 31
0.0
1001
ACAD
1000
ASC_BOUNDS
1002
{
1070
    19
1005
6DDC
1002
}
  0
LINE
  5
6DB8
  8
0
 10
8.409999999991555
 20
3.670999999996297
 30
0.0
 11
9.236999999990758
 21
5.5200999999945
 31
0.0
1001
ACAD
1000
ASC_BOUNDS
1002
{
1070
    19
1005
6DDC
1002
}
  0
LINE
  5
6DB9
  8
0
 10
8.409999999991555
 20
3.670999999996297
 30
0.0
 11
10.06399999998996
 21
3.670999999996297
 31
0.0
1001
ACAD
1000
ASC_BOUNDS
1002
{
1070
    19
1005
6DDC
1002
}
  0
LINE
  5
6DBA
  8
0
 10
10.53899999998941
 20
8.763099999991255
 30
0.0
 11
12.02999999998792
 21
8.763099999991255
 31
0.0
1001
ACAD
1000
ASC_BOUNDS
1002
{
1070
    19
1005
6DDD
1002
}
  0
LINE
  5
6DBB
  8
0
 10
22.7389999999773
 20
3.670999999996297
 30
0.0
 11
23.56599999997638
 21
5.5200999999945
 31
0.0
1001
ACAD
1000
ASC_BOUNDS
1002
{
1070
    19
1005
6DDE
1002
}
  0
LINE
  5
6DBC
  8
0
 10
22.7389999999773
 20
3.670999999996297
 30
0.0
 11
24.39299999997559
 21
3.670999999996297
 31
0.0
1001
ACAD
1000
ASC_BOUNDS
1002
{
1070
    19
1005
6DDE
1002
}
  0
LINE
  5
6DBD
  8
0
 10
18.59799999998143
 20
3.315799999996671
 30
0.0
 11
20.89099999997916
 21
8.763099999991255
 31
0.0
1001
ACAD
1000
ASC_BOUNDS
1002
{
1070
    19
1005
6DDD
1002
}
  0
LINE
  5
6DBE
  8
0
 10
18.59799999998143
 20
3.315799999996671
 30
0.0
 11
16.46099999998353
 21
8.999899999990987
 31
0.0
1001
ACAD
1000
ASC_BOUNDS
1002
{
1070
    19
1005
6DDD
1002
}
  0
LINE
  5
6DBF
  8
0
 10
20.89099999997916
 20
8.763099999991255
 30
0.0
 11
22.38199999997767
 21
8.763099999991255
 31
0.0
1001
ACAD
1000
ASC_BOUNDS
1002
{
1070
    19
1005
6DDD
1002
}
  0
LINE
  5
6DC0
  8
0
 10
24.39299999997559
 20
3.670999999996297
 30
0.0
 11
23.56599999997638
 21
5.5200999999945
 31
0.0
1001
ACAD
1000
ASC_BOUNDS
1002
{
1070
    19
1005
6DDE
1002
}
  0
LINE
  5
6DC1
  8
0
 10
44.99999999995498
 20
-0.2368999999997641
 30
0.0
 11
40.02599999995994
 21
5.341799999994635
 31
0.0
1001
ACAD
1000
ASC_BOUNDS
1002
{
1070
    19
1005
6DE0
1002
}
  0
LINE
  5
6DC2
  8
0
 10
40.02599999995994
 20
5.341799999994635
 30
0.0
 11
40.02599999995994
 21
0.0
 31
0.0
1001
ACAD
1000
ASC_BOUNDS
1002
{
1070
    19
1005
6DE0
1002
}
  0
LINE
  5
6DC3
  8
0
 10
38.60499999996136
 20
8.999999999991019
 30
0.0
 11
38.60499999996136
 21
0.0
 31
0.0
1001
ACAD
1000
ASC_BOUNDS
1002
{
1070
    19
1005
6DE0
1002
}
  0
LINE
  5
6DC4
  8
0
 10
44.99999999995498
 20
8.763099999991255
 30
0.0
 11
44.99999999995498
 21
-0.2368999999997641
 31
0.0
1001
ACAD
1000
ASC_BOUNDS
1002
{
1070
    19
1005
6DE0
1002
}
  0
LINE
  5
6DC5
  8
0
 10
38.60499999996136
 20
0.0
 30
0.0
 11
40.02599999995994
 21
0.0
 31
0.0
1001
ACAD
1000
ASC_BOUNDS
1002
{
1070
    19
1005
6DE0
1002
}
  0
LINE
  5
6DC6
  8
0
 10
43.57899999995641
 20
3.421199999996588
 30
0.0
 11
38.60499999996136
 21
8.999899999990987
 31
0.0
1001
ACAD
1000
ASC_BOUNDS
1002
{
1070
    19
1005
6DE0
1002
}
  0
LINE
  5
6DC7
  8
0
 10
43.57899999995641
 20
8.763099999991255
 30
0.0
 11
43.57899999995641
 21
3.421199999996588
 31
0.0
1001
ACAD
1000
ASC_BOUNDS
1002
{
1070
    19
1005
6DE0
1002
}
  0
LINE
  5
6DC8
  8
0
 10
43.57899999995641
 20
8.763099999991255
 30
0.0
 11
44.99999999995498
 21
8.763099999991255
 31
0.0
1001
ACAD
1000
ASC_BOUNDS
1002
{
1070
    19
1005
6DE0
1002
}
  0
LINE
  5
6DC9
  8
0
 10
37.67199999996831
 20
8.763099999991255
 30
0.0
 11
36.23199999996837
 21
8.763099999991255
 31
0.0
  0
LINE
  5
6DCA
  8
0
 10
31.64199999996833
 20
8.763099999991255
 30
0.0
 11
31.64199999996833
 21
2.481619422925121
 31
0.0
  0
LINE
  5
6DCB
  8
0
 10
37.67199999996831
 20
8.763099999991255
 30
0.0
 11
37.67199999996831
 21
2.481619422925121
 31
0.0
  0
LINE
  5
6DCC
  8
0
 10
36.23199999996837
 20
8.763099999991255
 30
0.0
 11
36.23199999996837
 21
2.481619422925064
 31
0.0
  0
LINE
  5
6DCD
  8
0
 10
33.08199999996839
 20
8.763099999991255
 30
0.0
 11
33.08199999996839
 21
2.481619422925121
 31
0.0
  0
ARC
  5
6DCE
  8
0
 10
34.65699999996832
 20
3.183099999991214
 30
0.0
 40
3.420000000000007
 50
240.0000000000255
 51
299.9999999999766
  0
ARC
  5
6DCF
  8
0
 10
34.65699999996832
 20
3.183099999991214
 30
0.0
 40
1.97999999999999
 50
240.000000000026
 51
299.9999999999703
  0
LINE
  5
6DD0
  8
0
 10
33.08199999996828
 20
8.763099999991255
 30
0.0
 11
31.64199999996833
 21
8.763099999991255
 31
0.0
  0
ARC
  5
6DD1
  8
0
 10
35.06199999996829
 20
2.481619422925064
 30
0.0
 40
1.17
 50
299.9999999999699
 51
0.0
  0
ARC
  5
6DD2
  8
0
 10
34.25199999996835
 20
2.481619422925121
 30
0.0
 40
1.17
 50
180.0
 51
240.0000000000238
  0
ARC
  5
6DD3
  8
0
 10
35.06199999996841
 20
2.481619422925121
 30
0.0
 40
2.61
 50
299.9999999999756
 51
0.0
  0
ARC
  5
6DD4
  8
0
 10
34.25199999996835
 20
2.481619422925121
 30
0.0
 40
2.61
 50
180.0
 51
240.0000000000244
  0
LINE
  5
6DD5
  8
0
 10
29.30199999996933
 20
8.763099999991255
 30
0.0
 11
30.74199999996927
 21
8.763099999991255
 31
0.0
1001
ACAD
1000
ASC_BOUNDS
1002
{
1070
    19
1005
6DDE
1002
}
  0
LINE
  5
6DD6
  8
0
 10
30.74199999996927
 20
8.763099999991255
 30
0.0
 11
30.74199999996927
 21
2.373099999991211
 31
0.0
1001
ACAD
1000
ASC_BOUNDS
1002
{
1070
    19
1005
6DDE
1002
}
  0
LINE
  5
6DD7
  8
0
 10
26.02015566812236
 20
0.0330999999912365
 30
0.0
 11
28.40199999996923
 21
0.0330999999912365
 31
0.0
1001
ACAD
1000
ASC_BOUNDS
1002
{
1070
    19
1005
6DDE
1002
}
  0
LINE
  5
6DD8
  8
0
 10
29.30199999996933
 20
8.763099999991255
 30
0.0
 11
29.30199999996933
 21
2.283099999991236
 31
0.0
1001
ACAD
1000
ASC_BOUNDS
1002
{
1070
    19
1005
6DDE
1002
}
  0
LINE
  5
6DD9
  8
0
 10
26.97358892824991
 20
1.383099999991202
 30
0.0
 11
28.40199999996923
 21
1.383099999991202
 31
0.0
1001
ACAD
1000
ASC_BOUNDS
1002
{
1070
    19
1005
6DDE
1002
}
  0
ARC
  5
6DDA
  8
0
 10
28.40199999996923
 20
2.283099999991236
 30
0.0
 40
0.9
 50
270.0
 51
0.0
1001
ACAD
1000
ASC_BOUNDS
1002
{
1070
    19
1005
6DDE
1002
}
  0
ARC
  5
6DDB
  8
0
 10
28.40199999996923
 20
2.373099999991211
 30
0.0
 40
2.34
 50
270.0
 51
0.0
1001
ACAD
1000
ASC_BOUNDS
1002
{
1070
    19
1005
6DDE
1002
}
  0
INSERT
  5
6DDC
  8
0
  2
*X2098
 10
0.0
 20
0.0
 30
0.0
1001
ACAD
1000
HATCH
1002
{
1070
    19
1000
ANSI37
1040
0.15
1040
0.0
1000
ASC_BOUNDS
1070
     2
1070
     2
1070
    12
1005
6D9B
1005
6D9C
1005
6DA3
1005
6DB2
1005
6DB5
1005
6DB3
1005
6DA4
1005
6DA9
1005
6DA7
1005
6DAB
1005
6DAA
1005
6DAC
1070
     2
1070
     3
1005
6DB7
1005
6DB9
1005
6DB8
1000
ASC_SEEDPOINT
1011
3.614004224891801
1021
2.996669441146025
1031
0.0
1021
2.996669441146025
1031
0.0
1000
R14_HATCH_DATA
1000
6DDC
1011
1.0
1021
0.0
1031
0.0
1021
0.0
1031
0.0
1011
0.0
1021
1.0
1031
0.0
1021
1.0
1031
0.0
1011
0.0
1021
0.0
1031
1.0
1021
0.0
1031
1.0
1040
0.0
1010
0.0
1020
0.0
1030
1.0
1000
ANSI37
1070
     0
1070
     1
1071
        2
1071
        7
1070
     0
1070
     1
1071
       17
1040
13.26299999998673
1040
-0.0001000000000317
1040
9.236999999990758
1040
8.999899999990987
1040
9.236999999990758
1040
8.999999999991019
1040
5.657999999994331
1040
0.9999999999989768
1040
3.181999999996833
1040
4.668599999995308
1040
6.432999999993513
1040
8.763099999991255
1040
4.617999999995391
1040
8.763099999991255
1040
1.420999999998571
1040
4.736799999995242
1040
4.617999999995391
1040
-0.0001000000000317
1040
4.617999999995391
1040
0.0
1040
6.766999999993232
1040
0.0
1040
6.766999999993232
1040
-0.0001000000000317
1040
7.826999999992154
1040
2.368399999997621
1040
10.64699999998936
1040
2.368399999997621
1040
11.70599999998831
1040
-0.0001000000000317
1040
11.70599999998831
1040
0.0
1040
13.26299999998673
1040
0.0
1071
       12
1005
6D9B
1005
6D9C
1005
6DA3
1005
6DB2
1005
6DB5
1005
6DB3
1005
6DA4
1005
6DA9
1005
6DA7
1005
6DAB
1005
6DAA
1005
6DAC
1071
       22
1070
     0
1070
     1
1071
        3
1040
9.236999999990758
1040
5.5200999999945
1040
10.06399999998996
1040
3.670999999996297
1040
8.409999999991555
1040
3.670999999996297
1071
        3
1005
6DB7
1005
6DB9
1005
6DB8
1070
     0
1070
     1
1040
0.0
1040
0.15
1070
     0
1070
     2
1040
0.7853981633974483
1040
49.29960901727088
1040
-10.17736998311392
1040
-0.3367596045400932
1040
0.3367596045400932
1070
     0
1040
2.356194490192345
1040
49.29960901727088
1040
-10.17736998311392
1040
-0.3367596045400932
1040
-0.3367596045400932
1070
     0
1040
0.0110235143455945
1071
        2
1040
3.614004224891801
1040
2.996669441146025
1040
0.0
1040
3.614004224891801
1040
2.996669441146025
1040
0.0
1002
}
  0
INSERT
  5
6DDD
  8
0
  2
*X2099
 10
0.0
 20
0.0
 30
0.0
1001
ACAD
1000
HATCH
1002
{
1070
    19
1000
ANSI37
1040
0.15
1040
0.0
1000
ASC_BOUNDS
1070
     1
1070
     2
1070
    10
1005
6D9D
1005
6D9E
1005
6DBF
1005
6DBD
1005
6DBE
1005
6DB1
1005
6DB6
1005
6DBA
1005
6DA0
1005
6D9F
1000
ASC_SEEDPOINT
1011
14.73245321214324
1021
2.798246178283421
1031
0.0
1021
2.798246178283421
1031
0.0
1000
R14_HATCH_DATA
1000
6DDD
1011
1.0
1021
0.0
1031
0.0
1021
0.0
1031
0.0
1011
0.0
1021
1.0
1031
0.0
1021
1.0
1031
0.0
1011
0.0
1021
0.0
1031
1.0
1021
0.0
1031
1.0
1040
0.0
1010
0.0
1020
0.0
1030
1.0
1000
ANSI37
1070
     0
1070
     1
1071
        1
1071
        7
1070
     0
1070
     1
1071
       10
1040
16.46099999998353
1040
5.432899999994561
1040
18.59199999998134
1040
-0.2368999999997641
1040
22.38199999997767
1040
8.763099999991255
1040
20.89099999997916
1040
8.763099999991255
1040
18.59799999998143
1040
3.315799999996671
1040
16.46099999998353
1040
8.999899999990987
1040
14.32399999998563
1040
3.315799999996671
1040
12.02999999998792
1040
8.763099999991255
1040
10.53899999998941
1040
8.763099999991255
1040
14.32899999998563
1040
-0.2368999999997641
1071
       10
1005
6D9D
1005
6D9E
1005
6DBF
1005
6DBD
1005
6DBE
1005
6DB1
1005
6DB6
1005
6DBA
1005
6DA0
1005
6D9F
1070
     0
1070
     1
1040
0.0
1040
0.15
1070
     0
1070
     2
1040
0.7853981633974483
1040
49.29960901727088
1040
-10.17736998311392
1040
-0.3367596045400932
1040
0.3367596045400932
1070
     0
1040
2.356194490192345
1040
49.29960901727088
1040
-10.17736998311392
1040
-0.3367596045400932
1040
-0.3367596045400932
1070
     0
1040
0.0110235143455945
1071
        1
1040
14.73245321214324
1040
2.798246178283421
1040
0.0
1002
}
  0
INSERT
  5
6DDE
  8
0
  2
*X2100
 10
0.0
 20
0.0
 30
0.0
1001
ACAD
1000
HATCH
1002
{
1070
    19
1000
ANSI37
1040
0.15
1040
0.0
1000
ASC_BOUNDS
1070
     2
1070
     2
1070
    13
1005
6DA1
1005
6DAE
1005
6DAF
1005
6DAD
1005
6DB0
1005
6DD7
1005
6DDB
1005
6DD6
1005
6DD5
1005
6DD8
1005
6DDA
1005
6DD9
1005
6DA2
1070
     2
1070
     3
1005
6DBB
1005
6DC0
1005
6DBC
1000
ASC_SEEDPOINT
1011
21.97929957367762
1021
3.294304244259308
1031
0.0
1021
3.294304244259308
1031
0.0
1000
R14_HATCH_DATA
1000
6DDE
1011
1.0
1021
0.0
1031
0.0
1021
0.0
1031
0.0
1011
0.0
1021
1.0
1031
0.0
1021
1.0
1031
0.0
1011
0.0
1021
0.0
1031
1.0
1021
0.0
1031
1.0
1040
0.0
1010
0.0
1020
0.0
1030
1.0
1000
ANSI37
1070
     0
1070
     1
1071
        2
1071
        7
1070
     1
1070
     1
1071
       15
1040
23.56599999997638
1040
8.999899999990987
1040
0.0
1040
19.53899999998043
1040
-0.0001000000000317
1040
0.0
1040
19.53899999998043
1040
0.0
1040
0.0
1040
21.09599999997886
1040
0.0
1040
0.0
1040
21.09599999997886
1040
-0.0001000000000317
1040
0.0
1040
22.15599999997789
1040
2.368399999997621
1040
0.0
1040
24.97599999997499
1040
2.368399999997621
1040
0.0
1040
26.02015566812236
1040
0.0330999999912365
1040
0.0
1040
28.40199999996923
1040
0.0330999999912365
1040
0.414213562373095
1040
30.74199999996923
1040
2.373099999991211
1040
0.0
1040
30.74199999996927
1040
8.763099999991255
1040
0.0
1040
29.30199999996933
1040
8.763099999991255
1040
0.0
1040
29.30199999996933
1040
2.283099999991236
1040
-0.414213562373095
1040
28.40199999996923
1040
1.383099999991237
1040
0.0
1040
26.97358892824991
1040
1.383099999991202
1040
0.0
1071
       13
1005
6DA1
1005
6DAE
1005
6DAF
1005
6DAD
1005
6DB0
1005
6DD7
1005
6DDB
1005
6DD6
1005
6DD5
1005
6DD8
1005
6DDA
1005
6DD9
1005
6DA2
1071
       22
1070
     0
1070
     1
1071
        3
1040
22.7389999999773
1040
3.670999999996297
1040
23.56599999997638
1040
5.5200999999945
1040
24.39299999997559
1040
3.670999999996297
1071
        3
1005
6DBB
1005
6DC0
1005
6DBC
1070
     0
1070
     1
1040
0.0
1040
0.15
1070
     0
1070
     2
1040
0.7853981633974483
1040
49.29960901727088
1040
-10.17736998311392
1040
-0.3367596045400932
1040
0.3367596045400932
1070
     0
1040
2.356194490192345
1040
49.29960901727088
1040
-10.17736998311392
1040
-0.3367596045400932
1040
-0.3367596045400932
1070
     0
1040
0.0110235143455945
1071
        2
1040
21.97929957367762
1040
3.294304244259308
1040
0.0
1040
21.97929957367762
1040
3.294304244259308
1040
0.0
1002
}
  0
INSERT
  5
6DDF
  8
0
  2
*X2101
 10
0.0
 20
0.0
 30
0.0
1001
ACAD
1000
HATCH
1002
{
1070
    19
1000
ANSI37
1040
0.15
1040
0.0
1000
R14_HATCH_DATA
1000
6DDF
1011
1.0
1021
0.0
1031
0.0
1021
0.0
1031
0.0
1011
0.0
1021
1.0
1031
0.0
1021
1.0
1031
0.0
1011
0.0
1021
0.0
1031
1.0
1021
0.0
1031
1.0
1040
0.0
1010
0.0
1020
0.0
1030
1.0
1000
ANSI37
1070
     0
1070
     1
1071
        1
1071
        7
1070
     1
1070
     1
1071
       12
1040
31.64199999996833
1040
2.481619422925121
1040
0.2679491924310942
1040
32.94699999997067
1040
0.2212931190493919
1040
0.2679491924301353
1040
36.36699999995983
1040
0.2212931190459813
1040
0.2679491924321411
1040
37.67199999996831
1040
2.481619422928361
1040
0.0
1040
37.67199999996831
1040
8.763099999991255
1040
0.0
1040
36.23199999996837
1040
8.763099999991255
1040
0.0
1040
36.23199999996837
1040
2.481619422925064
1040
-0.2679491924310291
1040
35.64699999996708
1040
1.468369700498386
1040
-0.267949192430519
1040
33.66699999997093
1040
1.468369700497703
1040
-0.267949192431809
1040
33.08199999996839
1040
2.481619422926997
1040
0.0
1040
33.08199999996839
1040
8.763099999991255
1040
0.0
1040
31.64199999996833
1040
8.763099999991255
1040
0.0
1071
        0
1070
     0
1070
     1
1040
0.0
1040
0.15
1070
     0
1070
     2
1040
0.7853981633974483
1040
49.29960901727088
1040
-10.17736998311392
1040
-0.3367596045400932
1040
0.3367596045400932
1070
     0
1040
2.356194490192345
1040
49.29960901727088
1040
-10.17736998311392
1040
-0.3367596045400932
1040
-0.3367596045400932
1070
     0
1040
0.0110235143455945
1071
        1
1040
32.30357378967278
1040
3.988785755459219
1040
0.0
1002
}
  0
INSERT
  5
6DE0
  8
0
  2
*X2102
 10
0.0
 20
0.0
 30
0.0
1001
ACAD
1000
HATCH
1002
{
1070
    19
1000
ANSI37
1040
0.15
1040
0.0
1000
ASC_BOUNDS
1070
     1
1070
     2
1070
     8
1005
6DC1
1005
6DC4
1005
6DC8
1005
6DC7
1005
6DC6
1005
6DC3
1005
6DC5
1005
6DC2
1000
ASC_SEEDPOINT
1011
39.74896370716704
1021
4.484843821435049
1031
0.0
1021
4.484843821435049
1031
0.0
1000
R14_HATCH_DATA
1000
6DE0
1011
1.0
1021
0.0
1031
0.0
1021
0.0
1031
0.0
1011
0.0
1021
1.0
1031
0.0
1021
1.0
1031
0.0
1011
0.0
1021
0.0
1031
1.0
1021
0.0
1031
1.0
1040
0.0
1010
0.0
1020
0.0
1030
1.0
1000
ANSI37
1070
     0
1070
     1
1071
        1
1071
        7
1070
     0
1070
     1
1071
        9
1040
40.02599999995994
1040
5.341799999994635
1040
44.99999999995498
1040
-0.2368999999997641
1040
44.99999999995498
1040
8.763099999991255
1040
43.57899999995641
1040
8.763099999991255
1040
43.57899999995641
1040
3.421199999996588
1040
38.60499999996136
1040
8.999899999990987
1040
38.60499999996136
1040
8.999999999991019
1040
38.60499999996136
1040
0.0
1040
40.02599999995994
1040
0.0
1071
        8
1005
6DC1
1005
6DC4
1005
6DC8
1005
6DC7
1005
6DC6
1005
6DC3
1005
6DC5
1005
6DC2
1070
     0
1070
     1
1040
0.0
1040
0.15
1070
     0
1070
     2
1040
0.7853981633974483
1040
49.29960901727088
1040
-10.17736998311392
1040
-0.3367596045400932
1040
0.3367596045400932
1070
     0
1040
2.356194490192345
1040
49.29960901727088
1040
-10.17736998311392
1040
-0.3367596045400932
1040
-0.3367596045400932
1070
     0
1040
0.0110235143455945
1071
        1
1040
39.74896370716704
1040
4.484843821435049
1040
0.0
1002
}
  0
INSERT
  5
6DE1
  8
0
  2
*X2103
 10
0.0
 20
0.0
 30
0.0
1001
ACAD
1000
HATCH
1002
{
1070
    19
1000
ANSI37
1040
0.15
1040
0.0
1000
ASC_BOUNDS
1070
     1
1070
     2
1070
     4
1005
6DA5
1005
6DB4
1005
6DA6
1005
6DA8
1000
ASC_SEEDPOINT
1011
1.079051535452663
1021
4.148538732891836
1031
0.0
1021
4.148538732891836
1031
0.0
1000
R14_HATCH_DATA
1000
6DE1
1011
1.0
1021
0.0
1031
0.0
1021
0.0
1031
0.0
1011
0.0
1021
1.0
1031
0.0
1021
1.0
1031
0.0
1011
0.0
1021
0.0
1031
1.0
1021
0.0
1031
1.0
1040
0.0
1010
0.0
1020
0.0
1030
1.0
1000
ANSI37
1070
     0
1070
     1
1071
        1
1071
        7
1070
     0
1070
     1
1071
        4
1040
1.420999999998571
1040
0.0
1040
1.420999999998571
1040
8.763099999991255
1040
0.0
1040
8.763099999991255
1040
0.0
1040
0.0
1071
        4
1005
6DA5
1005
6DB4
1005
6DA6
1005
6DA8
1070
     0
1070
     1
1040
0.0
1040
0.15
1070
     0
1070
     2
1040
0.7853981633974483
1040
49.29960901727088
1040
-10.17736998311392
1040
-0.3367596045400932
1040
0.3367596045400932
1070
     0
1040
2.356194490192345
1040
49.29960901727088
1040
-10.17736998311392
1040
-0.3367596045400932
1040
-0.3367596045400932
1070
     0
1040
0.0053004257112761
1071
        1
1040
1.079051535452663
1040
4.148538732891836
1040
0.0
1002
}
  0
ENDBLK
  5
FB1D
  8
0
  0
BLOCK
  8
0
  2
*X2098
 70
     1
 10
0.0
 20
0.0
 30
0.0
  3
*X2098
  1

  0
LINE
  5
1DBEE
  8
0
  6
CONTINUOUS
 10
3.418023043697893
 20
7.251849696850613
 30
0.0
 11
4.929273346838536
 21
8.763099999991255
 31
0.0
  0
LINE
  5
1DBEF
  8
0
  6
CONTINUOUS
 10
1.483656411257782
 20
4.643963855330318
 30
0.0
 11
5.60279255591872
 21
8.763099999991255
 31
0.0
  0
LINE
  5
1DBF0
  8
0
  6
CONTINUOUS
 10
1.755053947328235
 20
4.241842182320584
 30
0.0
 11
6.276311764998907
 21
8.763099999991255
 31
0.0
  0
LINE
  5
1DBF1
  8
0
  6
CONTINUOUS
 10
2.026451483398688
 20
3.839720509310849
 30
0.0
 11
4.441040904851878
 21
6.254309930764039
 31
0.0
  0
LINE
  5
1DBF2
  8
0
  6
CONTINUOUS
 10
2.297849019469139
 20
3.437598836301114
 30
0.0
 11
3.321765168359338
 21
4.461514985191313
 31
0.0
  0
LINE
  5
1DBF3
  8
0
  6
CONTINUOUS
 10
2.569246555539591
 20
3.03547716329138
 30
0.0
 11
3.593163397972743
 21
4.059394005724531
 31
0.0
  0
LINE
  5
1DBF4
  8
0
  6
CONTINUOUS
 10
2.840644091610043
 20
2.633355490281646
 30
0.0
 11
3.864561627586149
 21
3.657273026257751
 31
0.0
  0
LINE
  5
1DBF5
  8
0
  6
CONTINUOUS
 10
3.112041627680496
 20
2.231233817271911
 30
0.0
 11
4.135959857199554
 21
3.25515204679097
 31
0.0
  0
LINE
  5
1DBF6
  8
0
  6
CONTINUOUS
 10
3.383439163750948
 20
1.829112144262177
 30
0.0
 11
4.40735808681296
 21
2.853031067324189
 31
0.0
  0
LINE
  5
1DBF7
  8
0
  6
CONTINUOUS
 10
3.654836699821399
 20
1.426990471252442
 30
0.0
 11
4.678756316426365
 21
2.450910087857407
 31
0.0
  0
LINE
  5
1DBF8
  8
0
  6
CONTINUOUS
 10
3.926234235891853
 20
1.024868798242709
 30
0.0
 11
4.95015454603977
 21
2.048789108390626
 31
0.0
  0
LINE
  5
1DBF9
  8
0
  6
CONTINUOUS
 10
4.197631771962304
 20
0.6227471252329737
 30
0.0
 11
5.221552775653176
 21
1.646668128923846
 31
0.0
  0
LINE
  5
1DBFA
  8
0
  6
CONTINUOUS
 10
8.715877546767851
 20
7.835069736359266
 30
0.0
 11
9.435953450375058
 21
8.555145639966472
 31
0.0
  0
LINE
  5
1DBFB
  8
0
  6
CONTINUOUS
 10
8.170620868422267
 20
6.616293848933497
 30
0.0
 11
9.644120833743461
 21
8.08979381425469
 31
0.0
  0
LINE
  5
1DBFC
  8
0
  6
CONTINUOUS
 10
7.625364190076684
 20
5.397517961507727
 30
0.0
 11
9.852288217111864
 21
7.624441988542907
 31
0.0
  0
LINE
  5
1DBFD
  8
0
  6
CONTINUOUS
 10
7.080107511731101
 20
4.178742074081957
 30
0.0
 11
10.06045560048027
 21
7.159090162831124
 31
0.0
  0
LINE
  5
1DBFE
  8
0
  6
CONTINUOUS
 10
6.534850833385518
 20
2.959966186656187
 30
0.0
 11
10.26862298384867
 21
6.693738337119342
 31
0.0
  0
LINE
  5
1DBFF
  8
0
  6
CONTINUOUS
 10
4.469029308032756
 20
0.2206254522232385
 30
0.0
 11
5.492951005266582
 21
1.244547149457064
 31
0.0
  0
LINE
  5
1DC00
  8
0
  6
CONTINUOUS
 10
5.989594155039935
 20
1.741190299230417
 30
0.0
 11
8.806950407233131
 21
4.558546551423613
 31
0.0
  0
LINE
  5
1DC01
  8
0
  6
CONTINUOUS
 10
9.401251593263643
 20
5.152847737454126
 30
0.0
 11
10.47679036721708
 21
6.228386511407559
 31
0.0
  0
LINE
  5
1DC02
  8
0
  6
CONTINUOUS
 10
4.921837203428691
 20
-0.0000858614610131
 30
0.0
 11
8.592923064886001
 21
3.670999999996297
 31
0.0
  0
LINE
  5
1DC03
  8
0
  6
CONTINUOUS
 10
9.609390446785305
 20
4.6874673818956
 30
0.0
 11
10.68495775058548
 21
5.763034685695775
 31
0.0
  0
LINE
  5
1DC04
  8
0
  6
CONTINUOUS
 10
5.595387755019432
 20
-0.0000545189504582
 30
0.0
 11
7.716137258923768
 21
2.120694984953879
 31
0.0
  0
LINE
  5
1DC05
  8
0
  6
CONTINUOUS
 10
6.268938306610172
 20
-0.000023176439905
 30
0.0
 11
7.170485805526503
 21
0.9015243224764267
 31
0.0
  0
LINE
  5
1DC06
  8
0
  6
CONTINUOUS
 10
7.963842273967511
 20
2.368399999997621
 30
0.0
 11
9.266442273966188
 21
3.670999999996297
 31
0.0
  0
LINE
  5
1DC07
  8
0
  6
CONTINUOUS
 10
8.637361483047696
 20
2.368399999997621
 30
0.0
 11
9.939961483046375
 21
3.670999999996297
 31
0.0
  0
LINE
  5
1DC08
  8
0
  6
CONTINUOUS
 10
9.817529300306965
 20
4.222087026337075
 30
0.0
 11
10.89312513395388
 21
5.297682859983993
 31
0.0
  0
LINE
  5
1DC09
  8
0
  6
CONTINUOUS
 10
10.02566815382863
 20
3.756706670778549
 30
0.0
 11
11.10129251732229
 21
4.832331034272211
 31
0.0
  0
LINE
  5
1DC0A
  8
0
  6
CONTINUOUS
 10
9.310880692127883
 20
2.368399999997621
 30
0.0
 11
11.30945990069069
 21
4.366979208560428
 31
0.0
  0
LINE
  5
1DC0B
  8
0
  6
CONTINUOUS
 10
9.98439990120807
 20
2.36839999999762
 30
0.0
 11
11.5176272840591
 21
3.901627382848645
 31
0.0
  0
LINE
  5
1DC0C
  8
0
  6
CONTINUOUS
 10
10.65037369446246
 20
2.36085458417182
 30
0.0
 11
11.7257946674275
 21
3.436275557136862
 31
0.0
  0
LINE
  5
1DC0D
  8
0
  6
CONTINUOUS
 10
10.85847197087848
 20
1.895433651507656
 30
0.0
 11
11.9339620507959
 21
2.97092373142508
 31
0.0
  0
LINE
  5
1DC0E
  8
0
  6
CONTINUOUS
 10
11.0665702472945
 20
1.430012718843491
 30
0.0
 11
12.14212943416431
 21
2.505571905713296
 31
0.0
  0
LINE
  5
1DC0F
  8
0
  6
CONTINUOUS
 10
11.27466852371052
 20
0.9645917861793256
 30
0.0
 11
12.35029681753271
 21
2.040220080001513
 31
0.0
  0
LINE
  5
1DC10
  8
0
  6
CONTINUOUS
 10
11.48276680012654
 20
0.4991708535151611
 30
0.0
 11
12.55846420090111
 21
1.57486825428973
 31
0.0
  0
LINE
  5
1DC11
  8
0
  6
CONTINUOUS
 10
11.69086507654257
 20
0.0337499208509957
 30
0.0
 11
12.76663158426952
 21
1.109516428577947
 31
0.0
  0
LINE
  5
1DC12
  8
0
  6
CONTINUOUS
 10
12.33057447873954
 20
-0.0000598860322123
 30
0.0
 11
12.97479896763792
 21
0.6441646028661663
 31
0.0
  0
LINE
  5
1DC13
  8
0
  6
CONTINUOUS
 10
13.00413694809395
 20
-0.0000166257579952
 30
0.0
 11
13.18296635100632
 21
0.1788127771543824
 31
0.0
  0
LINE
  5
1DC14
  8
0
  6
CONTINUOUS
 10
4.772852165289667
 20
-0.000092794222212
 30
0.0
 11
4.296495091028902
 21
0.4762642800385528
 31
0.0
  0
LINE
  5
1DC15
  8
0
  6
CONTINUOUS
 10
5.446340034776103
 20
-0.0000614546284616
 30
0.0
 11
2.898195908335625
 21
2.548082671812017
 31
0.0
  0
LINE
  5
1DC16
  8
0
  6
CONTINUOUS
 10
6.119827904262539
 20
-0.0000301150347113
 30
0.0
 11
1.499896725642348
 21
4.61990106358548
 31
0.0
  0
LINE
  5
1DC17
  8
0
  6
CONTINUOUS
 10
6.775136745476159
 20
0.0181802528318542
 30
0.0
 11
5.699826040202669
 21
1.093490958105344
 31
0.0
  0
LINE
  5
1DC18
  8
0
  6
CONTINUOUS
 10
6.983376846288489
 20
0.4834593610997118
 30
0.0
 11
5.908008617934405
 21
1.558827589453796
 31
0.0
  0
LINE
  5
1DC19
  8
0
  6
CONTINUOUS
 10
5.377063484962296
 20
1.416253513345719
 30
0.0
 11
1.702276957014131
 21
5.091040041293883
 31
0.0
  0
LINE
  5
1DC1A
  8
0
  6
CONTINUOUS
 10
3.978745891735324
 20
3.488090315652877
 30
0.0
 11
2.000373521109399
 21
5.466462686278803
 31
0.0
  0
LINE
  5
1DC1B
  8
0
  6
CONTINUOUS
 10
7.191616947100819
 20
0.948738469367568
 30
0.0
 11
6.11619119566614
 21
2.024164220802247
 31
0.0
  0
LINE
  5
1DC1C
  8
0
  6
CONTINUOUS
 10
7.399857047913149
 20
1.414017577635424
 30
0.0
 11
6.324373773397875
 21
2.489500852150698
 31
0.0
  0
LINE
  5
1DC1D
  8
0
  6
CONTINUOUS
 10
7.608097148725479
 20
1.879296685903281
 30
0.0
 11
6.53255635112961
 21
2.95483748349915
 31
0.0
  0
LINE
  5
1DC1E
  8
0
  6
CONTINUOUS
 10
7.816337249537808
 20
2.344575794171138
 30
0.0
 11
6.740738928861345
 21
3.420174114847601
 31
0.0
  0
LINE
  5
1DC1F
  8
0
  6
CONTINUOUS
 10
3.310241080789734
 20
4.830114335678653
 30
0.0
 11
2.298470085204666
 21
5.84188533126372
 31
0.0
  0
LINE
  5
1DC20
  8
0
  6
CONTINUOUS
 10
3.60832983563551
 20
5.205544789913063
 30
0.0
 11
2.596566649299935
 21
6.217307976248638
 31
0.0
  0
LINE
  5
1DC21
  8
0
  6
CONTINUOUS
 10
3.906418590481286
 20
5.580975244147473
 30
0.0
 11
2.894663213395203
 21
6.592730621233557
 31
0.0
  0
LINE
  5
1DC22
  8
0
  6
CONTINUOUS
 10
4.204507345327062
 20
5.956405698381884
 30
0.0
 11
3.192759777490472
 21
6.968153266218474
 31
0.0
  0
LINE
  5
1DC23
  8
0
  6
CONTINUOUS
 10
8.466032252791512
 20
2.368399999997621
 30
0.0
 11
6.948921506593081
 21
3.885510746196053
 31
0.0
  0
LINE
  5
1DC24
  8
0
  6
CONTINUOUS
 10
9.139551461871699
 20
2.36839999999762
 30
0.0
 11
7.157104084324816
 21
4.350847377544504
 31
0.0
  0
LINE
  5
1DC25
  8
0
  6
CONTINUOUS
 10
4.502596100172839
 20
6.331836152616295
 30
0.0
 11
3.49085634158574
 21
7.343575911203393
 31
0.0
  0
LINE
  5
1DC26
  8
0
  6
CONTINUOUS
 10
4.800684855018615
 20
6.707266606850705
 30
0.0
 11
3.788952905681008
 21
7.718998556188312
 31
0.0
  0
LINE
  5
1DC27
  8
0
  6
CONTINUOUS
 10
12.18154012887317
 20
-0.0000694579236642
 30
0.0
 11
11.32140332908496
 21
0.8600673418645499
 31
0.0
  0
LINE
  5
1DC28
  8
0
  6
CONTINUOUS
 10
12.85501608323566
 20
-0.0000262032059659
 30
0.0
 11
10.77672456435345
 21
2.078265315676246
 31
0.0
  0
LINE
  5
1DC29
  8
0
  6
CONTINUOUS
 10
9.813070670951886
 20
2.36839999999762
 30
0.0
 11
8.51047067095321
 21
3.670999999996297
 31
0.0
  0
LINE
  5
1DC2A
  8
0
  6
CONTINUOUS
 10
10.48658988003207
 20
2.36839999999762
 30
0.0
 11
9.183989880033396
 21
3.670999999996297
 31
0.0
  0
LINE
  5
1DC2B
  8
0
  6
CONTINUOUS
 10
8.441048632286794
 20
3.740422038662712
 30
0.0
 11
7.365286662056551
 21
4.816184008892956
 31
0.0
  0
LINE
  5
1DC2C
  8
0
  6
CONTINUOUS
 10
8.649187485808454
 20
4.205802394221237
 30
0.0
 11
7.573469239788285
 21
5.281520640241407
 31
0.0
  0
LINE
  5
1DC2D
  8
0
  6
CONTINUOUS
 10
5.098773609864391
 20
7.082697061085115
 30
0.0
 11
4.087049469776277
 21
8.09442120117323
 31
0.0
  0
LINE
  5
1DC2E
  8
0
  6
CONTINUOUS
 10
5.396862364710167
 20
7.458127515319526
 30
0.0
 11
4.385146033871544
 21
8.469843846158149
 31
0.0
  0
LINE
  5
1DC2F
  8
0
  6
CONTINUOUS
 10
13.04801363231285
 20
0.4804954567970334
 30
0.0
 11
9.85750908911358
 21
3.670999999996297
 31
0.0
  0
LINE
  5
1DC30
  8
0
  6
CONTINUOUS
 10
8.857326339330116
 20
4.671182749779763
 30
0.0
 11
7.781651817520021
 21
5.746857271589858
 31
0.0
  0
LINE
  5
1DC31
  8
0
  6
CONTINUOUS
 10
5.694951119555943
 20
7.833557969553937
 30
0.0
 11
4.765409089118624
 21
8.763099999991255
 31
0.0
  0
LINE
  5
1DC32
  8
0
  6
CONTINUOUS
 10
12.50286117236978
 20
1.699167125820288
 30
0.0
 11
9.68611877250287
 21
4.515909525687196
 31
0.0
  0
LINE
  5
1DC33
  8
0
  6
CONTINUOUS
 10
9.065465192851777
 20
5.136563105338288
 30
0.0
 11
7.989834395251757
 21
6.21219390293831
 31
0.0
  0
LINE
  5
1DC34
  8
0
  6
CONTINUOUS
 10
5.993039874401719
 20
8.208988423788346
 30
0.0
 11
5.43892829819881
 21
8.763099999991255
 31
0.0
  0
LINE
  5
1DC35
  8
0
  6
CONTINUOUS
 10
11.95770871242671
 20
2.917838794843543
 30
0.0
 11
8.19801697298349
 21
6.677530534286761
 31
0.0
  0
LINE
  5
1DC36
  8
0
  6
CONTINUOUS
 10
6.291128629247495
 20
8.584418878022756
 30
0.0
 11
6.112447507278997
 21
8.763099999991255
 31
0.0
  0
LINE
  5
1DC37
  8
0
  6
CONTINUOUS
 10
11.41255625248364
 20
4.136510463866797
 30
0.0
 11
8.406199550715227
 21
7.142867165635211
 31
0.0
  0
LINE
  5
1DC38
  8
0
  6
CONTINUOUS
 10
10.86740379254057
 20
5.355182132890051
 30
0.0
 11
8.614382128446962
 21
7.608203796983664
 31
0.0
  0
LINE
  5
1DC39
  8
0
  6
CONTINUOUS
 10
10.3222513325975
 20
6.573853801913305
 30
0.0
 11
8.822564706178696
 21
8.073540428332114
 31
0.0
  0
LINE
  5
1DC3A
  8
0
  6
CONTINUOUS
 10
9.777098872654436
 20
7.792525470936562
 30
0.0
 11
9.030747283910433
 21
8.538877059680566
 31
0.0
  0
ENDBLK
  5
1DD7C
  8
0
  0
BLOCK
  8
0
  2
*X2099
 70
     1
 10
0.0
 20
0.0
 30
0.0
  3
*X2099
  1

  0
LINE
  5
1DC3C
  8
0
  6
CONTINUOUS
 10
10.67292308101235
 20
8.445076852443387
 30
0.0
 11
10.99094622856022
 21
8.763099999991255
 31
0.0
  0
LINE
  5
1DC3D
  8
0
  6
CONTINUOUS
 10
10.87250383178748
 20
7.971138394138331
 30
0.0
 11
11.6644654376404
 21
8.763099999991255
 31
0.0
  0
LINE
  5
1DC3E
  8
0
  6
CONTINUOUS
 10
11.07208458256261
 20
7.497199935833273
 30
0.0
 11
12.12126590876355
 21
8.546381262034211
 31
0.0
  0
LINE
  5
1DC3F
  8
0
  6
CONTINUOUS
 10
11.27166533333774
 20
7.023261477528216
 30
0.0
 11
12.32085164573666
 21
8.072447789927136
 31
0.0
  0
LINE
  5
1DC40
  8
0
  6
CONTINUOUS
 10
11.47124608411287
 20
6.549323019223158
 30
0.0
 11
12.52043738270977
 21
7.59851431782006
 31
0.0
  0
LINE
  5
1DC41
  8
0
  6
CONTINUOUS
 10
11.670826834888
 20
6.075384560918101
 30
0.0
 11
12.72002311968288
 21
7.124580845712984
 31
0.0
  0
LINE
  5
1DC42
  8
0
  6
CONTINUOUS
 10
11.87040758566313
 20
5.601446102613043
 30
0.0
 11
12.91960885665599
 21
6.650647373605907
 31
0.0
  0
LINE
  5
1DC43
  8
0
  6
CONTINUOUS
 10
12.06998833643825
 20
5.127507644307986
 30
0.0
 11
13.1191945936291
 21
6.176713901498832
 31
0.0
  0
LINE
  5
1DC44
  8
0
  6
CONTINUOUS
 10
12.26956908721338
 20
4.65356918600293
 30
0.0
 11
13.31878033060221
 21
5.702780429391757
 31
0.0
  0
LINE
  5
1DC45
  8
0
  6
CONTINUOUS
 10
12.46914983798851
 20
4.179630727697873
 30
0.0
 11
13.51836606757532
 21
5.228846957284683
 31
0.0
  0
LINE
  5
1DC46
  8
0
  6
CONTINUOUS
 10
12.66873058876364
 20
3.705692269392816
 30
0.0
 11
13.71795180454843
 21
4.754913485177607
 31
0.0
  0
LINE
  5
1DC47
  8
0
  6
CONTINUOUS
 10
12.86831133953877
 20
3.231753811087759
 30
0.0
 11
13.91753754152154
 21
4.280980013070531
 31
0.0
  0
LINE
  5
1DC48
  8
0
  6
CONTINUOUS
 10
13.0678920903139
 20
2.757815352782702
 30
0.0
 11
14.11712327849465
 21
3.807046540963456
 31
0.0
  0
LINE
  5
1DC49
  8
0
  6
CONTINUOUS
 10
13.26747284108903
 20
2.283876894477644
 30
0.0
 11
14.31670901546777
 21
3.333113068856379
 31
0.0
  0
LINE
  5
1DC4A
  8
0
  6
CONTINUOUS
 10
16.36767838827179
 20
8.751678487061342
 30
0.0
 11
16.50332410898388
 21
8.887324207773432
 31
0.0
  0
LINE
  5
1DC4B
  8
0
  6
CONTINUOUS
 10
15.96190732182191
 20
7.67238821153127
 30
0.0
 11
16.68735328004734
 21
8.397834169756699
 31
0.0
  0
LINE
  5
1DC4C
  8
0
  6
CONTINUOUS
 10
15.55613625537202
 20
6.593097936001196
 30
0.0
 11
16.87138245111079
 21
7.908344131739965
 31
0.0
  0
LINE
  5
1DC4D
  8
0
  6
CONTINUOUS
 10
15.15036518892213
 20
5.513807660471122
 30
0.0
 11
17.05541162217424
 21
7.418854093723231
 31
0.0
  0
LINE
  5
1DC4E
  8
0
  6
CONTINUOUS
 10
14.74459412247225
 20
4.434517384941048
 30
0.0
 11
17.2394407932377
 21
6.929364055706499
 31
0.0
  0
LINE
  5
1DC4F
  8
0
  6
CONTINUOUS
 10
14.33882305602236
 20
3.355227109410975
 30
0.0
 11
17.42346996430115
 21
6.439874017689766
 31
0.0
  0
LINE
  5
1DC50
  8
0
  6
CONTINUOUS
 10
13.46705359186416
 20
1.809938436172586
 30
0.0
 11
16.0819338255367
 21
4.424818669845129
 31
0.0
  0
LINE
  5
1DC51
  8
0
  6
CONTINUOUS
 10
16.63283254238972
 20
4.975717386698149
 30
0.0
 11
17.60749913536461
 21
5.950383979673033
 31
0.0
  0
LINE
  5
1DC52
  8
0
  6
CONTINUOUS
 10
13.66663434263929
 20
1.335999977867529
 30
0.0
 11
15.67604797733754
 21
3.345413612565779
 31
0.0
  0
LINE
  5
1DC53
  8
0
  6
CONTINUOUS
 10
13.86621509341442
 20
0.8620615195624723
 30
0.0
 11
15.27016212913838
 21
2.26600855528643
 31
0.0
  0
LINE
  5
1DC54
  8
0
  6
CONTINUOUS
 10
16.81682257348267
 20
4.486188208710908
 30
0.0
 11
17.79152830642806
 21
5.460893941656299
 31
0.0
  0
LINE
  5
1DC55
  8
0
  6
CONTINUOUS
 10
17.00081260457561
 20
3.996659030723667
 30
0.0
 11
17.97555747749151
 21
4.971403903639565
 31
0.0
  0
LINE
  5
1DC56
  8
0
  6
CONTINUOUS
 10
20.74362343514722
 20
8.412989070375462
 30
0.0
 11
21.09373436476302
 21
8.763099999991256
 31
0.0
  0
LINE
  5
1DC57
  8
0
  6
CONTINUOUS
 10
20.25401257174777
 20
7.249858997895826
 30
0.0
 11
21.7672535738432
 21
8.763099999991255
 31
0.0
  0
LINE
  5
1DC58
  8
0
  6
CONTINUOUS
 10
14.06579584418955
 20
0.3881230612574149
 30
0.0
 11
14.86427628093921
 21
1.186603498007082
 31
0.0
  0
LINE
  5
1DC59
  8
0
  6
CONTINUOUS
 10
14.26537659496467
 20
-0.0858153970476412
 30
0.0
 11
14.45839043274005
 21
0.1071984407277329
 31
0.0
  0
LINE
  5
1DC5A
  8
0
  6
CONTINUOUS
 10
17.18480263566856
 20
3.507129852736426
 30
0.0
 11
18.15958664855496
 21
4.481913865622833
 31
0.0
  0
LINE
  5
1DC5B
  8
0
  6
CONTINUOUS
 10
17.3687926667615
 20
3.017600674749186
 30
0.0
 11
18.34361581961842
 21
3.9924238276061
 31
0.0
  0
LINE
  5
1DC5C
  8
0
  6
CONTINUOUS
 10
19.76440170834832
 20
6.086728925416191
 30
0.0
 11
22.33924590259489
 21
8.661573119662755
 31
0.0
  0
LINE
  5
1DC5D
  8
0
  6
CONTINUOUS
 10
19.27479084494887
 20
4.923598852936555
 30
0.0
 11
21.84929622842713
 21
7.498104236414807
 31
0.0
  0
LINE
  5
1DC5E
  8
0
  6
CONTINUOUS
 10
17.55278269785445
 20
2.528071496761945
 30
0.0
 11
18.52764499068187
 21
3.502933789589366
 31
0.0
  0
LINE
  5
1DC5F
  8
0
  6
CONTINUOUS
 10
18.78517998154942
 20
3.760468780456919
 30
0.0
 11
21.35934655425936
 21
6.33463535316686
 31
0.0
  0
LINE
  5
1DC60
  8
0
  6
CONTINUOUS
 10
17.73677272894739
 20
2.038542318774704
 30
0.0
 11
20.8693968800916
 21
5.171166469918914
 31
0.0
  0
LINE
  5
1DC61
  8
0
  6
CONTINUOUS
 10
17.92076276004034
 20
1.549013140787464
 30
0.0
 11
20.37944720592384
 21
4.007697586670968
 31
0.0
  0
LINE
  5
1DC62
  8
0
  6
CONTINUOUS
 10
18.10475279113329
 20
1.059483962800223
 30
0.0
 11
19.88949753175608
 21
2.84422870342302
 31
0.0
  0
LINE
  5
1DC63
  8
0
  6
CONTINUOUS
 10
18.28874282222623
 20
0.5699547848129822
 30
0.0
 11
19.39954785758832
 21
1.680759820175074
 31
0.0
  0
LINE
  5
1DC64
  8
0
  6
CONTINUOUS
 10
18.47273285331918
 20
0.0804256068257416
 30
0.0
 11
18.90959818342056
 21
0.517290936927127
 31
0.0
  0
LINE
  5
1DC65
  8
0
  6
CONTINUOUS
 10
14.3590401358224
 20
-0.1570118376323384
 30
0.0
 11
14.24903296539946
 21
-0.0470046672093929
 31
0.0
  0
LINE
  5
1DC66
  8
0
  6
CONTINUOUS
 10
14.54309291258661
 20
0.332454594683643
 30
0.0
 11
13.75908329123172
 21
1.116464216038529
 31
0.0
  0
LINE
  5
1DC67
  8
0
  6
CONTINUOUS
 10
14.72714568935081
 20
0.8219210269996244
 30
0.0
 11
13.26913361706399
 21
2.27993309928645
 31
0.0
  0
LINE
  5
1DC68
  8
0
  6
CONTINUOUS
 10
14.91119846611502
 20
1.311387459315606
 30
0.0
 11
12.77918394289625
 21
3.443401982534371
 31
0.0
  0
LINE
  5
1DC69
  8
0
  6
CONTINUOUS
 10
15.09525124287922
 20
1.800853891631587
 30
0.0
 11
12.28923426872852
 21
4.606870865782293
 31
0.0
  0
LINE
  5
1DC6A
  8
0
  6
CONTINUOUS
 10
15.27930401964343
 20
2.290320323947569
 30
0.0
 11
11.79928459456078
 21
5.770339749030213
 31
0.0
  0
LINE
  5
1DC6B
  8
0
  6
CONTINUOUS
 10
15.46335679640763
 20
2.77978675626355
 30
0.0
 11
14.48885470994921
 21
3.754288842721972
 31
0.0
  0
LINE
  5
1DC6C
  8
0
  6
CONTINUOUS
 10
13.88507249233704
 20
4.358071060334137
 30
0.0
 11
11.30933492039305
 21
6.933808632278135
 31
0.0
  0
LINE
  5
1DC6D
  8
0
  6
CONTINUOUS
 10
18.75840522805855
 20
0.1582575336928151
 30
0.0
 11
18.25383727664818
 21
0.6628254851031863
 31
0.0
  0
LINE
  5
1DC6E
  8
0
  6
CONTINUOUS
 10
15.64740957317184
 20
3.269253188579531
 30
0.0
 11
14.67288388101266
 21
4.243778880738705
 31
0.0
  0
LINE
  5
1DC6F
  8
0
  6
CONTINUOUS
 10
13.39509276772158
 20
5.521569994029786
 30
0.0
 11
10.81938524622531
 21
8.097277515526056
 31
0.0
  0
LINE
  5
1DC70
  8
0
  6
CONTINUOUS
 10
18.95798597883369
 20
0.6321959919978686
 30
0.0
 11
17.84825644852853
 21
1.741925522303024
 31
0.0
  0
LINE
  5
1DC71
  8
0
  6
CONTINUOUS
 10
19.15756672960882
 20
1.106134450302922
 30
0.0
 11
17.44267562040888
 21
2.821025559502861
 31
0.0
  0
LINE
  5
1DC72
  8
0
  6
CONTINUOUS
 10
15.83146234993604
 20
3.758719620895513
 30
0.0
 11
14.85691305207612
 21
4.733268918755439
 31
0.0
  0
LINE
  5
1DC73
  8
0
  6
CONTINUOUS
 10
16.01551512670025
 20
4.248186053211494
 30
0.0
 11
15.04094222313957
 21
5.222758956772172
 31
0.0
  0
LINE
  5
1DC74
  8
0
  6
CONTINUOUS
 10
12.90511304310612
 20
6.685068927725435
 30
0.0
 11
10.8270819708403
 21
8.763099999991255
 31
0.0
  0
LINE
  5
1DC75
  8
0
  6
CONTINUOUS
 10
12.41513331849066
 20
7.848567861421083
 30
0.0
 11
11.50060117992049
 21
8.763099999991255
 31
0.0
  0
LINE
  5
1DC76
  8
0
  6
CONTINUOUS
 10
19.35714748038395
 20
1.580072908607975
 30
0.0
 11
17.03709479228923
 21
3.900125596702697
 31
0.0
  0
LINE
  5
1DC77
  8
0
  6
CONTINUOUS
 10
19.55672823115909
 20
2.054011366913028
 30
0.0
 11
16.63151396416958
 21
4.979225633902534
 31
0.0
  0
LINE
  5
1DC78
  8
0
  6
CONTINUOUS
 10
16.19956790346445
 20
4.737652485527476
 30
0.0
 11
15.22497139420302
 21
5.712248994788904
 31
0.0
  0
LINE
  5
1DC79
  8
0
  6
CONTINUOUS
 10
16.38362068022866
 20
5.227118917843457
 30
0.0
 11
15.40900056526648
 21
6.201739032805637
 31
0.0
  0
LINE
  5
1DC7A
  8
0
  6
CONTINUOUS
 10
19.75630898193422
 20
2.527949825218081
 30
0.0
 11
18.70774536448286
 21
3.576513442669441
 31
0.0
  0
LINE
  5
1DC7B
  8
0
  6
CONTINUOUS
 10
19.95588973270936
 20
3.001888283523134
 30
0.0
 11
18.90726987211446
 21
4.050508144118028
 31
0.0
  0
LINE
  5
1DC7C
  8
0
  6
CONTINUOUS
 10
20.15547048348449
 20
3.475826741828186
 30
0.0
 11
19.10679437974606
 21
4.524502845566614
 31
0.0
  0
LINE
  5
1DC7D
  8
0
  6
CONTINUOUS
 10
20.35505123425962
 20
3.94976520013324
 30
0.0
 11
19.30631888737766
 21
4.998497547015201
 31
0.0
  0
LINE
  5
1DC7E
  8
0
  6
CONTINUOUS
 10
20.55463198503475
 20
4.423703658438292
 30
0.0
 11
19.50584339500926
 21
5.472492248463787
 31
0.0
  0
LINE
  5
1DC7F
  8
0
  6
CONTINUOUS
 10
18.37481191085755
 20
3.909446896294752
 30
0.0
 11
15.59302973632993
 21
6.691229070822371
 31
0.0
  0
LINE
  5
1DC80
  8
0
  6
CONTINUOUS
 10
17.96904084440766
 20
4.988737171824825
 30
0.0
 11
15.77705890739338
 21
7.180719108839104
 31
0.0
  0
LINE
  5
1DC81
  8
0
  6
CONTINUOUS
 10
17.56326977795777
 20
6.068027447354899
 30
0.0
 11
15.96108807845684
 21
7.670209146855838
 31
0.0
  0
LINE
  5
1DC82
  8
0
  6
CONTINUOUS
 10
17.15749871150789
 20
7.147317722884972
 30
0.0
 11
16.14511724952029
 21
8.15969918487257
 31
0.0
  0
LINE
  5
1DC83
  8
0
  6
CONTINUOUS
 10
16.751727645058
 20
8.226607998415046
 30
0.0
 11
16.32914642058374
 21
8.649189222889303
 31
0.0
  0
LINE
  5
1DC84
  8
0
  6
CONTINUOUS
 10
20.75421273580989
 20
4.897642116743345
 30
0.0
 11
19.70536790264086
 21
5.946486949912374
 31
0.0
  0
LINE
  5
1DC85
  8
0
  6
CONTINUOUS
 10
20.95379348658502
 20
5.371580575048398
 30
0.0
 11
19.90489241027246
 21
6.42048165136096
 31
0.0
  0
LINE
  5
1DC86
  8
0
  6
CONTINUOUS
 10
21.15337423736015
 20
5.845519033353452
 30
0.0
 11
20.10441691790406
 21
6.894476352809547
 31
0.0
  0
LINE
  5
1DC87
  8
0
  6
CONTINUOUS
 10
21.35295498813529
 20
6.319457491658505
 30
0.0
 11
20.30394142553566
 21
7.368471054258134
 31
0.0
  0
LINE
  5
1DC88
  8
0
  6
CONTINUOUS
 10
21.55253573891042
 20
6.793395949963558
 30
0.0
 11
20.50346593316726
 21
7.842465755706721
 31
0.0
  0
LINE
  5
1DC89
  8
0
  6
CONTINUOUS
 10
21.75211648968556
 20
7.267334408268612
 30
0.0
 11
20.70299044079886
 21
8.316460457155308
 31
0.0
  0
LINE
  5
1DC8A
  8
0
  6
CONTINUOUS
 10
21.95169724046069
 20
7.741272866573663
 30
0.0
 11
20.9298701070431
 21
8.763099999991256
 31
0.0
  0
LINE
  5
1DC8B
  8
0
  6
CONTINUOUS
 10
22.15127799123582
 20
8.215211324878716
 30
0.0
 11
21.60338931612328
 21
8.763099999991256
 31
0.0
  0
LINE
  5
1DC8C
  8
0
  6
CONTINUOUS
 10
22.35085874201096
 20
8.689149783183769
 30
0.0
 11
22.27690852520347
 21
8.763099999991255
 31
0.0
  0
ENDBLK
  5
1DD7E
  8
0
  0
BLOCK
  8
0
  2
*X2100
 70
     1
 10
0.0
 20
0.0
 30
0.0
  3
*X2100
  1

  0
LINE
  5
1DC8E
  8
0
  6
CONTINUOUS
 10
23.19462913593892
 20
8.169917934846424
 30
0.0
 11
23.70775465517246
 21
8.683043454079957
 31
0.0
  0
LINE
  5
1DC8F
  8
0
  6
CONTINUOUS
 10
22.64923161835078
 20
6.951001208178088
 30
0.0
 11
23.9159364069932
 21
8.217705996820516
 31
0.0
  0
LINE
  5
1DC90
  8
0
  6
CONTINUOUS
 10
22.10383410076263
 20
5.732084481509751
 30
0.0
 11
24.12411815881395
 21
7.752368539561078
 31
0.0
  0
LINE
  5
1DC91
  8
0
  6
CONTINUOUS
 10
21.55843658317447
 20
4.513167754841414
 30
0.0
 11
24.3322999106347
 21
7.287031082301639
 31
0.0
  0
LINE
  5
1DC92
  8
0
  6
CONTINUOUS
 10
21.01303906558632
 20
3.294251028173077
 30
0.0
 11
24.54048166245544
 21
6.821693625042199
 31
0.0
  0
LINE
  5
1DC93
  8
0
  6
CONTINUOUS
 10
20.46764154799817
 20
2.075334301504738
 30
0.0
 11
23.28571549467848
 21
4.89340824818505
 31
0.0
  0
LINE
  5
1DC94
  8
0
  6
CONTINUOUS
 10
19.92224403041002
 20
0.8564175748364002
 30
0.0
 11
22.74075865492779
 21
3.674932199354171
 31
0.0
  0
LINE
  5
1DC95
  8
0
  6
CONTINUOUS
 10
23.67305085490148
 20
5.280743608408048
 30
0.0
 11
24.74866341427619
 21
6.356356167782759
 31
0.0
  0
LINE
  5
1DC96
  8
0
  6
CONTINUOUS
 10
23.88118970842314
 20
4.815363252849522
 30
0.0
 11
24.95684516609694
 21
5.89101871052332
 31
0.0
  0
LINE
  5
1DC97
  8
0
  6
CONTINUOUS
 10
19.73925852647308
 20
-0.0000871381807288
 30
0.0
 11
23.4103456646501
 21
3.670999999996297
 31
0.0
  0
LINE
  5
1DC98
  8
0
  6
CONTINUOUS
 10
24.0893285619448
 20
4.349982897290997
 30
0.0
 11
25.16502691791769
 21
5.42568125326388
 31
0.0
  0
LINE
  5
1DC99
  8
0
  6
CONTINUOUS
 10
20.41282099582748
 20
-0.0000438779065108
 30
0.0
 11
21.64944178675636
 21
1.236576913022366
 31
0.0
  0
LINE
  5
1DC9A
  8
0
  6
CONTINUOUS
 10
22.78126487373161
 20
2.36839999999762
 30
0.0
 11
24.08386487373029
 21
3.670999999996297
 31
0.0
  0
LINE
  5
1DC9B
  8
0
  6
CONTINUOUS
 10
24.29746741546646
 20
3.884602541732471
 30
0.0
 11
25.37320866973843
 21
4.960343796004441
 31
0.0
  0
LINE
  5
1DC9C
  8
0
  6
CONTINUOUS
 10
21.08638346518189
 20
-0.0000006176322938
 30
0.0
 11
21.10379033335899
 21
0.0174062505448083
 31
0.0
  0
LINE
  5
1DC9D
  8
0
  6
CONTINUOUS
 10
23.4547840828118
 20
2.36839999999762
 30
0.0
 11
25.58139042155918
 21
4.495006338745002
 31
0.0
  0
LINE
  5
1DC9E
  8
0
  6
CONTINUOUS
 10
29.30199999996933
 20
8.215615917155148
 30
0.0
 11
29.84948408280543
 21
8.763099999991255
 31
0.0
  0
LINE
  5
1DC9F
  8
0
  6
CONTINUOUS
 10
24.12830329189199
 20
2.36839999999762
 30
0.0
 11
25.78957217337993
 21
4.029668881485562
 31
0.0
  0
LINE
  5
1DCA0
  8
0
  6
CONTINUOUS
 10
29.30199999996933
 20
7.54209670807496
 30
0.0
 11
30.52300329188562
 21
8.763099999991255
 31
0.0
  0
LINE
  5
1DCA1
  8
0
  6
CONTINUOUS
 10
24.80182250097217
 20
2.36839999999762
 30
0.0
 11
25.99775392520067
 21
3.564331424226122
 31
0.0
  0
LINE
  5
1DCA2
  8
0
  6
CONTINUOUS
 10
29.30199999996933
 20
6.868577498994774
 30
0.0
 11
30.74199999996926
 21
8.308577498994712
 31
0.0
  0
LINE
  5
1DCA3
  8
0
  6
CONTINUOUS
 10
25.13028238392013
 20
2.023340673865392
 30
0.0
 11
26.20593567702142
 21
3.098993966966683
 31
0.0
  0
LINE
  5
1DCA4
  8
0
  6
CONTINUOUS
 10
25.33838066033617
 20
1.557919741201244
 30
0.0
 11
26.41411742884217
 21
2.633656509707244
 31
0.0
  0
LINE
  5
1DCA5
  8
0
  6
CONTINUOUS
 10
25.54647893675221
 20
1.092498808537098
 30
0.0
 11
26.62229918066291
 21
2.168319052447804
 31
0.0
  0
LINE
  5
1DCA6
  8
0
  6
CONTINUOUS
 10
25.75457721316825
 20
0.62707787587295
 30
0.0
 11
26.83048093248366
 21
1.702981595188365
 31
0.0
  0
LINE
  5
1DCA7
  8
0
  6
CONTINUOUS
 10
29.30199999996933
 20
6.195058289914587
 30
0.0
 11
30.74199999996926
 21
7.635058289914522
 31
0.0
  0
LINE
  5
1DCA8
  8
0
  6
CONTINUOUS
 10
29.30199999996933
 20
5.521539080834401
 30
0.0
 11
30.74199999996926
 21
6.961539080834331
 31
0.0
  0
LINE
  5
1DCA9
  8
0
  6
CONTINUOUS
 10
29.30199999996933
 20
4.848019871754214
 30
0.0
 11
30.74199999996925
 21
6.288019871754143
 31
0.0
  0
LINE
  5
1DCAA
  8
0
  6
CONTINUOUS
 10
29.30199999996933
 20
4.174500662674028
 30
0.0
 11
30.74199999996925
 21
5.614500662673953
 31
0.0
  0
LINE
  5
1DCAB
  8
0
  6
CONTINUOUS
 10
25.96267548958429
 20
0.1616569432088024
 30
0.0
 11
27.18411854636669
 21
1.383099999991207
 31
0.0
  0
LINE
  5
1DCAC
  8
0
  6
CONTINUOUS
 10
29.30199999996933
 20
3.500981453593841
 30
0.0
 11
30.74199999996925
 21
4.940981453593762
 31
0.0
  0
LINE
  5
1DCAD
  8
0
  6
CONTINUOUS
 10
26.50763775544691
 20
0.0330999999912356
 30
0.0
 11
27.85763775544689
 21
1.383099999991223
 31
0.0
  0
LINE
  5
1DCAE
  8
0
  6
CONTINUOUS
 10
29.30199999996933
 20
2.827462244513656
 30
0.0
 11
30.74199999996925
 21
4.267462244513574
 31
0.0
  0
LINE
  5
1DCAF
  8
0
  6
CONTINUOUS
 10
27.18115696452709
 20
0.0330999999912356
 30
0.0
 11
28.55073879889363
 21
1.402681834357775
 31
0.0
  0
LINE
  5
1DCB0
  8
0
  6
CONTINUOUS
 10
29.28241816560272
 20
2.134361201066866
 30
0.0
 11
30.74199999996924
 21
3.593943035433383
 31
0.0
  0
LINE
  5
1DCB1
  8
0
  6
CONTINUOUS
 10
27.85467617360728
 20
0.0330999999912356
 30
0.0
 11
30.74199999996924
 21
2.920423826353195
 31
0.0
  0
LINE
  5
1DCB2
  8
0
  6
CONTINUOUS
 10
28.53897559587887
 20
0.0438802131826428
 30
0.0
 11
30.73121978677781
 21
2.236124404081585
 31
0.0
  0
LINE
  5
1DCB3
  8
0
  6
CONTINUOUS
 10
29.45140055588722
 20
0.2827859641107988
 30
0.0
 11
30.49231403584965
 21
1.323699444073236
 31
0.0
  0
LINE
  5
1DCB4
  8
0
  6
CONTINUOUS
 10
19.59027867740337
 20
-0.0000967065718083
 30
0.0
 11
19.55485265190471
 21
0.035329318926844
 31
0.0
  0
LINE
  5
1DCB5
  8
0
  6
CONTINUOUS
 10
20.26375463176586
 20
-0.0000534518541091
 30
0.0
 11
19.76305575737534
 21
0.5006454225364014
 31
0.0
  0
LINE
  5
1DCB6
  8
0
  6
CONTINUOUS
 10
20.93723058612834
 20
-0.0000101971364099
 30
0.0
 11
19.97125886284597
 21
0.965961526145958
 31
0.0
  0
LINE
  5
1DCB7
  8
0
  6
CONTINUOUS
 10
21.25514828313686
 20
0.355591314935257
 30
0.0
 11
20.1794619683166
 21
1.431277629755512
 31
0.0
  0
LINE
  5
1DCB8
  8
0
  6
CONTINUOUS
 10
21.46338838394921
 20
0.8208704232030986
 30
0.0
 11
20.38766507378723
 21
1.896593733365069
 31
0.0
  0
LINE
  5
1DCB9
  8
0
  6
CONTINUOUS
 10
21.67162848476155
 20
1.28614953147094
 30
0.0
 11
20.59586817925786
 21
2.361909836974626
 31
0.0
  0
LINE
  5
1DCBA
  8
0
  6
CONTINUOUS
 10
21.8798685855739
 20
1.751428639738782
 30
0.0
 11
20.80407128472849
 21
2.827225940584183
 31
0.0
  0
LINE
  5
1DCBB
  8
0
  6
CONTINUOUS
 10
22.08810868638624
 20
2.216707748006623
 30
0.0
 11
21.01227439019912
 21
3.292542044193739
 31
0.0
  0
LINE
  5
1DCBC
  8
0
  6
CONTINUOUS
 10
22.60993564347543
 20
2.36839999999762
 30
0.0
 11
21.22047749566975
 21
3.757858147803296
 31
0.0
  0
LINE
  5
1DCBD
  8
0
  6
CONTINUOUS
 10
23.28345485255561
 20
2.36839999999762
 30
0.0
 11
21.42868060114038
 21
4.223174251412853
 31
0.0
  0
LINE
  5
1DCBE
  8
0
  6
CONTINUOUS
 10
26.29227406164219
 20
0.0330999999912356
 30
0.0
 11
25.80009199592872
 21
0.5252820657046957
 31
0.0
  0
LINE
  5
1DCBF
  8
0
  6
CONTINUOUS
 10
23.9569740616358
 20
2.36839999999762
 30
0.0
 11
21.63688370661101
 21
4.688490355022409
 31
0.0
  0
LINE
  5
1DCC0
  8
0
  6
CONTINUOUS
 10
26.96579327072237
 20
0.0330999999912356
 30
0.0
 11
25.2554132311971
 21
1.743480039516508
 31
0.0
  0
LINE
  5
1DCC1
  8
0
  6
CONTINUOUS
 10
24.63049327071599
 20
2.36839999999762
 30
0.0
 11
23.32789327071731
 21
3.670999999996297
 31
0.0
  0
LINE
  5
1DCC2
  8
0
  6
CONTINUOUS
 10
22.92098674744635
 20
4.077906523267254
 30
0.0
 11
21.84508681208164
 21
5.153806458631966
 31
0.0
  0
LINE
  5
1DCC3
  8
0
  6
CONTINUOUS
 10
27.63931247980256
 20
0.0330999999912356
 30
0.0
 11
24.0014124797975
 21
3.670999999996297
 31
0.0
  0
LINE
  5
1DCC4
  8
0
  6
CONTINUOUS
 10
23.129125600968
 20
4.5432868788258
 30
0.0
 11
22.05328991755227
 21
5.619122562241522
 31
0.0
  0
LINE
  5
1DCC5
  8
0
  6
CONTINUOUS
 10
28.31283168888275
 20
0.0330999999912356
 30
0.0
 11
24.16488385994816
 21
4.181047828925828
 31
0.0
  0
LINE
  5
1DCC6
  8
0
  6
CONTINUOUS
 10
23.33726445448964
 20
5.008667234384345
 30
0.0
 11
22.2614930230229
 21
6.084438665851079
 31
0.0
  0
LINE
  5
1DCC7
  8
0
  6
CONTINUOUS
 10
28.92085740005492
 20
0.0985934978992438
 30
0.0
 11
27.63635089796295
 21
1.383099999991217
 31
0.0
  0
LINE
  5
1DCC8
  8
0
  6
CONTINUOUS
 10
26.43704649509776
 20
2.582404402856405
 30
0.0
 11
23.61992702019732
 21
5.399523877756844
 31
0.0
  0
LINE
  5
1DCC9
  8
0
  6
CONTINUOUS
 10
23.54540330801128
 20
5.47404758994289
 30
0.0
 11
22.46969612849353
 21
6.549754769460635
 31
0.0
  0
LINE
  5
1DCCA
  8
0
  6
CONTINUOUS
 10
29.42225615078443
 20
0.2707139562499279
 30
0.0
 11
28.30987010704312
 21
1.383099999991234
 31
0.0
  0
LINE
  5
1DCCB
  8
0
  6
CONTINUOUS
 10
25.89179548232307
 20
3.801174624711282
 30
0.0
 11
22.67789923396416
 21
7.015070873070191
 31
0.0
  0
LINE
  5
1DCCC
  8
0
  6
CONTINUOUS
 10
29.83624534690007
 20
0.5302439692144705
 30
0.0
 11
28.85811781497101
 21
1.508371501143527
 31
0.0
  0
LINE
  5
1DCCD
  8
0
  6
CONTINUOUS
 10
25.34654446954838
 20
5.01994484656616
 30
0.0
 11
22.88610233943479
 21
7.480386976679748
 31
0.0
  0
LINE
  5
1DCCE
  8
0
  6
CONTINUOUS
 10
30.17865975401872
 20
0.8613487711760022
 30
0.0
 11
29.18888744090175
 21
1.851121084292977
 31
0.0
  0
LINE
  5
1DCCF
  8
0
  6
CONTINUOUS
 10
24.80129345677369
 20
6.238715068421037
 30
0.0
 11
23.09430544490542
 21
7.945703080289305
 31
0.0
  0
LINE
  5
1DCD0
  8
0
  6
CONTINUOUS
 10
30.45496647202376
 20
1.258561262251155
 30
0.0
 11
29.30199999996933
 21
2.411527734305588
 31
0.0
  0
LINE
  5
1DCD1
  8
0
  6
CONTINUOUS
 10
24.256042443999
 20
7.457485290275915
 30
0.0
 11
23.30250855037605
 21
8.411019183898862
 31
0.0
  0
LINE
  5
1DCD2
  8
0
  6
CONTINUOUS
 10
30.64868582078271
 20
1.738361122572387
 30
0.0
 11
29.30199999996933
 21
3.085046943385775
 31
0.0
  0
LINE
  5
1DCD3
  8
0
  6
CONTINUOUS
 10
23.71079143122431
 20
8.676255512130794
 30
0.0
 11
23.51071165584668
 21
8.876335287508416
 31
0.0
  0
LINE
  5
1DCD4
  8
0
  6
CONTINUOUS
 10
30.73802122914428
 20
2.322544923291007
 30
0.0
 11
29.30199999996933
 21
3.758566152465961
 31
0.0
  0
LINE
  5
1DCD5
  8
0
  6
CONTINUOUS
 10
30.74199999996924
 20
2.992085361546236
 30
0.0
 11
29.30199999996933
 21
4.432085361546148
 31
0.0
  0
LINE
  5
1DCD6
  8
0
  6
CONTINUOUS
 10
30.74199999996924
 20
3.665604570626419
 30
0.0
 11
29.30199999996933
 21
5.105604570626333
 31
0.0
  0
LINE
  5
1DCD7
  8
0
  6
CONTINUOUS
 10
30.74199999996925
 20
4.339123779706602
 30
0.0
 11
29.30199999996933
 21
5.77912377970652
 31
0.0
  0
LINE
  5
1DCD8
  8
0
  6
CONTINUOUS
 10
30.74199999996925
 20
5.012642988786785
 30
0.0
 11
29.30199999996933
 21
6.452642988786707
 31
0.0
  0
LINE
  5
1DCD9
  8
0
  6
CONTINUOUS
 10
30.74199999996925
 20
5.68616219786697
 30
0.0
 11
29.30199999996933
 21
7.126162197866894
 31
0.0
  0
LINE
  5
1DCDA
  8
0
  6
CONTINUOUS
 10
30.74199999996925
 20
6.359681406947153
 30
0.0
 11
29.30199999996933
 21
7.799681406947081
 31
0.0
  0
LINE
  5
1DCDB
  8
0
  6
CONTINUOUS
 10
30.74199999996926
 20
7.033200616027337
 30
0.0
 11
29.30199999996933
 21
8.473200616027269
 31
0.0
  0
LINE
  5
1DCDC
  8
0
  6
CONTINUOUS
 10
30.74199999996926
 20
7.706719825107518
 30
0.0
 11
29.68561982508552
 21
8.763099999991255
 31
0.0
  0
LINE
  5
1DCDD
  8
0
  6
CONTINUOUS
 10
30.74199999996926
 20
8.380239034187703
 30
0.0
 11
30.35913903416571
 21
8.763099999991255
 31
0.0
  0
ENDBLK
  5
1DD80
  8
0
  0
BLOCK
  8
0
  2
*X2101
 70
     1
 10
0.0
 20
0.0
 30
0.0
  3
*X2101
  1

  0
LINE
  5
1DCDF
  8
0
  6
CONTINUOUS
 10
31.64199999996833
 20
8.535058289913598
 30
0.0
 11
31.87004171004599
 21
8.763099999991255
 31
0.0
  0
LINE
  5
1DCE0
  8
0
  6
CONTINUOUS
 10
31.64199999996833
 20
7.861539080833412
 30
0.0
 11
32.54356091912618
 21
8.763099999991255
 31
0.0
  0
LINE
  5
1DCE1
  8
0
  6
CONTINUOUS
 10
31.64199999996833
 20
7.188019871753226
 30
0.0
 11
33.08199999996839
 21
8.628019871753281
 31
0.0
  0
LINE
  5
1DCE2
  8
0
  6
CONTINUOUS
 10
31.64199999996833
 20
6.51450066267304
 30
0.0
 11
33.08199999996839
 21
7.954500662673095
 31
0.0
  0
LINE
  5
1DCE3
  8
0
  6
CONTINUOUS
 10
31.64199999996833
 20
5.840981453592853
 30
0.0
 11
33.08199999996839
 21
7.280981453592908
 31
0.0
  0
LINE
  5
1DCE4
  8
0
  6
CONTINUOUS
 10
31.64199999996833
 20
5.167462244512667
 30
0.0
 11
33.08199999996839
 21
6.607462244512721
 31
0.0
  0
LINE
  5
1DCE5
  8
0
  6
CONTINUOUS
 10
31.64199999996833
 20
4.493943035432481
 30
0.0
 11
33.08199999996839
 21
5.933943035432535
 31
0.0
  0
LINE
  5
1DCE6
  8
0
  6
CONTINUOUS
 10
31.64199999996833
 20
3.820423826352293
 30
0.0
 11
33.08199999996839
 21
5.260423826352348
 31
0.0
  0
LINE
  5
1DCE7
  8
0
  6
CONTINUOUS
 10
31.64199999996833
 20
3.146904617272106
 30
0.0
 11
33.08199999996839
 21
4.586904617272161
 31
0.0
  0
LINE
  5
1DCE8
  8
0
  6
CONTINUOUS
 10
36.23199999996837
 20
8.410423826352325
 30
0.0
 11
36.5846761736073
 21
8.763099999991255
 31
0.0
  0
LINE
  5
1DCE9
  8
0
  6
CONTINUOUS
 10
36.23199999996837
 20
7.73690461727214
 30
0.0
 11
37.25819538268748
 21
8.763099999991255
 31
0.0
  0
LINE
  5
1DCEA
  8
0
  6
CONTINUOUS
 10
31.64257403601376
 20
2.473959444237348
 30
0.0
 11
33.08199999996839
 21
3.913385408191974
 31
0.0
  0
LINE
  5
1DCEB
  8
0
  6
CONTINUOUS
 10
36.23199999996837
 20
7.063385408191953
 30
0.0
 11
37.67199999996831
 21
8.503385408191894
 31
0.0
  0
LINE
  5
1DCEC
  8
0
  6
CONTINUOUS
 10
31.72013636841932
 20
1.87800256756272
 30
0.0
 11
33.08199999996839
 21
3.239866199111788
 31
0.0
  0
LINE
  5
1DCED
  8
0
  6
CONTINUOUS
 10
36.23199999996837
 20
6.389866199111767
 30
0.0
 11
37.67199999996831
 21
7.829866199111708
 31
0.0
  0
LINE
  5
1DCEE
  8
0
  6
CONTINUOUS
 10
31.89042734314753
 20
1.374774333210744
 30
0.0
 11
33.08199999996839
 21
2.566346990031601
 31
0.0
  0
LINE
  5
1DCEF
  8
0
  6
CONTINUOUS
 10
36.23199999996837
 20
5.71634699003158
 30
0.0
 11
37.67199999996831
 21
7.156346990031521
 31
0.0
  0
LINE
  5
1DCF0
  8
0
  6
CONTINUOUS
 10
32.14210568064475
 20
0.952933461627778
 30
0.0
 11
33.18745552475986
 21
1.998283305742888
 31
0.0
  0
LINE
  5
1DCF1
  8
0
  6
CONTINUOUS
 10
36.23199999996837
 20
5.042827780951393
 30
0.0
 11
37.67199999996831
 21
6.482827780951334
 31
0.0
  0
LINE
  5
1DCF2
  8
0
  6
CONTINUOUS
 10
32.45820639400955
 20
0.5955149659123915
 30
0.0
 11
33.47242681921943
 21
1.60973539112227
 31
0.0
  0
LINE
  5
1DCF3
  8
0
  6
CONTINUOUS
 10
36.23199999996837
 20
4.369308571871207
 30
0.0
 11
37.67199999996831
 21
5.809308571871147
 31
0.0
  0
LINE
  5
1DCF4
  8
0
  6
CONTINUOUS
 10
32.83432456621412
 20
0.2981139290367771
 30
0.0
 11
33.89722476612215
 21
1.361014128944803
 31
0.0
  0
LINE
  5
1DCF5
  8
0
  6
CONTINUOUS
 10
36.23199999996837
 20
3.69578936279102
 30
0.0
 11
37.67199999996831
 21
5.135789362790962
 31
0.0
  0
LINE
  5
1DCF6
  8
0
  6
CONTINUOUS
 10
33.2711633111245
 20
0.0614334648669672
 30
0.0
 11
34.43247338014423
 21
1.222743533886696
 31
0.0
  0
LINE
  5
1DCF7
  8
0
  6
CONTINUOUS
 10
36.23199999996837
 20
3.022270153710834
 30
0.0
 11
37.67199999996831
 21
4.462270153710775
 31
0.0
  0
LINE
  5
1DCF8
  8
0
  6
CONTINUOUS
 10
33.76515245874577
 20
-0.1180965965919523
 30
0.0
 11
35.1587445516215
 21
1.27549549628378
 31
0.0
  0
LINE
  5
1DCF9
  8
0
  6
CONTINUOUS
 10
36.21639478609585
 20
2.333145730758136
 30
0.0
 11
37.67199999996831
 21
3.788750944630588
 31
0.0
  0
LINE
  5
1DCFA
  8
0
  6
CONTINUOUS
 10
34.34060583368432
 20
-0.2161624307335863
 30
0.0
 11
37.67199999996831
 21
3.115231735550401
 31
0.0
  0
LINE
  5
1DCFB
  8
0
  6
CONTINUOUS
 10
35.01698193613905
 20
-0.2133055373590427
 30
0.0
 11
37.66876712070525
 21
2.438479647207154
 31
0.0
  0
LINE
  5
1DCFC
  8
0
  6
CONTINUOUS
 10
35.90743367693304
 20
0.0036269943547609
 30
0.0
 11
37.51723902192366
 21
1.613432339345381
 31
0.0
  0
LINE
  5
1DCFD
  8
0
  6
CONTINUOUS
 10
32.55309425579761
 20
0.5074718966376706
 30
0.0
 11
32.27784730925847
 21
0.7827188431768102
 31
0.0
  0
LINE
  5
1DCFE
  8
0
  6
CONTINUOUS
 10
33.87496468909684
 20
-0.1408793275813673
 30
0.0
 11
31.67993083278052
 21
2.054154528734943
 31
0.0
  0
LINE
  5
1DCFF
  8
0
  6
CONTINUOUS
 10
34.64362813207632
 20
-0.2360235614806649
 30
0.0
 11
31.64199999996833
 21
2.765604570627322
 31
0.0
  0
LINE
  5
1DD00
  8
0
  6
CONTINUOUS
 10
35.25801106796118
 20
-0.1768872882853429
 30
0.0
 11
31.64199999996833
 21
3.439123779707508
 31
0.0
  0
LINE
  5
1DD01
  8
0
  6
CONTINUOUS
 10
35.79065650332146
 20
-0.0360135145654361
 30
0.0
 11
34.54143210838231
 21
1.213210880373721
 31
0.0
  0
LINE
  5
1DD02
  8
0
  6
CONTINUOUS
 10
33.08199999996839
 20
2.67264298878764
 30
0.0
 11
31.64199999996833
 21
4.112642988787695
 31
0.0
  0
LINE
  5
1DD03
  8
0
  6
CONTINUOUS
 10
36.25975597779143
 20
0.1684062200447833
 30
0.0
 11
35.15395110240023
 21
1.274211095435983
 31
0.0
  0
LINE
  5
1DD04
  8
0
  6
CONTINUOUS
 10
33.08199999996839
 20
3.346162197867826
 30
0.0
 11
31.64199999996833
 21
4.786162197867881
 31
0.0
  0
LINE
  5
1DD05
  8
0
  6
CONTINUOUS
 10
36.67226329638774
 20
0.4294181105286579
 30
0.0
 11
35.63766478748767
 21
1.464016619428737
 31
0.0
  0
LINE
  5
1DD06
  8
0
  6
CONTINUOUS
 10
33.08199999996839
 20
4.019681406948012
 30
0.0
 11
31.64199999996833
 21
5.459681406948068
 31
0.0
  0
LINE
  5
1DD07
  8
0
  6
CONTINUOUS
 10
37.01677749710036
 20
0.7584231188962329
 30
0.0
 11
35.99563422741351
 21
1.779566388583076
 31
0.0
  0
LINE
  5
1DD08
  8
0
  6
CONTINUOUS
 10
33.08199999996839
 20
4.693200616028199
 30
0.0
 11
31.64199999996833
 21
6.133200616028255
 31
0.0
  0
LINE
  5
1DD09
  8
0
  6
CONTINUOUS
 10
37.29859977568887
 20
1.1501200493879
 30
0.0
 11
36.20680593341555
 21
2.241913891661226
 31
0.0
  0
LINE
  5
1DD0A
  8
0
  6
CONTINUOUS
 10
33.08199999996839
 20
5.366719825108386
 30
0.0
 11
31.64199999996833
 21
6.80671982510844
 31
0.0
  0
LINE
  5
1DD0B
  8
0
  6
CONTINUOUS
 10
37.5148623517228
 20
1.607376682434161
 30
0.0
 11
36.23199999996837
 21
2.890239034188594
 31
0.0
  0
LINE
  5
1DD0C
  8
0
  6
CONTINUOUS
 10
33.08199999996839
 20
6.040239034188573
 30
0.0
 11
31.64199999996833
 21
7.480239034188627
 31
0.0
  0
LINE
  5
1DD0D
  8
0
  6
CONTINUOUS
 10
37.64705163358367
 20
2.148706609653477
 30
0.0
 11
36.23199999996837
 21
3.56375824326878
 31
0.0
  0
LINE
  5
1DD0E
  8
0
  6
CONTINUOUS
 10
33.08199999996839
 20
6.713758243268758
 30
0.0
 11
31.64199999996833
 21
8.153758243268815
 31
0.0
  0
LINE
  5
1DD0F
  8
0
  6
CONTINUOUS
 10
37.67199999996831
 20
2.797277452349026
 30
0.0
 11
36.23199999996837
 21
4.237277452348967
 31
0.0
  0
LINE
  5
1DD10
  8
0
  6
CONTINUOUS
 10
37.67199999996831
 20
3.470796661429213
 30
0.0
 11
36.23199999996837
 21
4.910796661429154
 31
0.0
  0
LINE
  5
1DD11
  8
0
  6
CONTINUOUS
 10
37.67199999996831
 20
4.144315870509399
 30
0.0
 11
36.23199999996837
 21
5.58431587050934
 31
0.0
  0
LINE
  5
1DD12
  8
0
  6
CONTINUOUS
 10
33.08199999996839
 20
7.387277452348945
 30
0.0
 11
31.70617745232608
 21
8.763099999991255
 31
0.0
  0
LINE
  5
1DD13
  8
0
  6
CONTINUOUS
 10
33.08199999996839
 20
8.060796661429132
 30
0.0
 11
32.37969666140626
 21
8.763099999991255
 31
0.0
  0
LINE
  5
1DD14
  8
0
  6
CONTINUOUS
 10
33.08199999996839
 20
8.734315870509318
 30
0.0
 11
33.05321587048645
 21
8.763099999991255
 31
0.0
  0
LINE
  5
1DD15
  8
0
  6
CONTINUOUS
 10
37.67199999996831
 20
4.817835079589585
 30
0.0
 11
36.23199999996837
 21
6.257835079589526
 31
0.0
  0
LINE
  5
1DD16
  8
0
  6
CONTINUOUS
 10
37.67199999996831
 20
5.491354288669771
 30
0.0
 11
36.23199999996837
 21
6.931354288669713
 31
0.0
  0
LINE
  5
1DD17
  8
0
  6
CONTINUOUS
 10
37.67199999996831
 20
6.164873497749958
 30
0.0
 11
36.23199999996837
 21
7.6048734977499
 31
0.0
  0
LINE
  5
1DD18
  8
0
  6
CONTINUOUS
 10
37.67199999996831
 20
6.838392706830144
 30
0.0
 11
36.23199999996837
 21
8.278392706830086
 31
0.0
  0
LINE
  5
1DD19
  8
0
  6
CONTINUOUS
 10
37.67199999996831
 20
7.511911915910332
 30
0.0
 11
36.42081191588738
 21
8.763099999991255
 31
0.0
  0
LINE
  5
1DD1A
  8
0
  6
CONTINUOUS
 10
37.67199999996831
 20
8.185431124990519
 30
0.0
 11
37.09433112496757
 21
8.763099999991255
 31
0.0
  0
ENDBLK
  5
1DD82
  8
0
  0
BLOCK
  8
0
  2
*X2102
 70
     1
 10
0.0
 20
0.0
 30
0.0
  3
*X2102
  1

  0
LINE
  5
1DD1C
  8
0
  6
CONTINUOUS
 10
38.60499999996136
 20
8.762866199104765
 30
0.0
 11
38.71672554182345
 21
8.874591740966855
 31
0.0
  0
LINE
  5
1DD1D
  8
0
  6
CONTINUOUS
 10
38.60499999996136
 20
8.089346990024577
 30
0.0
 11
39.03418785440363
 21
8.518534844466847
 31
0.0
  0
LINE
  5
1DD1E
  8
0
  6
CONTINUOUS
 10
38.60499999996136
 20
7.41582778094439
 30
0.0
 11
39.35165016698382
 21
8.16247794796684
 31
0.0
  0
LINE
  5
1DD1F
  8
0
  6
CONTINUOUS
 10
38.60499999996136
 20
6.742308571864204
 30
0.0
 11
39.66911247956399
 21
7.806421051466834
 31
0.0
  0
LINE
  5
1DD20
  8
0
  6
CONTINUOUS
 10
38.60499999996136
 20
6.068789362784018
 30
0.0
 11
39.98657479214418
 21
7.450364154966827
 31
0.0
  0
LINE
  5
1DD21
  8
0
  6
CONTINUOUS
 10
38.60499999996136
 20
5.395270153703832
 30
0.0
 11
40.30403710472435
 21
7.09430725846682
 31
0.0
  0
LINE
  5
1DD22
  8
0
  6
CONTINUOUS
 10
38.60499999996136
 20
4.721750944623645
 30
0.0
 11
40.62149941730453
 21
6.738250361966813
 31
0.0
  0
LINE
  5
1DD23
  8
0
  6
CONTINUOUS
 10
38.60499999996136
 20
4.048231735543458
 30
0.0
 11
40.93896172988471
 21
6.382193465466806
 31
0.0
  0
LINE
  5
1DD24
  8
0
  6
CONTINUOUS
 10
38.60499999996136
 20
3.374712526463272
 30
0.0
 11
40.02599999995994
 21
4.795712526461843
 31
0.0
  0
LINE
  5
1DD25
  8
0
  6
CONTINUOUS
 10
38.60499999996136
 20
2.701193317383085
 30
0.0
 11
40.02599999995994
 21
4.122193317381657
 31
0.0
  0
LINE
  5
1DD26
  8
0
  6
CONTINUOUS
 10
40.28339754687704
 20
5.053110073378947
 30
0.0
 11
41.25642404246489
 21
6.026136568966799
 31
0.0
  0
LINE
  5
1DD27
  8
0
  6
CONTINUOUS
 10
40.60085985945722
 20
4.697053176878939
 30
0.0
 11
41.57388635504507
 21
5.670079672466793
 31
0.0
  0
LINE
  5
1DD28
  8
0
  6
CONTINUOUS
 10
43.57899999995641
 20
8.348712526458318
 30
0.0
 11
43.99338747348935
 21
8.763099999991255
 31
0.0
  0
LINE
  5
1DD29
  8
0
  6
CONTINUOUS
 10
43.57899999995641
 20
7.675193317378131
 30
0.0
 11
44.66690668256953
 21
8.763099999991255
 31
0.0
  0
LINE
  5
1DD2A
  8
0
  6
CONTINUOUS
 10
38.60499999996136
 20
2.027674108302898
 30
0.0
 11
40.02599999995994
 21
3.44867410830147
 31
0.0
  0
LINE
  5
1DD2B
  8
0
  6
CONTINUOUS
 10
38.60499999996136
 20
1.354154899222712
 30
0.0
 11
40.02599999995994
 21
2.775154899221284
 31
0.0
  0
LINE
  5
1DD2C
  8
0
  6
CONTINUOUS
 10
38.60499999996136
 20
0.6806356901425255
 30
0.0
 11
40.02599999995994
 21
2.101635690141098
 31
0.0
  0
LINE
  5
1DD2D
  8
0
  6
CONTINUOUS
 10
38.60499999996136
 20
0.0071164810623383
 30
0.0
 11
40.02599999995994
 21
1.428116481060911
 31
0.0
  0
LINE
  5
1DD2E
  8
0
  6
CONTINUOUS
 10
40.9183221720374
 20
4.340996280378933
 30
0.0
 11
41.89134866762525
 21
5.314022775966786
 31
0.0
  0
LINE
  5
1DD2F
  8
0
  6
CONTINUOUS
 10
41.23578448461758
 20
3.984939383878926
 30
0.0
 11
42.20881098020543
 21
4.957965879466778
 31
0.0
  0
LINE
  5
1DD30
  8
0
  6
CONTINUOUS
 10
41.55324679719776
 20
3.628882487378919
 30
0.0
 11
42.52627329278561
 21
4.601908982966772
 31
0.0
  0
LINE
  5
1DD31
  8
0
  6
CONTINUOUS
 10
41.87070910977793
 20
3.272825590878912
 30
0.0
 11
42.84373560536579
 21
4.245852086466765
 31
0.0
  0
LINE
  5
1DD32
  8
0
  6
CONTINUOUS
 10
43.57899999995641
 20
7.001674108297943
 30
0.0
 11
44.99999999995498
 21
8.422674108296516
 31
0.0
  0
LINE
  5
1DD33
  8
0
  6
CONTINUOUS
 10
43.57899999995641
 20
6.328154899217758
 30
0.0
 11
44.99999999995498
 21
7.749154899216329
 31
0.0
  0
LINE
  5
1DD34
  8
0
  6
CONTINUOUS
 10
43.57899999995641
 20
5.654635690137571
 30
0.0
 11
44.99999999995498
 21
7.075635690136142
 31
0.0
  0
LINE
  5
1DD35
  8
0
  6
CONTINUOUS
 10
43.57899999995641
 20
4.981116481057384
 30
0.0
 11
44.99999999995498
 21
6.402116481055955
 31
0.0
  0
LINE
  5
1DD36
  8
0
  6
CONTINUOUS
 10
39.27140272797921
 20
-0.0000000000000009
 30
0.0
 11
40.02599999995994
 21
0.7545972719807246
 31
0.0
  0
LINE
  5
1DD37
  8
0
  6
CONTINUOUS
 10
39.9449219370594
 20
-0.0000000000000009
 30
0.0
 11
40.02599999995994
 21
0.0810780629005379
 31
0.0
  0
LINE
  5
1DD38
  8
0
  6
CONTINUOUS
 10
42.18817142235812
 20
2.916768694378905
 30
0.0
 11
43.16119791794597
 21
3.889795189966758
 31
0.0
  0
LINE
  5
1DD39
  8
0
  6
CONTINUOUS
 10
42.50563373493829
 20
2.560711797878898
 30
0.0
 11
43.47866023052615
 21
3.533738293466751
 31
0.0
  0
LINE
  5
1DD3A
  8
0
  6
CONTINUOUS
 10
43.57899999995641
 20
4.307597271977198
 30
0.0
 11
44.99999999995498
 21
5.728597271975769
 31
0.0
  0
LINE
  5
1DD3B
  8
0
  6
CONTINUOUS
 10
43.57899999995641
 20
3.634078062897011
 30
0.0
 11
44.99999999995498
 21
5.055078062895582
 31
0.0
  0
LINE
  5
1DD3C
  8
0
  6
CONTINUOUS
 10
42.82309604751848
 20
2.204654901378891
 30
0.0
 11
44.99999999995498
 21
4.381558853815395
 31
0.0
  0
LINE
  5
1DD3D
  8
0
  6
CONTINUOUS
 10
43.14055836009865
 20
1.848598004878885
 30
0.0
 11
44.99999999995498
 21
3.70803964473521
 31
0.0
  0
LINE
  5
1DD3E
  8
0
  6
CONTINUOUS
 10
43.45802067267883
 20
1.492541108378878
 30
0.0
 11
44.99999999995498
 21
3.034520435655023
 31
0.0
  0
LINE
  5
1DD3F
  8
0
  6
CONTINUOUS
 10
43.77548298525902
 20
1.136484211878871
 30
0.0
 11
44.99999999995498
 21
2.361001226574837
 31
0.0
  0
LINE
  5
1DD40
  8
0
  6
CONTINUOUS
 10
44.09294529783919
 20
0.7804273153788639
 30
0.0
 11
44.99999999995498
 21
1.687482017494649
 31
0.0
  0
LINE
  5
1DD41
  8
0
  6
CONTINUOUS
 10
44.41040761041938
 20
0.4243704188788566
 30
0.0
 11
44.99999999995498
 21
1.013962808414463
 31
0.0
  0
LINE
  5
1DD42
  8
0
  6
CONTINUOUS
 10
44.72786992299955
 20
0.0683135223788494
 30
0.0
 11
44.99999999995498
 21
0.340443599334276
 31
0.0
  0
LINE
  5
1DD43
  8
0
  6
CONTINUOUS
 10
39.12223903415696
 20
-0.0000000000000009
 30
0.0
 11
38.60499999996136
 21
0.5172390341955961
 31
0.0
  0
LINE
  5
1DD44
  8
0
  6
CONTINUOUS
 10
39.79575824323715
 20
-0.0000000000000009
 30
0.0
 11
38.60499999996136
 21
1.190758243275783
 31
0.0
  0
LINE
  5
1DD45
  8
0
  6
CONTINUOUS
 10
40.02599999995994
 20
0.443277452357397
 30
0.0
 11
38.60499999996136
 21
1.864277452355969
 31
0.0
  0
LINE
  5
1DD46
  8
0
  6
CONTINUOUS
 10
40.02599999995994
 20
1.116796661437583
 30
0.0
 11
38.60499999996136
 21
2.537796661436155
 31
0.0
  0
LINE
  5
1DD47
  8
0
  6
CONTINUOUS
 10
40.02599999995994
 20
1.79031587051777
 30
0.0
 11
38.60499999996136
 21
3.211315870516341
 31
0.0
  0
LINE
  5
1DD48
  8
0
  6
CONTINUOUS
 10
40.02599999995994
 20
2.463835079597956
 30
0.0
 11
38.60499999996136
 21
3.884835079596527
 31
0.0
  0
LINE
  5
1DD49
  8
0
  6
CONTINUOUS
 10
40.02599999995994
 20
3.137354288678143
 30
0.0
 11
38.60499999996136
 21
4.558354288676714
 31
0.0
  0
LINE
  5
1DD4A
  8
0
  6
CONTINUOUS
 10
40.02599999995994
 20
3.810873497758329
 30
0.0
 11
38.60499999996136
 21
5.2318734977569
 31
0.0
  0
LINE
  5
1DD4B
  8
0
  6
CONTINUOUS
 10
40.02599999995994
 20
4.484392706838515
 30
0.0
 11
38.60499999996136
 21
5.905392706837086
 31
0.0
  0
LINE
  5
1DD4C
  8
0
  6
CONTINUOUS
 10
44.99999999995498
 20
0.183911915923658
 30
0.0
 11
41.53858364506288
 21
3.64532827081576
 31
0.0
  0
LINE
  5
1DD4D
  8
0
  6
CONTINUOUS
 10
40.02599999995994
 20
5.157911915918703
 30
0.0
 11
38.60499999996136
 21
6.578911915917274
 31
0.0
  0
LINE
  5
1DD4E
  8
0
  6
CONTINUOUS
 10
44.99999999995498
 20
0.8574311250038447
 30
0.0
 11
38.60499999996136
 21
7.25243112499746
 31
0.0
  0
LINE
  5
1DD4F
  8
0
  6
CONTINUOUS
 10
44.99999999995498
 20
1.530950334084031
 30
0.0
 11
38.60499999996136
 21
7.925950334077647
 31
0.0
  0
LINE
  5
1DD50
  8
0
  6
CONTINUOUS
 10
44.99999999995498
 20
2.204469543164218
 30
0.0
 11
43.57899999995641
 21
3.625469543162789
 31
0.0
  0
LINE
  5
1DD51
  8
0
  6
CONTINUOUS
 10
41.89876730984767
 20
5.305702233271528
 30
0.0
 11
38.60499999996136
 21
8.599469543157834
 31
0.0
  0
LINE
  5
1DD52
  8
0
  6
CONTINUOUS
 10
44.99999999995498
 20
2.877988752244405
 30
0.0
 11
43.57899999995641
 21
4.298988752242975
 31
0.0
  0
LINE
  5
1DD53
  8
0
  6
CONTINUOUS
 10
44.99999999995498
 20
3.551507961324591
 30
0.0
 11
43.57899999995641
 21
4.972507961323163
 31
0.0
  0
LINE
  5
1DD54
  8
0
  6
CONTINUOUS
 10
44.99999999995498
 20
4.225027170404777
 30
0.0
 11
43.57899999995641
 21
5.646027170403348
 31
0.0
  0
LINE
  5
1DD55
  8
0
  6
CONTINUOUS
 10
44.99999999995498
 20
4.898546379484964
 30
0.0
 11
43.57899999995641
 21
6.319546379483535
 31
0.0
  0
LINE
  5
1DD56
  8
0
  6
CONTINUOUS
 10
44.99999999995498
 20
5.572065588565151
 30
0.0
 11
43.57899999995641
 21
6.993065588563722
 31
0.0
  0
LINE
  5
1DD57
  8
0
  6
CONTINUOUS
 10
44.99999999995498
 20
6.245584797645336
 30
0.0
 11
43.57899999995641
 21
7.666584797643908
 31
0.0
  0
LINE
  5
1DD58
  8
0
  6
CONTINUOUS
 10
44.99999999995498
 20
6.919104006725522
 30
0.0
 11
43.57899999995641
 21
8.340104006724093
 31
0.0
  0
LINE
  5
1DD59
  8
0
  6
CONTINUOUS
 10
44.99999999995498
 20
7.592623215805709
 30
0.0
 11
43.82952321576943
 21
8.763099999991255
 31
0.0
  0
LINE
  5
1DD5A
  8
0
  6
CONTINUOUS
 10
44.99999999995498
 20
8.266142424885896
 30
0.0
 11
44.50304242484962
 21
8.763099999991255
 31
0.0
  0
ENDBLK
  5
1DD84
  8
0
  0
BLOCK
  8
0
  2
*X2103
 70
     1
 10
0.0
 20
0.0
 30
0.0
  3
*X2103
  1

  0
LINE
  5
1DD5C
  8
0
  6
CONTINUOUS
 10
0.0
 20
8.548461116714023
 30
0.0
 11
0.2146388832772324
 21
8.763099999991255
 31
0.0
  0
LINE
  5
1DD5D
  8
0
  6
CONTINUOUS
 10
-0.0000000000000002
 20
7.874941907633837
 30
0.0
 11
0.8881580923574184
 21
8.763099999991255
 31
0.0
  0
LINE
  5
1DD5E
  8
0
  6
CONTINUOUS
 10
0.0
 20
7.20142269855365
 30
0.0
 11
1.420999999998572
 21
8.622422698552223
 31
0.0
  0
LINE
  5
1DD5F
  8
0
  6
CONTINUOUS
 10
-0.0000000000000001
 20
6.527903489473465
 30
0.0
 11
1.420999999998571
 21
7.948903489472036
 31
0.0
  0
LINE
  5
1DD60
  8
0
  6
CONTINUOUS
 10
-0.0000000000000002
 20
5.854384280393278
 30
0.0
 11
1.420999999998571
 21
7.275384280391849
 31
0.0
  0
LINE
  5
1DD61
  8
0
  6
CONTINUOUS
 10
-0.0000000000000002
 20
5.180865071313091
 30
0.0
 11
1.420999999998571
 21
6.601865071311663
 31
0.0
  0
LINE
  5
1DD62
  8
0
  6
CONTINUOUS
 10
0.0
 20
4.507345862232905
 30
0.0
 11
1.420999999998571
 21
5.928345862231477
 31
0.0
  0
LINE
  5
1DD63
  8
0
  6
CONTINUOUS
 10
-0.0000000000000003
 20
3.833826653152718
 30
0.0
 11
1.420999999998571
 21
5.25482665315129
 31
0.0
  0
LINE
  5
1DD64
  8
0
  6
CONTINUOUS
 10
-0.0000000000000002
 20
3.160307444072532
 30
0.0
 11
1.420999999998571
 21
4.581307444071103
 31
0.0
  0
LINE
  5
1DD65
  8
0
  6
CONTINUOUS
 10
-0.0000000000000001
 20
2.486788234992345
 30
0.0
 11
1.420999999998571
 21
3.907788234990917
 31
0.0
  0
LINE
  5
1DD66
  8
0
  6
CONTINUOUS
 10
-0.0000000000000006
 20
1.813269025912159
 30
0.0
 11
1.420999999998571
 21
3.234269025910731
 31
0.0
  0
LINE
  5
1DD67
  8
0
  6
CONTINUOUS
 10
0.0
 20
1.139749816831973
 30
0.0
 11
1.420999999998571
 21
2.560749816830544
 31
0.0
  0
LINE
  5
1DD68
  8
0
  6
CONTINUOUS
 10
0.0000000000000002
 20
0.466230607751787
 30
0.0
 11
1.420999999998571
 21
1.887230607750358
 31
0.0
  0
LINE
  5
1DD69
  8
0
  6
CONTINUOUS
 10
0.2072886013284003
 20
-0.0000000000000009
 30
0.0
 11
1.420999999998571
 21
1.213711398670171
 31
0.0
  0
LINE
  5
1DD6A
  8
0
  6
CONTINUOUS
 10
0.8808078104085864
 20
-0.0000000000000009
 30
0.0
 11
1.420999999998571
 21
0.5401921895899839
 31
0.0
  0
LINE
  5
1DD6B
  8
0
  6
CONTINUOUS
 10
0.0581249075061505
 20
-0.0000000000000009
 30
0.0
 11
-0.0000000000000002
 21
0.0581249075061496
 31
0.0
  0
LINE
  5
1DD6C
  8
0
  6
CONTINUOUS
 10
0.7316441165863372
 20
-0.0000000000000009
 30
0.0
 11
-0.0000000000000002
 21
0.7316441165863363
 31
0.0
  0
LINE
  5
1DD6D
  8
0
  6
CONTINUOUS
 10
1.405163325666523
 20
-0.0000000000000009
 30
0.0
 11
-0.0000000000000002
 21
1.405163325666523
 31
0.0
  0
LINE
  5
1DD6E
  8
0
  6
CONTINUOUS
 10
1.420999999998572
 20
0.6576825347481381
 30
0.0
 11
-0.0000000000000001
 21
2.07868253474671
 31
0.0
  0
LINE
  5
1DD6F
  8
0
  6
CONTINUOUS
 10
1.420999999998571
 20
1.331201743828324
 30
0.0
 11
-0.0000000000000001
 21
2.752201743826896
 31
0.0
  0
LINE
  5
1DD70
  8
0
  6
CONTINUOUS
 10
1.420999999998571
 20
2.004720952908511
 30
0.0
 11
-0.0000000000000002
 21
3.425720952907082
 31
0.0
  0
LINE
  5
1DD71
  8
0
  6
CONTINUOUS
 10
1.420999999998571
 20
2.678240161988697
 30
0.0
 11
-0.0000000000000001
 21
4.099240161987269
 31
0.0
  0
LINE
  5
1DD72
  8
0
  6
CONTINUOUS
 10
1.420999999998572
 20
3.351759371068884
 30
0.0
 11
0.0
 21
4.772759371067455
 31
0.0
  0
LINE
  5
1DD73
  8
0
  6
CONTINUOUS
 10
1.420999999998571
 20
4.02527858014907
 30
0.0
 11
-0.0000000000000003
 21
5.446278580147642
 31
0.0
  0
LINE
  5
1DD74
  8
0
  6
CONTINUOUS
 10
1.420999999998571
 20
4.698797789229257
 30
0.0
 11
0.0
 21
6.119797789227828
 31
0.0
  0
LINE
  5
1DD75
  8
0
  6
CONTINUOUS
 10
1.420999999998571
 20
5.372316998309444
 30
0.0
 11
-0.0000000000000001
 21
6.793316998308015
 31
0.0
  0
LINE
  5
1DD76
  8
0
  6
CONTINUOUS
 10
1.420999999998572
 20
6.045836207389629
 30
0.0
 11
-0.0000000000000004
 21
7.466836207388202
 31
0.0
  0
LINE
  5
1DD77
  8
0
  6
CONTINUOUS
 10
1.420999999998571
 20
6.719355416469816
 30
0.0
 11
0.0
 21
8.140355416468388
 31
0.0
  0
LINE
  5
1DD78
  8
0
  6
CONTINUOUS
 10
1.420999999998571
 20
7.392874625550003
 30
0.0
 11
0.0507746255573185
 21
8.763099999991255
 31
0.0
  0
LINE
  5
1DD79
  8
0
  6
CONTINUOUS
 10
1.420999999998571
 20
8.06639383463019
 30
0.0
 11
0.7242938346375052
 21
8.763099999991255
 31
0.0
  0
LINE
  5
1DD7A
  8
0
  6
CONTINUOUS
 10
1.420999999998571
 20
8.739913043710375
 30
0.0
 11
1.397813043717691
 21
8.763099999991255
 31
0.0
  0
ENDBLK
  5
1DD86
  8
0
  0
ENDSEC
  0
SECTION
  2
ENTITIES
  0
LINE
  5
1B280
  8
01
 10
16400.04306657984
 20
6663.129145839677
 30
0.0
 11
16395.80341189825
 21
6663.129145839677
 31
0.0
  0
LINE
  5
1B281
  8
01
 10
16400.04306657957
 20
6660.200408910554
 30
0.0
 11
16395.80341189825
 21
6660.200408910554
 31
0.0
  0
LINE
  5
1B282
  8
01
 10
16394.80341189825
 20
6679.074777375117
 30
0.0
 11
16513.80341189825
 21
6679.074777375117
 31
0.0
  0
LINE
  5
1B283
  8
01
 10
16513.80341189825
 20
6644.254777375114
 30
0.0
 11
16503.67290260492
 21
6644.254777375114
 31
0.0
  0
CIRCLE
  5
1B284
  8
1HIDDEN
 10
16889.27091385869
 20
6478.848430232557
 30
0.0
 40
14.50000000000023
  0
LINE
  5
1B285
  8
01
 10
16504.54306658464
 20
6663.129145839677
 30
0.0
 11
16494.54306658435
 21
6663.129145839677
 31
0.0
  0
LINE
  5
1B286
  8
01
 10
16504.54247929595
 20
6660.200408910554
 30
0.0
 11
16494.54264577107
 21
6660.200408910554
 31
0.0
  0
LINE
  5
1B287
  8
01
 10
16494.54306658435
 20
6663.129145839677
 30
0.0
 11
16410.04306657959
 21
6663.129145839677
 31
0.0
  0
LINE
  5
1B288
  8
01
 10
16494.54264577107
 20
6660.200408910554
 30
0.0
 11
16410.0430665793
 21
6660.200408910554
 31
0.0
  0
LINE
  5
1B289
  8
01
 10
16410.04306657959
 20
6663.129145839677
 30
0.0
 11
16400.04306657984
 21
6663.129145839677
 31
0.0
  0
LINE
  5
1B28A
  8
01
 10
16410.0430665793
 20
6660.200408910554
 30
0.0
 11
16400.04306657957
 21
6660.200408910554
 31
0.0
  0
LINE
  5
1B28B
  8
01
 10
16821.43570298218
 20
6677.634866061515
 30
0.0
 11
16695.67455199811
 21
6677.634866061515
 31
0.0
  0
LINE
  5
1B28C
  8
01
 10
16531.43782905273
 20
6677.634866061515
 30
0.0
 11
16395.80341189825
 21
6677.634866061515
 31
0.0
  0
LINE
  5
1B28D
  8
01
 10
16821.43570298218
 20
6677.270947917394
 30
0.0
 11
16695.77763709762
 21
6677.270947917394
 31
0.0
  0
LINE
  5
1B28E
  8
01
 10
16531.54091415224
 20
6677.270947917394
 30
0.0
 11
16395.80341189825
 21
6677.270947917394
 31
0.0
  0
LINE
  5
1B28F
  8
01
 10
16821.43570298218
 20
6675.846974331529
 30
0.0
 11
16696.1282838393
 21
6675.846974331529
 31
0.0
  0
LINE
  5
1B290
  8
01
 10
16531.89156089392
 20
6675.846974331529
 30
0.0
 11
16395.80341189825
 21
6675.846974331529
 31
0.0
  0
LINE
  5
1B291
  8
01
 10
16821.43570298218
 20
6675.23862680867
 30
0.0
 11
16696.24978269363
 21
6675.23862680867
 31
0.0
  0
LINE
  5
1B292
  8
01
 10
16532.01305974826
 20
6675.23862680867
 30
0.0
 11
16395.80341189825
 21
6675.23862680867
 31
0.0
  0
LINE
  5
1B293
  8
01
 10
16821.43570298218
 20
6674.844801213443
 30
0.0
 11
16696.31852478984
 21
6674.844801213443
 31
0.0
  0
LINE
  5
1B294
  8
01
 10
16532.08180184446
 20
6674.844801213443
 30
0.0
 11
16395.80341189825
 21
6674.844801213443
 31
0.0
  0
LINE
  5
1B295
  8
01
 10
16821.43570298218
 20
6672.710166076071
 30
0.0
 11
16696.5399612272
 21
6672.710166076071
 31
0.0
  0
LINE
  5
1B296
  8
01
 10
16532.30323828182
 20
6672.710166076071
 30
0.0
 11
16395.80341189825
 21
6672.710166076071
 31
0.0
  0
LINE
  5
1B297
  8
01
 10
16821.43570298218
 20
6671.973817363003
 30
0.0
 11
16696.55073751544
 21
6671.973817363003
 31
0.0
  0
LINE
  5
1B298
  8
01
 10
16532.31401457006
 20
6671.973817363003
 30
0.0
 11
16395.80341189825
 21
6671.973817363003
 31
0.0
  0
LINE
  5
1B299
  8
01
 10
16821.43570298218
 20
6671.576729305263
 30
0.0
 11
16696.54120840095
 21
6671.576729305263
 31
0.0
  0
LINE
  5
1B29A
  8
01
 10
16532.30448545557
 20
6671.576729305263
 30
0.0
 11
16395.80341189825
 21
6671.576729305263
 31
0.0
  0
LINE
  5
1B29B
  8
01
 10
16821.43570298218
 20
6668.881597825577
 30
0.0
 11
16696.20651486057
 21
6668.881597825577
 31
0.0
  0
LINE
  5
1B29C
  8
01
 10
16531.96979191519
 20
6668.881597825577
 30
0.0
 11
16395.80341189825
 21
6668.881597825577
 31
0.0
  0
LINE
  5
1B29D
  8
01
 10
16821.43570298218
 20
6667.897381461244
 30
0.0
 11
16695.98602547165
 21
6667.897381461244
 31
0.0
  0
LINE
  5
1B29E
  8
01
 10
16531.74930252627
 20
6667.897381461244
 30
0.0
 11
16395.80341189825
 21
6667.897381461244
 31
0.0
  0
LINE
  5
1B29F
  8
01
 10
16821.43570298218
 20
6667.524465793875
 30
0.0
 11
16695.89148075817
 21
6667.524465793875
 31
0.0
  0
LINE
  5
1B2A0
  8
01
 10
16531.65475781279
 20
6667.524465793875
 30
0.0
 11
16395.80341189825
 21
6667.524465793875
 31
0.0
  0
LINE
  5
1B2A1
  8
01
 10
16821.43570298218
 20
6664.443439868039
 30
0.0
 11
16694.94244347711
 21
6664.443439868039
 31
0.0
  0
LINE
  5
1B2A2
  8
01
 10
16530.70572053173
 20
6664.443439868039
 30
0.0
 11
16395.80341189825
 21
6664.443439868039
 31
0.0
  0
LINE
  5
1B2A3
  8
01
 10
16821.43570298218
 20
6663.452669105103
 30
0.0
 11
16694.59772189575
 21
6663.452669105103
 31
0.0
  0
LINE
  5
1B2A4
  8
01
 10
16530.36099895037
 20
6663.452669105103
 30
0.0
 11
16395.80341189825
 21
6663.452669105103
 31
0.0
  0
LINE
  5
1B2A5
  8
01
 10
16821.43570298218
 20
6659.876885645132
 30
0.0
 11
16693.36045508983
 21
6659.876885645132
 31
0.0
  0
LINE
  5
1B2A6
  8
01
 10
16529.12373214445
 20
6659.876885645132
 30
0.0
 11
16395.80341189825
 21
6659.876885645132
 31
0.0
  0
LINE
  5
1B2A7
  8
01
 10
16821.43570298218
 20
6658.886114882196
 30
0.0
 11
16693.05262080918
 21
6658.886114882196
 31
0.0
  0
LINE
  5
1B2A8
  8
01
 10
16528.8158978638
 20
6658.886114882196
 30
0.0
 11
16395.80341189825
 21
6658.886114882196
 31
0.0
  0
LINE
  5
1B2A9
  8
01
 10
16821.43570298218
 20
6658.634031594604
 30
0.0
 11
16692.97867472427
 21
6658.634031594604
 31
0.0
  0
LINE
  5
1B2AA
  8
01
 10
16528.74195177889
 20
6658.634031594604
 30
0.0
 11
16395.80341189825
 21
6658.634031594604
 31
0.0
  0
LINE
  5
1B2AB
  8
01
 10
16821.43570298218
 20
6655.80508895636
 30
0.0
 11
16692.31521010615
 21
6655.80508895636
 31
0.0
  0
LINE
  5
1B2AC
  8
01
 10
16528.07848716077
 20
6655.80508895636
 30
0.0
 11
16395.80341189825
 21
6655.80508895636
 31
0.0
  0
LINE
  5
1B2AD
  8
01
 10
16821.43570298218
 20
6655.432173288988
 30
0.0
 11
16692.2555280756
 21
6655.432173288988
 31
0.0
  0
LINE
  5
1B2AE
  8
01
 10
16528.01880513022
 20
6655.432173288988
 30
0.0
 11
16395.80341189825
 21
6655.432173288988
 31
0.0
  0
LINE
  5
1B2AF
  8
01
 10
16821.43570298218
 20
6654.447956924654
 30
0.0
 11
16692.13179651882
 21
6654.447956924654
 31
0.0
  0
LINE
  5
1B2B0
  8
01
 10
16527.89507357344
 20
6654.447956924654
 30
0.0
 11
16395.80341189825
 21
6654.447956924654
 31
0.0
  0
LINE
  5
1B2B1
  8
01
 10
16821.43570298218
 20
6651.752825444968
 30
0.0
 11
16692.02045247227
 21
6651.752825444968
 31
0.0
  0
LINE
  5
1B2B2
  8
01
 10
16527.78372952689
 20
6651.752825444968
 30
0.0
 11
16395.80341189825
 21
6651.752825444968
 31
0.0
  0
LINE
  5
1B2B3
  8
01
 10
16821.43570298218
 20
6651.355737387232
 30
0.0
 11
16692.02938062835
 21
6651.355737387232
 31
0.0
  0
LINE
  5
1B2B4
  8
01
 10
16527.79265768297
 20
6651.355737387232
 30
0.0
 11
16395.80341189825
 21
6651.355737387232
 31
0.0
  0
LINE
  5
1B2B5
  8
01
 10
16821.43570298218
 20
6650.619388674164
 30
0.0
 11
16692.06139233946
 21
6650.619388674164
 31
0.0
  0
LINE
  5
1B2B6
  8
01
 10
16527.82466939408
 20
6650.619388674164
 30
0.0
 11
16395.80341189825
 21
6650.619388674164
 31
0.0
  0
LINE
  5
1B2B7
  8
01
 10
16821.43570298218
 20
6648.484753536792
 30
0.0
 11
16692.25693959715
 21
6648.484753536792
 31
0.0
  0
LINE
  5
1B2B8
  8
01
 10
16528.02021665177
 20
6648.484753536792
 30
0.0
 11
16395.80341189825
 21
6648.484753536792
 31
0.0
  0
LINE
  5
1B2B9
  8
01
 10
16821.43570298218
 20
6648.090927941561
 30
0.0
 11
16692.30799456891
 21
6648.090927941561
 31
0.0
  0
LINE
  5
1B2BA
  8
01
 10
16528.07127162353
 20
6648.090927941561
 30
0.0
 11
16395.80341189825
 21
6648.090927941561
 31
0.0
  0
LINE
  5
1B2BB
  8
01
 10
16821.43570298218
 20
6647.482580418706
 30
0.0
 11
16692.39503566079
 21
6647.482580418706
 31
0.0
  0
LINE
  5
1B2BC
  8
01
 10
16528.15831271541
 20
6647.482580418706
 30
0.0
 11
16395.80341189825
 21
6647.482580418706
 31
0.0
  0
LINE
  5
1B2BD
  8
01
 10
16821.43570298218
 20
6646.058606832841
 30
0.0
 11
16729.91777828073
 21
6646.058606832841
 31
0.0
  0
LINE
  5
1B2BE
  8
01
 10
16528.39726831145
 20
6646.058606832841
 30
0.0
 11
16500.28548719681
 21
6646.058606832841
 31
0.0
  0
LINE
  5
1B2BF
  8
01
 10
16821.43570298218
 20
6645.69468868872
 30
0.0
 11
16730.76482396966
 21
6645.69468868872
 31
0.0
  0
LINE
  5
1B2C0
  8
01
 10
16528.46546401071
 20
6645.69468868872
 30
0.0
 11
16501.13253288574
 21
6645.69468868872
 31
0.0
  0
LINE
  5
1B2C1
  8
01
 10
16821.43570298218
 20
6644.386784588038
 30
0.0
 11
16733.10907060076
 21
6644.386784588038
 31
0.0
  0
LINE
  5
1B2C2
  8
01
 10
16528.73111029736
 20
6644.386784588038
 30
0.0
 11
16503.47677951683
 21
6644.386784588038
 31
0.0
  0
LINE
  5
1B2C3
  8
01
 10
16822.43570298218
 20
6644.25634714256
 30
0.0
 11
16733.30289476351
 21
6644.25634714256
 31
0.0
  0
LINE
  5
1B2C4
  8
01
 10
16528.75919855978
 20
6644.25634714256
 30
0.0
 11
16513.80341189825
 21
6644.25634714256
 31
0.0
  0
LINE
  5
1B2C5
  8
01
 10
16822.43570298218
 20
6679.073207607675
 30
0.0
 11
16695.22104818502
 21
6679.073207607675
 31
0.0
  0
LINE
  5
1B2C6
  8
01
 10
16530.98432523965
 20
6679.073207607675
 30
0.0
 11
16513.80341189825
 21
6679.073207607675
 31
0.0
  0
LINE
  5
1B2C7
  8
01
 10
16821.43570298218
 20
6678.942770162197
 30
0.0
 11
16695.26494829823
 21
6678.942770162197
 31
0.0
  0
LINE
  5
1B2C8
  8
01
 10
16531.02822535285
 20
6678.942770162197
 30
0.0
 11
16395.80341189825
 21
6678.942770162197
 31
0.0
  0
LINE
  5
1B2C9
  8
01
 10
16821.43570298218
 20
6678.633559889306
 30
0.0
 11
16695.36692895768
 21
6678.633559889306
 31
0.0
  0
LINE
  5
1B2CA
  8
01
 10
16531.1302060123
 20
6678.633559889306
 30
0.0
 11
16395.80341189825
 21
6678.633559889306
 31
0.0
  0
LINE
  5
1B2CB
  8
01
 10
16821.43570298218
 20
6678.017289301595
 30
0.0
 11
16695.56087896987
 21
6678.017289301595
 31
0.0
  0
LINE
  5
1B2CC
  8
01
 10
16531.32415602449
 20
6678.017289301595
 30
0.0
 11
16513.80341189825
 21
6678.017289301595
 31
0.0
  0
LINE
  5
1B2CD
  8
01
 10
16821.43570298218
 20
6645.31226544864
 30
0.0
 11
16731.54274840566
 21
6645.31226544864
 31
0.0
  0
LINE
  5
1B2CE
  8
01
 10
16528.53994220809
 20
6645.31226544864
 30
0.0
 11
16513.80341189825
 21
6645.31226544864
 31
0.0
  0
LINE
  5
1B2CF
  8
01
 10
16821.43570298218
 20
6644.695994860926
 30
0.0
 11
16732.62590142138
 21
6644.695994860926
 31
0.0
  0
LINE
  5
1B2D0
  8
01
 10
16528.66561389262
 20
6644.695994860926
 30
0.0
 11
16502.99361033745
 21
6644.695994860926
 31
0.0
  0
LINE
  5
1B2D1
  8
01
 10
16395.80341189825
 20
6675.903850955132
 30
0.0
 11
16531.87928803804
 21
6675.903850955132
 31
0.0
  0
LINE
  5
1B2D2
  8
01
 10
16540.05060375023
 20
6675.903850955132
 30
0.0
 11
16612.2680249471
 21
6675.903850955132
 31
0.0
  0
LINE
  5
1B2D3
  8
01
 10
16395.80341189825
 20
6672.820816555482
 30
0.0
 11
16532.29853372074
 21
6672.820816555482
 31
0.0
  0
LINE
  5
1B2D4
  8
01
 10
16540.46984943294
 20
6672.820816555482
 30
0.0
 11
16612.68727062981
 21
6672.820816555482
 31
0.0
  0
LINE
  5
1B2D5
  8
01
 10
16395.80341189825
 20
6669.057880903569
 30
0.0
 11
16532.00441687572
 21
6669.057880903569
 31
0.0
  0
LINE
  5
1B2D6
  8
01
 10
16540.17573258792
 20
6669.057880903569
 30
0.0
 11
16612.39315378479
 21
6669.057880903569
 31
0.0
  0
LINE
  5
1B2D7
  8
01
 10
16395.80341189825
 20
6664.695805653872
 30
0.0
 11
16530.79164476684
 21
6664.695805653872
 31
0.0
  0
LINE
  5
1B2D8
  8
01
 10
16538.96296047904
 20
6664.695805653872
 30
0.0
 11
16611.18038167591
 21
6664.695805653872
 31
0.0
  0
LINE
  5
1B2D9
  8
01
 10
16821.43570298218
 20
6658.63374909636
 30
0.0
 11
16692.97859296498
 21
6658.63374909636
 31
0.0
  0
LINE
  5
1B2DA
  8
01
 10
16528.7418700196
 20
6658.63374909636
 30
0.0
 11
16395.80341189825
 21
6658.63374909636
 31
0.0
  0
LINE
  5
1B2DB
  8
01
 10
16821.43570298218
 20
6654.271673846662
 30
0.0
 11
16692.11462438767
 21
6654.271673846662
 31
0.0
  0
LINE
  5
1B2DC
  8
01
 10
16527.87790144229
 20
6654.271673846662
 30
0.0
 11
16395.80341189825
 21
6654.271673846662
 31
0.0
  0
LINE
  5
1B2DD
  8
01
 10
16821.43570298218
 20
6650.508738194752
 30
0.0
 11
16692.06787516813
 21
6650.508738194752
 31
0.0
  0
LINE
  5
1B2DE
  8
01
 10
16527.83115222275
 20
6650.508738194752
 30
0.0
 11
16395.80341189825
 21
6650.508738194752
 31
0.0
  0
LINE
  5
1B2DF
  8
01
 10
16821.43570298218
 20
6647.425703795103
 30
0.0
 11
16692.40366024044
 21
6647.425703795103
 31
0.0
  0
LINE
  5
1B2E0
  8
01
 10
16528.16693729506
 20
6647.425703795103
 30
0.0
 11
16395.80341189825
 21
6647.425703795103
 31
0.0
  0
LINE
  5
1B2E1
  8
01
 10
16821.43570298218
 20
6645.29259422452
 30
0.0
 11
16731.58026904969
 21
6645.29259422452
 31
0.0
  0
LINE
  5
1B2E2
  8
01
 10
16528.5438482194
 20
6645.29259422452
 30
0.0
 11
16501.94797796576
 21
6645.29259422452
 31
0.0
  0
LINE
  5
1B2E3
  8
01
 10
16395.80341189825
 20
6678.036960525711
 30
0.0
 11
16531.3181662197
 21
6678.036960525711
 31
0.0
  0
LINE
  5
1B2E4
  8
01
 10
16539.4894819319
 20
6678.036960525711
 30
0.0
 11
16611.70690312877
 21
6678.036960525711
 31
0.0
  0
LINE
  5
1B2E5
  8
01
 10
16821.43570298218
 20
6663.129145839677
 30
0.0
 11
16694.4834988931
 21
6663.129145839677
 31
0.0
  0
LINE
  5
1B2E6
  8
01
 10
16530.24677594772
 20
6663.129145839677
 30
0.0
 11
16504.54306658464
 21
6663.129145839677
 31
0.0
  0
LINE
  5
1B2E7
  8
01
 10
16821.43570298218
 20
6660.200408910554
 30
0.0
 11
16693.46606142796
 21
6660.200408910554
 31
0.0
  0
LINE
  5
1B2E8
  8
01
 10
16529.22933848258
 20
6660.200408910554
 30
0.0
 11
16504.54247929595
 21
6660.200408910554
 31
0.0
  0
ARC
  5
1B2E9
  8
01
 10
16906.17461581875
 20
6474.319096943263
 30
0.0
 40
1.500000000001045
 50
127.0468584492626
 51
232.9531415505427
  0
ARC
  5
1B2EA
  8
01
 10
16906.77091385864
 20
6478.848430232677
 30
0.0
 40
1.499999999869488
 50
102.5133253617396
 51
179.9999999974987
  0
ARC
  5
1B2EB
  8
01
 10
16906.38091385869
 20
6480.60567239003
 30
0.0
 40
0.2999999999997515
 50
282.5133253626227
 51
5.863868412586268
  0
LINE
  5
1B2EC
  8
01
 10
16906.67934409125
 20
6480.636321962543
 30
0.0
 11
16906.54890664577
 21
6481.627092725478
 31
0.0
  0
ARC
  5
1B2ED
  8
01
 10
16906.25271248371
 20
6481.579458511312
 30
0.0
 40
0.3000000000005637
 50
9.136131587592546
 51
92.4866746367579
  0
ARC
  5
1B2EE
  8
01
 10
16906.17461581875
 20
6483.377763521851
 30
0.0
 40
1.500000000000204
 50
117.5133253626776
 51
272.4866746371819
  0
ARC
  5
1B2EF
  8
01
 10
16905.34309700929
 20
6484.974189677211
 30
0.0
 40
0.3000000000017184
 50
297.513325362967
 51
20.86386841171866
  0
ARC
  5
1B2F0
  8
01
 10
16889.27091385814
 20
6478.84843023232
 30
0.0
 40
17.5000000005996
 50
20.86386841290462
 51
24.13613158713725
  0
ARC
  5
1B2F1
  8
01
 10
16904.96722959618
 20
6485.881613883584
 30
0.0
 40
0.2999999999988065
 50
24.13613158740977
 51
107.4866746369114
  0
ARC
  5
1B2F2
  8
01
 10
16904.42635842492
 20
6487.598430232557
 30
0.0
 40
1.499999999999836
 50
132.5133253628543
 51
287.4866746369709
  0
ARC
  5
1B2F3
  8
01
 10
16903.20998743871
 20
6488.925246581531
 30
0.0
 40
0.3000000000005226
 50
312.5133253634752
 51
35.86386841166517
  0
LINE
  5
1B2F4
  8
01
 10
16903.45311081511
 20
6489.101005006219
 30
0.0
 11
16902.84476329225
 21
6489.89381893351
 31
0.0
  0
ARC
  5
1B2F5
  8
01
 10
16902.61206873053
 20
6489.704469412923
 30
0.0
 40
0.2999999999993253
 50
39.13613158703201
 51
122.486674635966
  0
ARC
  5
1B2F6
  8
01
 10
16901.64528252946
 20
6491.222798903321
 30
0.0
 40
1.499999999999873
 50
147.5133253627685
 51
302.4866746369918
  0
ARC
  5
1B2F7
  8
01
 10
16900.12695303906
 20
6492.189585104396
 30
0.0
 40
0.299999999998104
 50
327.5133253626352
 51
50.8638684125889
  0
ARC
  5
1B2F8
  8
01
 10
16889.27091385868
 20
6478.848430232546
 30
0.0
 40
17.50000000001699
 50
50.86386841281585
 51
53.90768345652912
  0
ARC
  5
1B2F9
  8
01
 10
16899.40322744679
 20
6492.747215120185
 30
0.0
 40
0.299999999999569
 50
53.90768345625437
 51
137.268264713933
  0
ARC
  5
1B2FA
  8
01
 10
16898.08001313063
 20
6493.969599830744
 30
0.0
 40
1.501421801550969
 50
162.2843755464785
 51
317.2682647143593
  0
ARC
  5
1B2FB
  8
01
 10
16896.36401738715
 20
6494.517759584339
 30
0.0
 40
0.3000000000006464
 50
342.2843755471279
 51
65.64495680448454
  0
ARC
  5
1B2FC
  8
01
 10
16889.27091385867
 20
6478.848430232495
 30
0.0
 40
17.50000000006908
 50
65.64495680433686
 51
69.13613158714598
  0
ARC
  5
1B2FD
  8
01
 10
16895.39667330334
 20
6494.920613383155
 30
0.0
 40
0.2999999999997616
 50
69.1361315858387
 51
152.4866746375689
  0
ARC
  5
1B2FE
  8
01
 10
16893.80024714799
 20
6495.752132192615
 30
0.0
 40
1.499999999999949
 50
177.5133253628166
 51
332.48667463723
  0
ARC
  5
1B2FF
  8
01
 10
16892.00194213745
 20
6495.830228857573
 30
0.0
 40
0.2999999999987944
 50
357.513325363227
 51
80.86386841309344
  0
ARC
  5
1B300
  8
01
 10
16889.27091385886
 20
6478.848430233819
 30
0.0
 40
17.4999999987281
 50
80.8638684127166
 51
84.13613158729615
  0
ARC
  5
1B301
  8
01
 10
16891.02815601617
 20
6495.958430232557
 30
0.0
 40
0.2999999999994539
 50
84.13613158743148
 51
167.486674637415
  0
ARC
  5
1B302
  8
01
 10
16889.27091385869
 20
6496.348430232557
 30
0.0
 40
1.499999999999701
 50
192.5133253629166
 51
347.4866746370834
  0
ARC
  5
1B303
  8
01
 10
16887.51367170122
 20
6495.958430232557
 30
0.0
 40
0.2999999999998071
 50
12.51332536258503
 51
95.86386841255079
  0
ARC
  5
1B304
  8
01
 10
16889.27091385859
 20
6478.848430233354
 30
0.0
 40
17.49999999919532
 50
95.8638684127623
 51
99.13613158725443
  0
ARC
  5
1B305
  8
01
 10
16886.53988557994
 20
6495.830228857573
 30
0.0
 40
0.2999999999985462
 50
99.13613158690654
 51
182.4866746367729
  0
ARC
  5
1B306
  8
01
 10
16884.7415805694
 20
6495.752132192615
 30
0.0
 40
1.499999999999893
 50
207.5133253629883
 51
2.486674637183421
  0
ARC
  5
1B307
  8
01
 10
16883.14515441404
 20
6494.920613383155
 30
0.0
 40
0.2999999999992523
 50
27.51332536243108
 51
110.8638684126772
  0
ARC
  5
1B308
  8
01
 10
16889.27091385884
 20
6478.848430232226
 30
0.0
 40
17.50000000036189
 50
110.8638684128708
 51
114.3550431956336
  0
ARC
  5
1B309
  8
01
 10
16882.17781033024
 20
6494.517759584342
 30
0.0
 40
0.2999999999992308
 50
114.3550431956587
 51
197.7156244537453
  0
ARC
  5
1B30A
  8
01
 10
16880.46181458676
 20
6493.969599830744
 30
0.0
 40
1.50142180155121
 50
222.7317352856407
 51
17.71562445352152
  0
ARC
  5
1B30B
  8
01
 10
16879.1386002706
 20
6492.747215120185
 30
0.0
 40
0.2999999999996084
 50
42.73173528534038
 51
126.0923165437456
  0
ARC
  5
1B30C
  8
01
 10
16889.27091385898
 20
6478.848430232193
 30
0.0
 40
17.50000000046372
 50
126.0923165435104
 51
129.1361315871459
  0
ARC
  5
1B30D
  8
01
 10
16878.41487467833
 20
6492.189585104396
 30
0.0
 40
0.3000000000008231
 50
129.1361315878404
 51
212.4866746376578
  0
ARC
  5
1B30E
  8
01
 10
16876.89654518793
 20
6491.222798903321
 30
0.0
 40
1.499999999999913
 50
237.5133253628351
 51
32.48667463709833
  0
ARC
  5
1B30F
  8
01
 10
16875.92975898686
 20
6489.704469412923
 30
0.0
 40
0.2999999999982434
 50
57.51332536307474
 51
140.8638684121253
  0
ARC
  5
1B310
  8
01
 10
16889.27091385833
 20
6478.84843023283
 30
0.0
 40
17.49999999954519
 50
140.8638684127634
 51
144.1361315872026
  0
ARC
  5
1B311
  8
01
 10
16875.33184027868
 20
6488.925246581531
 30
0.0
 40
0.3000000000015309
 50
144.136131588194
 51
227.4866746376238
  0
ARC
  5
1B312
  8
01
 10
16874.11546929247
 20
6487.598430232557
 30
0.0
 40
1.500000000000168
 50
252.5133253628861
 51
47.48667463714575
  0
ARC
  5
1B313
  8
01
 10
16873.57459812121
 20
6485.881613883584
 30
0.0
 40
0.299999999999845
 50
72.51332536242589
 51
155.8638684124317
  0
ARC
  5
1B314
  8
01
 10
16889.27091385925
 20
6478.848430232328
 30
0.0
 40
17.50000000060036
 50
155.863868412879
 51
159.1361315871191
  0
ARC
  5
1B315
  8
01
 10
16873.19873077496
 20
6484.974189702619
 30
0.0
 40
0.3000000534253183
 50
159.1361406700471
 51
242.4866655540474
  0
ARC
  5
1B316
  8
01
 10
16872.36721189864
 20
6483.377763521851
 30
0.0
 40
1.499999999999807
 50
267.5133253629554
 51
62.48667463732244
  0
ARC
  5
1B317
  8
01
 10
16872.28911523367
 20
6481.579458511315
 30
0.0
 40
0.2999999999982512
 50
87.5133253618312
 51
170.8638684130935
  0
ARC
  5
1B318
  8
01
 10
16889.27091385877
 20
6478.848430232546
 30
0.0
 40
17.50000000007901
 50
170.8638684128368
 51
174.136131587164
  0
ARC
  5
1B319
  8
01
 10
16872.16091385869
 20
6480.60567239003
 30
0.0
 40
0.3000000000001731
 50
174.1361315874137
 51
257.4866746373773
  0
ARC
  5
1B31A
  8
01
 10
16871.77091385876
 20
6478.848430232604
 30
0.0
 40
1.49999999993841
 50
0.0000000002779211
 51
77.48667463899072
  0
ARC
  5
1B31B
  8
01
 10
16872.36458666425
 20
6474.317779539998
 30
0.0
 40
1.502633659662684
 50
307.0964895178906
 51
52.90351048178357
  0
ARC
  5
1B31C
  8
01
 10
16889.27091385896
 20
6478.848430232662
 30
0.0
 40
17.50000000028392
 50
200.8638684128461
 51
203.8955081861213
  0
ARC
  5
1B31D
  8
01
 10
16873.1987307081
 20
6472.722670787906
 30
0.0
 40
0.2999999999996049
 50
117.5133253639845
 51
200.8638684126154
  0
ARC
  5
1B31E
  8
01
 10
16872.36721189867
 20
6474.319096943219
 30
0.0
 40
1.499999999949762
 50
297.5133253625852
 51
306.711456260058
  0
ARC
  5
1B31F
  8
01
 10
16889.27091406852
 20
6478.8484303261
 30
0.0
 40
17.50000022973143
 50
203.895508187902
 51
204.1361315857565
  0
ARC
  5
1B320
  8
01
 10
16873.57459812121
 20
6471.81524658153
 30
0.0
 40
0.3000000000006109
 50
204.1361315875683
 51
287.486674636807
  0
ARC
  5
1B321
  8
01
 10
16874.11546929247
 20
6470.098430232557
 30
0.0
 40
1.499999999999864
 50
312.5133253628543
 51
107.4866746371139
  0
ARC
  5
1B322
  8
01
 10
16875.33184027868
 20
6468.771613883583
 30
0.0
 40
0.3000000000005366
 50
132.5133253634752
 51
215.8638684123538
  0
LINE
  5
1B323
  8
01
 10
16875.08871690228
 20
6468.595855458895
 30
0.0
 11
16875.69706442514
 21
6467.803041531603
 31
0.0
  0
ARC
  5
1B324
  8
01
 10
16875.92975898686
 20
6467.992391052191
 30
0.0
 40
0.300000000000578
 50
219.1361315874362
 51
302.4866746365521
  0
ARC
  5
1B325
  8
01
 10
16876.89654518793
 20
6466.474061561793
 30
0.0
 40
1.499999999999704
 50
327.5133253629016
 51
122.4866746371649
  0
ARC
  5
1B326
  8
01
 10
16878.41487467833
 20
6465.507275360717
 30
0.0
 40
0.3000000000024017
 50
147.5133253628618
 51
230.8638684122692
  0
ARC
  5
1B327
  8
01
 10
16889.27091385912
 20
6478.848430233114
 30
0.0
 40
17.50000000070263
 50
230.8638684128922
 51
233.9076834564844
  0
ARC
  5
1B328
  8
01
 10
16879.1386002706
 20
6464.949645344929
 30
0.0
 40
0.300000000000434
 50
233.9076834562543
 51
317.2682647145321
  0
ARC
  5
1B329
  8
01
 10
16880.46181458676
 20
6463.727260634369
 30
0.0
 40
1.501421801551303
 50
342.2843755464785
 51
137.2682647141631
  0
ARC
  5
1B32A
  8
01
 10
16882.1778103956
 20
6463.179100909824
 30
0.0
 40
0.3000000534198481
 50
162.2843846302555
 51
245.6449477198426
  0
ARC
  5
1B32B
  8
01
 10
16889.27091385876
 20
6478.84843023271
 30
0.0
 40
17.50000000016589
 50
245.6449568043499
 51
249.1361315871518
  0
ARC
  5
1B32C
  8
01
 10
16883.14515441404
 20
6462.776247081959
 30
0.0
 40
0.2999999999993646
 50
249.1361315873228
 51
332.4866746375689
  0
ARC
  5
1B32D
  8
01
 10
16884.7415805694
 20
6461.944728272499
 30
0.0
 40
1.499999999999537
 50
357.5133253628166
 51
152.4866746371042
  0
ARC
  5
1B32E
  8
01
 10
16886.53988557994
 20
6461.866631607541
 30
0.0
 40
0.2999999999998956
 50
177.5133253632271
 51
260.8638684131211
  0
ARC
  5
1B32F
  8
01
 10
16889.27091385865
 20
6478.848430232171
 30
0.0
 40
17.4999999996111
 50
260.8638684127834
 51
264.1361315871981
  0
ARC
  5
1B330
  8
01
 10
16887.51367170122
 20
6461.738430232556
 30
0.0
 40
0.3000000000001425
 50
264.1361315874492
 51
347.486674637415
  0
ARC
  5
1B331
  8
01
 10
16889.27091385869
 20
6461.348430232557
 30
0.0
 40
1.500000000000021
 50
12.51332536291656
 51
167.4866746370834
  0
ARC
  5
1B332
  8
01
 10
16891.02815601617
 20
6461.738430232556
 30
0.0
 40
0.2999999999998071
 50
192.513325362585
 51
275.8638684125508
  0
ARC
  5
1B333
  8
01
 10
16889.27091385867
 20
6478.848430232728
 30
0.0
 40
17.50000000017231
 50
275.8638684128408
 51
279.1361315871503
  0
ARC
  5
1B334
  8
01
 10
16892.00194213745
 20
6461.866631607541
 30
0.0
 40
0.2999999999994402
 50
279.1361315868789
 51
2.48667463677296
  0
ARC
  5
1B335
  8
01
 10
16893.80024714799
 20
6461.944728272499
 30
0.0
 40
1.499999999999898
 50
27.51332536277
 51
182.4866746371834
  0
ARC
  5
1B336
  8
01
 10
16895.39667330334
 20
6462.776247081963
 30
0.0
 40
0.2999999999999445
 50
207.5133253632013
 51
290.8638684133883
  0
ARC
  5
1B337
  8
01
 10
16889.27091385883
 20
6478.848430232226
 30
0.0
 40
17.49999999964351
 50
290.8638684127991
 51
294.3550431957054
  0
ARC
  5
1B338
  8
01
 10
16896.36401732179
 20
6463.179100909824
 30
0.0
 40
0.3000000534197662
 50
294.3550522809336
 51
17.71561536974452
  0
ARC
  5
1B339
  8
01
 10
16898.08001313063
 20
6463.727260634369
 30
0.0
 40
1.501421801551383
 50
42.73173528583686
 51
197.7156244535215
  0
ARC
  5
1B33A
  8
01
 10
16899.40322745375
 20
6464.949645416114
 30
0.0
 40
0.300000053420271
 50
222.7317443694074
 51
306.0923074603622
  0
LINE
  5
1B33B
  8
01
 10
16899.57995384658
 20
6464.707224678285
 30
0.0
 11
16900.31630255965
 21
6465.274580799
 31
0.0
  0
ARC
  5
1B33C
  8
01
 10
16900.12695303906
 20
6465.507275360717
 30
0.0
 40
0.3000000000006355
 50
309.13613158795
 51
32.48667463736481
  0
ARC
  5
1B33D
  8
01
 10
16901.64528252946
 20
6466.474061561793
 30
0.0
 40
1.49999999999983
 50
57.51332536268052
 51
212.4866746372315
  0
ARC
  5
1B33E
  8
01
 10
16902.61206871911
 20
6467.992391122797
 30
0.0
 40
0.3000000534239772
 50
237.5133344457465
 51
320.863859330288
  0
ARC
  5
1B33F
  8
01
 10
16889.27091385872
 20
6478.848430232542
 30
0.0
 40
17.49999999996996
 50
320.8638684128188
 51
324.1361315871544
  0
ARC
  5
1B340
  8
01
 10
16903.20998743871
 20
6468.771613883583
 30
0.0
 40
0.3000000000004919
 50
324.1361315883348
 51
47.48667463750643
  0
ARC
  5
1B341
  8
01
 10
16904.42635842492
 20
6470.098430232557
 30
0.0
 40
1.500000000000098
 50
72.51332536288614
 51
227.4866746371457
  0
ARC
  5
1B342
  8
01
 10
16904.96722959618
 20
6471.81524658153
 30
0.0
 40
0.3000000000001161
 50
252.5133253631929
 51
335.8638684124318
  0
ARC
  5
1B343
  8
01
 10
16889.27091392587
 20
6478.848430202638
 30
0.0
 40
17.49999992646635
 50
335.8638684122901
 51
336.1044918155436
  0
ARC
  5
1B344
  8
01
 10
16906.17461601468
 20
6474.319097253422
 30
0.0
 40
1.500000365591671
 50
232.9531427149231
 51
242.4866734726045
  0
ARC
  5
1B345
  8
01
 10
16905.34309694243
 20
6472.722670762495
 30
0.0
 40
0.3000000534251577
 50
339.136140670047
 51
62.48666555327068
  0
ARC
  5
1B346
  8
01
 10
16889.27091385877
 20
6478.848430232517
 30
0.0
 40
17.49999999991072
 50
336.1044918150823
 51
339.1361315872031
  0
ARC
  5
1B347
  8
01
 10
16871.77091357976
 20
6478.848430456373
 30
0.0
 40
1.500000278934538
 50
282.5133339120345
 51
359.9999914596249
  0
ARC
  5
1B348
  8
01
 10
16872.1609139167
 20
6477.091188033232
 30
0.0
 40
0.3000000534257323
 50
102.5133344455505
 51
185.8638593295498
  0
ARC
  5
1B349
  8
01
 10
16889.27091385762
 20
6478.848430232415
 30
0.0
 40
17.4999999989204
 50
185.8638684127229
 51
189.1361315872669
  0
ARC
  5
1B34A
  8
01
 10
16872.28911527887
 20
6476.117402009238
 30
0.0
 40
0.3000000534257055
 50
189.1361406700508
 51
272.4866655546757
  0
ARC
  5
1B34B
  8
01
 10
16872.36721179241
 20
6474.319096601773
 30
0.0
 40
1.500000336556671
 50
52.95314616318243
 51
92.48667001728307
  0
ARC
  5
1B34C
  8
01
 10
16906.7709141379
 20
6478.848430456434
 30
0.0
 40
1.500000279051863
 50
180.0000085427374
 51
257.4866660785742
  0
ARC
  5
1B34D
  8
01
 10
16906.38091374269
 20
6477.091187991385
 30
0.0
 40
0.3000001068464442
 50
354.1361497526504
 51
77.48665647201501
  0
ARC
  5
1B34E
  8
01
 10
16889.27090972184
 20
6478.848430777188
 30
0.0
 40
17.50000417085102
 50
350.863868802871
 51
354.1361311971087
  0
ARC
  5
1B34F
  8
01
 10
16906.25271248371
 20
6476.117401953802
 30
0.0
 40
0.3000000000000335
 50
267.5133253625405
 51
350.8638684124074
  0
ARC
  5
1B350
  8
01
 10
16906.17461591897
 20
6474.319096621101
 30
0.0
 40
1.500000317509574
 50
87.51332972120201
 51
127.0468540910777
  0
LINE
  5
1B351
  8
1CENTER
 10
16380.0
 20
6661.664777375117
 30
0.0
 11
16529.72925430667
 21
6661.664777375117
 31
0.0
  0
LINE
  5
1B352
  8
1CENTER
 10
16493.80341189825
 20
6520.0
 30
0.0
 11
16493.80341189825
 21
6684.891906743187
 31
0.0
  0
LINE
  5
1B353
  8
01
 10
16941.7709138587
 20
6466.348430232557
 30
0.0
 11
16941.7709138587
 21
6491.348430232557
 31
0.0
  0
LINE
  5
1B355
  8
01
 10
16911.6809138587
 20
6466.348430232557
 30
0.0
 11
16941.7709138587
 21
6466.348430232557
 31
0.0
  0
LINE
  5
1B356
  8
01
 10
16911.6809138587
 20
6491.348430232557
 30
0.0
 11
16941.7709138587
 21
6491.348430232557
 31
0.0
  0
LINE
  5
1B357
  8
01
 10
16911.6809138587
 20
6466.348430232557
 30
0.0
 11
16911.6809138587
 21
6491.348430232557
 31
0.0
  0
LINE
  5
1B358
  8
01
 10
16903.63232047504
 20
6488.848430232557
 30
0.0
 11
16911.6809138587
 21
6488.848430232557
 31
0.0
  0
LINE
  5
1B359
  8
01
 10
16903.63232047504
 20
6468.848430232557
 30
0.0
 11
16911.6809138587
 21
6468.848430232557
 31
0.0
  0
ARC
  5
1B35A
  8
01
 10
16889.27091385869
 20
6478.848430232557
 30
0.0
 40
17.50000000000096
 50
325.1500954209559
 51
34.84990457904408
  0
LINE
  5
1B35B
  8
01
 10
16481.30341189825
 20
6639.254777375114
 30
0.0
 11
16481.30341189825
 21
6609.164777375114
 31
0.0
  0
LINE
  5
1B35C
  8
01
 10
16506.30341189825
 20
6639.254777375114
 30
0.0
 11
16506.30341189825
 21
6609.164777375114
 31
0.0
  0
LINE
  5
1B35D
  8
01
 10
16481.30341189825
 20
6639.254777375114
 30
0.0
 11
16506.30341189825
 21
6639.254777375114
 31
0.0
  0
ARC
  5
1B35E
  8
01
 10
16493.80341189825
 20
6629.803370758773
 30
0.0
 40
17.49999999999807
 50
55.15009542094911
 51
124.8499045790509
  0
LINE
  5
1B35F
  8
01
 10
16486.47429091076
 20
6645.69468868872
 30
0.0
 11
16395.80341189825
 21
6645.69468868872
 31
0.0
  0
LINE
  5
1B360
  8
01
 10
16487.32133659969
 20
6646.058606832841
 30
0.0
 11
16395.80341189825
 21
6646.058606832841
 31
0.0
  0
LINE
  5
1B361
  8
01
 10
16484.13004427966
 20
6644.386784588038
 30
0.0
 11
16395.80341189825
 21
6644.386784588038
 31
0.0
  0
LINE
  5
1B362
  8
01
 10
16485.65884583073
 20
6645.29259422452
 30
0.0
 11
16395.80341189825
 21
6645.29259422452
 31
0.0
  0
LINE
  5
1B363
  8
01
 10
16484.61321345904
 20
6644.695994860926
 30
0.0
 11
16395.80341189825
 21
6644.695994860926
 31
0.0
  0
LINE
  5
1B364
  8
01
 10
16483.93392119157
 20
6644.254777375114
 30
0.0
 11
16394.80341189825
 21
6644.254777375114
 31
0.0
  0
LINE
  5
1B365
  8
01
 10
16483.80341189825
 20
6644.164777375116
 30
0.0
 11
16483.80341189825
 21
6639.254777375114
 31
0.0
  0
LINE
  5
1B366
  8
01
 10
16503.80341189825
 20
6644.164777375116
 30
0.0
 11
16503.80341189825
 21
6639.254777375114
 31
0.0
  0
LINE
  5
1B367
  8
01
 10
16596.58779339648
 20
6644.254777375112
 30
0.0
 11
16586.45728410315
 21
6644.254777375112
 31
0.0
  0
LINE
  5
1B368
  8
1CENTER
 10
16576.58779339648
 20
6524.669538509166
 30
0.0
 11
16576.58779339648
 21
6684.891906743185
 31
0.0
  0
LINE
  5
1B369
  8
01
 10
16564.08779339648
 20
6639.254777375112
 30
0.0
 11
16564.08779339648
 21
6609.164777375112
 31
0.0
  0
LINE
  5
1B36A
  8
01
 10
16589.08779339648
 20
6639.254777375112
 30
0.0
 11
16589.08779339648
 21
6609.164777375112
 31
0.0
  0
LINE
  5
1B36B
  8
01
 10
16564.08779339648
 20
6639.254777375112
 30
0.0
 11
16589.08779339648
 21
6639.254777375112
 31
0.0
  0
ARC
  5
1B36C
  8
01
 10
16576.58779339648
 20
6629.803370758771
 30
0.0
 40
17.49999999999807
 50
55.15009542094911
 51
124.8499045790509
  0
LINE
  5
1B36D
  8
01
 10
16566.58779339648
 20
6644.164777375114
 30
0.0
 11
16566.58779339648
 21
6639.254777375112
 31
0.0
  0
LINE
  5
1B36E
  8
01
 10
16586.58779339648
 20
6644.164777375114
 30
0.0
 11
16586.58779339648
 21
6639.254777375112
 31
0.0
  0
LINE
  5
1B36F
  8
01
 10
16675.89359995388
 20
6644.254777375112
 30
0.0
 11
16665.76309066056
 21
6644.254777375112
 31
0.0
  0
LINE
  5
1B370
  8
1CENTER
 10
16655.89359995388
 20
6526.749600624034
 30
0.0
 11
16655.89359995388
 21
6684.891906743185
 31
0.0
  0
LINE
  5
1B371
  8
01
 10
16643.39359995388
 20
6639.254777375112
 30
0.0
 11
16643.39359995388
 21
6609.164777375112
 31
0.0
  0
LINE
  5
1B372
  8
01
 10
16668.39359995388
 20
6639.254777375112
 30
0.0
 11
16668.39359995388
 21
6609.164777375112
 31
0.0
  0
LINE
  5
1B373
  8
01
 10
16643.39359995388
 20
6639.254777375112
 30
0.0
 11
16668.39359995388
 21
6639.254777375112
 31
0.0
  0
ARC
  5
1B374
  8
01
 10
16655.89359995388
 20
6629.803370758771
 30
0.0
 40
17.49999999999807
 50
55.15009542094911
 51
124.8499045790509
  0
LINE
  5
1B375
  8
01
 10
16645.89359995388
 20
6644.164777375114
 30
0.0
 11
16645.89359995388
 21
6639.254777375112
 31
0.0
  0
LINE
  5
1B376
  8
01
 10
16665.89359995388
 20
6644.164777375114
 30
0.0
 11
16665.89359995388
 21
6639.254777375112
 31
0.0
  0
LINE
  5
1B377
  8
01
 10
16743.43570298218
 20
6644.25477737511
 30
0.0
 11
16733.30519368886
 21
6644.25477737511
 31
0.0
  0
LINE
  5
1B378
  8
1CENTER
 10
16723.43570298218
 20
6523.650087309754
 30
0.0
 11
16723.43570298218
 21
6684.891906743183
 31
0.0
  0
LINE
  5
1B379
  8
01
 10
16710.93570298218
 20
6639.25477737511
 30
0.0
 11
16710.93570298218
 21
6609.16477737511
 31
0.0
  0
LINE
  5
1B37A
  8
01
 10
16735.93570298218
 20
6639.25477737511
 30
0.0
 11
16735.93570298218
 21
6609.16477737511
 31
0.0
  0
LINE
  5
1B37B
  8
01
 10
16710.93570298218
 20
6639.25477737511
 30
0.0
 11
16735.93570298218
 21
6639.25477737511
 31
0.0
  0
ARC
  5
1B37C
  8
01
 10
16723.43570298218
 20
6629.803370758769
 30
0.0
 40
17.49999999999807
 50
55.15009542094911
 51
124.8499045790509
  0
LINE
  5
1B37D
  8
01
 10
16713.43570298218
 20
6644.164777375112
 30
0.0
 11
16713.43570298218
 21
6639.25477737511
 31
0.0
  0
LINE
  5
1B37E
  8
01
 10
16733.43570298218
 20
6644.164777375112
 30
0.0
 11
16733.43570298218
 21
6639.25477737511
 31
0.0
  0
LINE
  5
1B37F
  8
01
 10
16481.30341189825
 20
6609.164777375114
 30
0.0
 11
16506.30341189825
 21
6609.164777375114
 31
0.0
  0
LINE
  5
1B380
  8
01
 10
16564.08779339648
 20
6609.164777375114
 30
0.0
 11
16589.08779339648
 21
6609.164777375114
 31
0.0
  0
LINE
  5
1B381
  8
01
 10
16643.39359995388
 20
6609.164777375114
 30
0.0
 11
16668.39359995388
 21
6609.164777375114
 31
0.0
  0
LINE
  5
1B382
  8
01
 10
16710.93570298218
 20
6609.164777375114
 30
0.0
 11
16735.93570298218
 21
6609.164777375114
 31
0.0
  0
LINE
  5
1B387
  8
01
 10
16393.80341189825
 20
6678.074777375117
 30
0.0
 11
16393.80341189825
 21
6645.254777375114
 31
0.0
  0
LINE
  5
1B388
  8
01
 10
16823.43570298218
 20
6678.073207607675
 30
0.0
 11
16823.43570298218
 21
6645.25634714256
 31
0.0
  0
LINE
  5
1B389
  8
01
 10
16821.43570298218
 20
6679.073207607675
 30
0.0
 11
16821.43570298218
 21
6644.25634714256
 31
0.0
  0
LINE
  5
1B38A
  8
01
 10
16822.43570298218
 20
6644.25634714256
 30
0.0
 11
16823.43570298218
 21
6645.25634714256
 31
0.0
  0
LINE
  5
1B38B
  8
01
 10
16822.43570298218
 20
6679.073207607675
 30
0.0
 11
16823.43570298218
 21
6678.073207607675
 31
0.0
  0
LINE
  5
1B38C
  8
01
 10
16822.43570298218
 20
6679.073207607675
 30
0.0
 11
16822.43570298218
 21
6644.25634714256
 31
0.0
  0
LINE
  5
1B38D
  8
01
 10
16395.80341189825
 20
6679.074777375117
 30
0.0
 11
16395.80341189825
 21
6644.254777375114
 31
0.0
  0
LINE
  5
1B38E
  8
01
 10
16394.80341189825
 20
6644.254777375114
 30
0.0
 11
16393.80341189825
 21
6645.254777375114
 31
0.0
  0
LINE
  5
1B38F
  8
01
 10
16394.80341189825
 20
6679.074777375117
 30
0.0
 11
16393.80341189825
 21
6678.074777375117
 31
0.0
  0
LINE
  5
1B390
  8
01
 10
16394.80341189825
 20
6679.074777375117
 30
0.0
 11
16394.80341189825
 21
6644.254777375114
 31
0.0
  0
LINE
  5
1B391
  8
1DIM
 10
16383.52978356192
 20
6609.164777375114
 30
0.0
 11
16785.92987772829
 21
6609.164777375114
 31
0.0
  0
LINE
  5
1B392
  8
1DIM
 10
16383.52978356192
 20
6601.164777375114
 30
0.0
 11
16785.92987772829
 21
6601.164777375114
 31
0.0
  0
LINE
  5
1B393
  8
1CENTER
 10
17002.2709138587
 20
6500.564251701378
 30
0.0
 11
17002.2709138587
 21
6457.860041151035
 31
0.0
  0
LINE
  5
1B394
  8
01
 10
16400.04306657984
 20
6547.20040891055
 30
0.0
 11
16395.80341189825
 21
6547.20040891055
 31
0.0
  0
LINE
  5
1B395
  8
01
 10
16400.04306657957
 20
6550.129145839674
 30
0.0
 11
16395.80341189825
 21
6550.129145839674
 31
0.0
  0
LINE
  5
1B396
  8
01
 10
16394.80341189825
 20
6531.25477737511
 30
0.0
 11
16513.80341189825
 21
6531.25477737511
 31
0.0
  0
LINE
  5
1B397
  8
01
 10
16513.80341189825
 20
6566.074777375114
 30
0.0
 11
16503.67290260492
 21
6566.074777375114
 31
0.0
  0
CIRCLE
  5
1B398
  8
1HIDDEN
 10
17002.2709138587
 20
6478.848430232557
 30
0.0
 40
14.50000000000023
  0
LINE
  5
1B399
  8
01
 10
16504.54306658464
 20
6547.20040891055
 30
0.0
 11
16494.54306658435
 21
6547.20040891055
 31
0.0
  0
LINE
  5
1B39A
  8
01
 10
16504.54247929595
 20
6550.129145839674
 30
0.0
 11
16494.54264577107
 21
6550.129145839674
 31
0.0
  0
LINE
  5
1B39B
  8
01
 10
16494.54306658435
 20
6547.20040891055
 30
0.0
 11
16410.04306657959
 21
6547.20040891055
 31
0.0
  0
LINE
  5
1B39C
  8
01
 10
16494.54264577107
 20
6550.129145839674
 30
0.0
 11
16410.0430665793
 21
6550.129145839674
 31
0.0
  0
LINE
  5
1B39D
  8
01
 10
16410.04306657959
 20
6547.20040891055
 30
0.0
 11
16400.04306657984
 21
6547.20040891055
 31
0.0
  0
LINE
  5
1B39E
  8
01
 10
16410.0430665793
 20
6550.129145839674
 30
0.0
 11
16400.04306657957
 21
6550.129145839674
 31
0.0
  0
LINE
  5
1B39F
  8
01
 10
16821.43570298218
 20
6532.694688688713
 30
0.0
 11
16692.70142926242
 21
6532.694688688713
 31
0.0
  0
LINE
  5
1B3A0
  8
01
 10
16528.46470631704
 20
6532.694688688713
 30
0.0
 11
16395.80341189825
 21
6532.694688688713
 31
0.0
  0
LINE
  5
1B3A1
  8
01
 10
16821.43570298218
 20
6533.058606832834
 30
0.0
 11
16692.63326286055
 21
6533.058606832834
 31
0.0
  0
LINE
  5
1B3A2
  8
01
 10
16528.39653991517
 20
6533.058606832834
 30
0.0
 11
16395.80341189825
 21
6533.058606832834
 31
0.0
  0
LINE
  5
1B3A3
  8
01
 10
16821.43570298218
 20
6534.482580418698
 30
0.0
 11
16692.39443719041
 21
6534.482580418698
 31
0.0
  0
LINE
  5
1B3A4
  8
01
 10
16528.15771424503
 20
6534.482580418698
 30
0.0
 11
16395.80341189825
 21
6534.482580418698
 31
0.0
  0
LINE
  5
1B3A5
  8
01
 10
16821.43570298218
 20
6535.090927941557
 30
0.0
 11
16692.30745909563
 21
6535.090927941557
 31
0.0
  0
LINE
  5
1B3A6
  8
01
 10
16528.07073615025
 20
6535.090927941557
 30
0.0
 11
16395.80341189825
 21
6535.090927941557
 31
0.0
  0
LINE
  5
1B3A7
  8
01
 10
16821.43570298218
 20
6535.484753536784
 30
0.0
 11
16692.25644733619
 21
6535.484753536784
 31
0.0
  0
LINE
  5
1B3A8
  8
01
 10
16528.01972439082
 20
6535.484753536784
 30
0.0
 11
16395.80341189825
 21
6535.484753536784
 31
0.0
  0
LINE
  5
1B3A9
  8
01
 10
16821.43570298218
 20
6537.619388674157
 30
0.0
 11
16692.06116786974
 21
6537.619388674157
 31
0.0
  0
LINE
  5
1B3AA
  8
01
 10
16527.82444492436
 20
6537.619388674157
 30
0.0
 11
16395.80341189825
 21
6537.619388674157
 31
0.0
  0
LINE
  5
1B3AB
  8
01
 10
16821.43570298218
 20
6538.355737387225
 30
0.0
 11
16692.0292619351
 21
6538.355737387225
 31
0.0
  0
LINE
  5
1B3AC
  8
01
 10
16527.79253898972
 20
6538.355737387225
 30
0.0
 11
16395.80341189825
 21
6538.355737387225
 31
0.0
  0
LINE
  5
1B3AD
  8
01
 10
16821.43570298218
 20
6538.752825444964
 30
0.0
 11
16692.02039372986
 21
6538.752825444964
 31
0.0
  0
LINE
  5
1B3AE
  8
01
 10
16527.78367078448
 20
6538.752825444964
 30
0.0
 11
16395.80341189825
 21
6538.752825444964
 31
0.0
  0
LINE
  5
1B3AF
  8
01
 10
16821.43570298218
 20
6541.44795692465
 30
0.0
 11
16692.13219995502
 21
6541.44795692465
 31
0.0
  0
LINE
  5
1B3B0
  8
01
 10
16527.89547700964
 20
6541.44795692465
 30
0.0
 11
16395.80341189825
 21
6541.44795692465
 31
0.0
  0
LINE
  5
1B3B1
  8
01
 10
16821.43570298218
 20
6542.432173288984
 30
0.0
 11
16692.25612504152
 21
6542.432173288984
 31
0.0
  0
LINE
  5
1B3B2
  8
01
 10
16528.01940209614
 20
6542.432173288984
 30
0.0
 11
16395.80341189825
 21
6542.432173288984
 31
0.0
  0
LINE
  5
1B3B3
  8
01
 10
16821.43570298218
 20
6542.805088956353
 30
0.0
 11
16692.31588397066
 21
6542.805088956353
 31
0.0
  0
LINE
  5
1B3B4
  8
01
 10
16528.07916102528
 20
6542.805088956353
 30
0.0
 11
16395.80341189825
 21
6542.805088956353
 31
0.0
  0
LINE
  5
1B3B5
  8
01
 10
16821.43570298218
 20
6545.886114882189
 30
0.0
 11
16693.05379986258
 21
6545.886114882189
 31
0.0
  0
LINE
  5
1B3B6
  8
01
 10
16528.8170769172
 20
6545.886114882189
 30
0.0
 11
16395.80341189825
 21
6545.886114882189
 31
0.0
  0
LINE
  5
1B3B7
  8
01
 10
16821.43570298218
 20
6546.876885645124
 30
0.0
 11
16693.36173639398
 21
6546.876885645124
 31
0.0
  0
LINE
  5
1B3B8
  8
01
 10
16529.1250134486
 20
6546.876885645124
 30
0.0
 11
16395.80341189825
 21
6546.876885645124
 31
0.0
  0
LINE
  5
1B3B9
  8
01
 10
16821.43570298218
 20
6550.452669105096
 30
0.0
 11
16694.59911903304
 21
6550.452669105096
 31
0.0
  0
LINE
  5
1B3BA
  8
01
 10
16530.36239608766
 20
6550.452669105096
 30
0.0
 11
16395.80341189825
 21
6550.452669105096
 31
0.0
  0
LINE
  5
1B3BB
  8
01
 10
16821.43570298218
 20
6551.443439868031
 30
0.0
 11
16694.9438012736
 21
6551.443439868031
 31
0.0
  0
LINE
  5
1B3BC
  8
01
 10
16530.70707832823
 20
6551.443439868031
 30
0.0
 11
16395.80341189825
 21
6551.443439868031
 31
0.0
  0
LINE
  5
1B3BD
  8
01
 10
16821.43570298218
 20
6551.695523155624
 30
0.0
 11
16695.02961486198
 21
6551.695523155624
 31
0.0
  0
LINE
  5
1B3BE
  8
01
 10
16530.7928919166
 20
6551.695523155624
 30
0.0
 11
16395.80341189825
 21
6551.695523155624
 31
0.0
  0
LINE
  5
1B3BF
  8
01
 10
16821.43570298218
 20
6554.524465793867
 30
0.0
 11
16695.89251558844
 21
6554.524465793867
 31
0.0
  0
LINE
  5
1B3C0
  8
01
 10
16531.65579264307
 20
6554.524465793867
 30
0.0
 11
16395.80341189825
 21
6554.524465793867
 31
0.0
  0
LINE
  5
1B3C1
  8
01
 10
16821.43570298218
 20
6554.89738146124
 30
0.0
 11
16695.9870006059
 21
6554.89738146124
 31
0.0
  0
LINE
  5
1B3C2
  8
01
 10
16531.75027766053
 20
6554.89738146124
 30
0.0
 11
16395.80341189825
 21
6554.89738146124
 31
0.0
  0
LINE
  5
1B3C3
  8
01
 10
16821.43570298218
 20
6555.881597825573
 30
0.0
 11
16696.20731115509
 21
6555.881597825573
 31
0.0
  0
LINE
  5
1B3C4
  8
01
 10
16531.97058820972
 20
6555.881597825573
 30
0.0
 11
16395.80341189825
 21
6555.881597825573
 31
0.0
  0
LINE
  5
1B3C5
  8
01
 10
16821.43570298218
 20
6558.57672930526
 30
0.0
 11
16696.5413583964
 21
6558.57672930526
 31
0.0
  0
LINE
  5
1B3C6
  8
01
 10
16532.30463545102
 20
6558.57672930526
 30
0.0
 11
16395.80341189825
 21
6558.57672930526
 31
0.0
  0
LINE
  5
1B3C7
  8
01
 10
16821.43570298218
 20
6558.973817362996
 30
0.0
 11
16696.55077739055
 21
6558.973817362996
 31
0.0
  0
LINE
  5
1B3C8
  8
01
 10
16532.31405444517
 20
6558.973817362996
 30
0.0
 11
16395.80341189825
 21
6558.973817362996
 31
0.0
  0
LINE
  5
1B3C9
  8
01
 10
16821.43570298218
 20
6559.710166076064
 30
0.0
 11
16696.53980621087
 21
6559.710166076064
 31
0.0
  0
LINE
  5
1B3CA
  8
01
 10
16532.30308326549
 20
6559.710166076064
 30
0.0
 11
16395.80341189825
 21
6559.710166076064
 31
0.0
  0
LINE
  5
1B3CB
  8
01
 10
16821.43570298218
 20
6561.844801213436
 30
0.0
 11
16696.3178726581
 21
6561.844801213436
 31
0.0
  0
LINE
  5
1B3CC
  8
01
 10
16532.08114971272
 20
6561.844801213436
 30
0.0
 11
16395.80341189825
 21
6561.844801213436
 31
0.0
  0
LINE
  5
1B3CD
  8
01
 10
16821.43570298218
 20
6562.238626808667
 30
0.0
 11
16696.24904979719
 21
6562.238626808667
 31
0.0
  0
LINE
  5
1B3CE
  8
01
 10
16532.01232685181
 20
6562.238626808667
 30
0.0
 11
16395.80341189825
 21
6562.238626808667
 31
0.0
  0
LINE
  5
1B3CF
  8
01
 10
16821.43570298218
 20
6562.846974331522
 30
0.0
 11
16696.12743284753
 21
6562.846974331522
 31
0.0
  0
LINE
  5
1B3D0
  8
01
 10
16531.89070990216
 20
6562.846974331522
 30
0.0
 11
16395.80341189825
 21
6562.846974331522
 31
0.0
  0
LINE
  5
1B3D1
  8
01
 10
16821.43570298218
 20
6564.270947917386
 30
0.0
 11
16729.91777828073
 21
6564.270947917386
 31
0.0
  0
LINE
  5
1B3D2
  8
01
 10
16531.53981823945
 20
6564.270947917386
 30
0.0
 11
16500.28548719681
 21
6564.270947917386
 31
0.0
  0
LINE
  5
1B3D3
  8
01
 10
16821.43570298218
 20
6564.634866061508
 30
0.0
 11
16730.76482396966
 21
6564.634866061508
 31
0.0
  0
LINE
  5
1B3D4
  8
01
 10
16531.43667759453
 20
6564.634866061508
 30
0.0
 11
16501.13253288574
 21
6564.634866061508
 31
0.0
  0
LINE
  5
1B3D5
  8
01
 10
16821.43570298218
 20
6565.94277016219
 30
0.0
 11
16733.10907060076
 21
6565.94277016219
 31
0.0
  0
LINE
  5
1B3D6
  8
01
 10
16531.02689787019
 20
6565.94277016219
 30
0.0
 11
16503.47677951683
 21
6565.94277016219
 31
0.0
  0
LINE
  5
1B3D7
  8
01
 10
16822.43570298218
 20
6566.073207607667
 30
0.0
 11
16733.30289476351
 21
6566.073207607667
 31
0.0
  0
LINE
  5
1B3D8
  8
01
 10
16530.98298222321
 20
6566.073207607667
 30
0.0
 11
16513.80341189825
 21
6566.073207607667
 31
0.0
  0
LINE
  5
1B3D9
  8
01
 10
16822.43570298218
 20
6531.256347142553
 30
0.0
 11
16692.99506339437
 21
6531.256347142553
 31
0.0
  0
LINE
  5
1B3DA
  8
01
 10
16528.758340449
 20
6531.256347142553
 30
0.0
 11
16513.80341189825
 21
6531.256347142553
 31
0.0
  0
LINE
  5
1B3DB
  8
01
 10
16821.43570298218
 20
6531.38678458803
 30
0.0
 11
16692.96698324119
 21
6531.38678458803
 31
0.0
  0
LINE
  5
1B3DC
  8
01
 10
16528.73026029582
 20
6531.38678458803
 30
0.0
 11
16395.80341189825
 21
6531.38678458803
 31
0.0
  0
LINE
  5
1B3DD
  8
01
 10
16821.43570298218
 20
6531.695994860922
 30
0.0
 11
16692.90150683366
 21
6531.695994860922
 31
0.0
  0
LINE
  5
1B3DE
  8
01
 10
16528.66478388828
 20
6531.695994860922
 30
0.0
 11
16395.80341189825
 21
6531.695994860922
 31
0.0
  0
LINE
  5
1B3DF
  8
01
 10
16821.43570298218
 20
6532.312265448632
 30
0.0
 11
16692.77587837284
 21
6532.312265448632
 31
0.0
  0
LINE
  5
1B3E0
  8
01
 10
16528.53915542746
 20
6532.312265448632
 30
0.0
 11
16513.80341189825
 21
6532.312265448632
 31
0.0
  0
LINE
  5
1B3E1
  8
01
 10
16821.43570298218
 20
6565.017289301588
 30
0.0
 11
16731.54274840566
 21
6565.017289301588
 31
0.0
  0
LINE
  5
1B3E2
  8
01
 10
16531.32294927444
 20
6565.017289301588
 30
0.0
 11
16513.80341189825
 21
6565.017289301588
 31
0.0
  0
LINE
  5
1B3E3
  8
01
 10
16821.43570298218
 20
6565.633559889302
 30
0.0
 11
16732.62590142138
 21
6565.633559889302
 31
0.0
  0
LINE
  5
1B3E4
  8
01
 10
16531.12891681497
 20
6565.633559889302
 30
0.0
 11
16502.99361033745
 21
6565.633559889302
 31
0.0
  0
LINE
  5
1B3E5
  8
01
 10
16395.80341189825
 20
6534.425703795096
 30
0.0
 11
16528.16633316501
 21
6534.425703795096
 31
0.0
  0
LINE
  5
1B3E6
  8
01
 10
16536.3376488772
 20
6534.425703795096
 30
0.0
 11
16608.55507007407
 21
6534.425703795096
 31
0.0
  0
LINE
  5
1B3E7
  8
01
 10
16395.80341189825
 20
6537.508738194745
 30
0.0
 11
16527.8309124591
 21
6537.508738194745
 31
0.0
  0
LINE
  5
1B3E8
  8
01
 10
16536.0022281713
 20
6537.508738194745
 30
0.0
 11
16608.21964936817
 21
6537.508738194745
 31
0.0
  0
LINE
  5
1B3E9
  8
01
 10
16395.80341189825
 20
6541.271673846659
 30
0.0
 11
16527.87827164077
 21
6541.271673846659
 31
0.0
  0
LINE
  5
1B3EA
  8
01
 10
16536.04958735297
 20
6541.271673846659
 30
0.0
 11
16608.26700854984
 21
6541.271673846659
 31
0.0
  0
LINE
  5
1B3EB
  8
01
 10
16395.80341189825
 20
6545.633749096356
 30
0.0
 11
16528.74301828208
 21
6545.633749096356
 31
0.0
  0
LINE
  5
1B3EC
  8
01
 10
16536.91433399427
 20
6545.633749096356
 30
0.0
 11
16609.13175519115
 21
6545.633749096356
 31
0.0
  0
LINE
  5
1B3ED
  8
01
 10
16821.43570298218
 20
6551.695805653868
 30
0.0
 11
16695.02971048164
 21
6551.695805653868
 31
0.0
  0
LINE
  5
1B3EE
  8
01
 10
16530.79298753626
 20
6551.695805653868
 30
0.0
 11
16395.80341189825
 21
6551.695805653868
 31
0.0
  0
LINE
  5
1B3EF
  8
01
 10
16821.43570298218
 20
6556.057880903565
 30
0.0
 11
16696.24190083148
 21
6556.057880903565
 31
0.0
  0
LINE
  5
1B3F0
  8
01
 10
16532.0051778861
 20
6556.057880903565
 30
0.0
 11
16395.80341189825
 21
6556.057880903565
 31
0.0
  0
LINE
  5
1B3F1
  8
01
 10
16821.43570298218
 20
6559.820816555475
 30
0.0
 11
16696.53507340621
 21
6559.820816555475
 31
0.0
  0
LINE
  5
1B3F2
  8
01
 10
16532.29835046083
 20
6559.820816555475
 30
0.0
 11
16395.80341189825
 21
6559.820816555475
 31
0.0
  0
LINE
  5
1B3F3
  8
01
 10
16821.43570298218
 20
6562.903850955125
 30
0.0
 11
16696.1151493632
 21
6562.903850955125
 31
0.0
  0
LINE
  5
1B3F4
  8
01
 10
16531.87842641782
 20
6562.903850955125
 30
0.0
 11
16395.80341189825
 21
6562.903850955125
 31
0.0
  0
LINE
  5
1B3F5
  8
01
 10
16821.43570298218
 20
6565.036960525707
 30
0.0
 11
16731.58026904969
 21
6565.036960525707
 31
0.0
  0
LINE
  5
1B3F6
  8
01
 10
16531.31695670811
 20
6565.036960525707
 30
0.0
 11
16501.94797796576
 21
6565.036960525707
 31
0.0
  0
LINE
  5
1B3F7
  8
01
 10
16395.80341189825
 20
6532.292594224517
 30
0.0
 11
16528.54305998958
 21
6532.292594224517
 31
0.0
  0
LINE
  5
1B3F8
  8
01
 10
16536.71437570177
 20
6532.292594224517
 30
0.0
 11
16608.93179689865
 21
6532.292594224517
 31
0.0
  0
LINE
  5
1B3F9
  8
01
 10
16821.43570298218
 20
6547.20040891055
 30
0.0
 11
16693.46736960561
 21
6547.20040891055
 31
0.0
  0
LINE
  5
1B3FA
  8
01
 10
16529.23064666023
 20
6547.20040891055
 30
0.0
 11
16504.54306658464
 21
6547.20040891055
 31
0.0
  0
LINE
  5
1B3FB
  8
01
 10
16821.43570298218
 20
6550.129145839674
 30
0.0
 11
16694.48490210731
 21
6550.129145839674
 31
0.0
  0
LINE
  5
1B3FC
  8
01
 10
16530.24817916193
 20
6550.129145839674
 30
0.0
 11
16504.54247929595
 21
6550.129145839674
 31
0.0
  0
ARC
  5
1B3FD
  8
01
 10
16985.36721189864
 20
6474.319096943263
 30
0.0
 40
1.500000000001045
 50
307.0468584496101
 51
52.9531415505846
  0
ARC
  5
1B3FE
  8
01
 10
16984.77091385876
 20
6478.848430232677
 30
0.0
 40
1.499999999869488
 50
0.00000000250129
 51
77.48667463826042
  0
ARC
  5
1B3FF
  8
01
 10
16985.1609138587
 20
6480.60567239003
 30
0.0
 40
0.2999999999997515
 50
174.1361315874137
 51
257.4866746373773
  0
LINE
  5
1B400
  8
01
 10
16984.86248362614
 20
6480.636321962543
 30
0.0
 11
16984.99292107162
 21
6481.627092725478
 31
0.0
  0
ARC
  5
1B401
  8
01
 10
16985.28911523369
 20
6481.579458511312
 30
0.0
 40
0.3000000000005637
 50
87.51332536324212
 51
170.8638684124075
  0
ARC
  5
1B402
  8
01
 10
16985.36721189864
 20
6483.377763521851
 30
0.0
 40
1.500000000000204
 50
267.5133253628181
 51
62.48667463718316
  0
ARC
  5
1B403
  8
01
 10
16986.19873070811
 20
6484.974189677211
 30
0.0
 40
0.3000000000017184
 50
159.136131588119
 51
242.486674637033
  0
ARC
  5
1B404
  8
01
 10
17002.27091385925
 20
6478.84843023232
 30
0.0
 40
17.5000000005996
 50
155.8638684128525
 51
159.1361315870926
  0
ARC
  5
1B405
  8
01
 10
16986.57459812121
 20
6485.881613883584
 30
0.0
 40
0.2999999999988065
 50
72.51332536308857
 51
155.8638684119891
  0
ARC
  5
1B406
  8
01
 10
16987.11546929247
 20
6487.598430232557
 30
0.0
 40
1.499999999999836
 50
252.5133253630291
 51
47.48667463699638
  0
ARC
  5
1B407
  8
01
 10
16988.33184027869
 20
6488.925246581531
 30
0.0
 40
0.3000000000005226
 50
144.1361315876462
 51
227.4866746372717
  0
LINE
  5
1B408
  8
01
 10
16988.08871690229
 20
6489.101005006219
 30
0.0
 11
16988.69706442515
 21
6489.89381893351
 31
0.0
  0
ARC
  5
1B409
  8
01
 10
16988.92975898687
 20
6489.704469412923
 30
0.0
 40
0.2999999999993253
 50
57.51332536335464
 51
140.8638684126985
  0
ARC
  5
1B40A
  8
01
 10
16989.89654518793
 20
6491.222798903321
 30
0.0
 40
1.499999999999873
 50
237.5133253630082
 51
32.48667463709833
  0
ARC
  5
1B40B
  8
01
 10
16991.41487467833
 20
6492.189585104396
 30
0.0
 40
0.299999999998104
 50
129.1361315866529
 51
212.486674638031
  0
ARC
  5
1B40C
  8
01
 10
17002.27091385871
 20
6478.848430232546
 30
0.0
 40
17.50000000001699
 50
126.0923165434709
 51
129.1361315871711
  0
ARC
  5
1B40D
  8
01
 10
16992.13860027061
 20
6492.747215120185
 30
0.0
 40
0.299999999999569
 50
42.73173528534038
 51
126.0923165429795
  0
ARC
  5
1B40E
  8
01
 10
16993.46181458677
 20
6493.969599830744
 30
0.0
 40
1.501421801550969
 50
222.7317352856407
 51
17.71562445352152
  0
ARC
  5
1B40F
  8
01
 10
16995.17781033025
 20
6494.517759584339
 30
0.0
 40
0.3000000000006464
 50
114.3550431955155
 51
197.715624452872
  0
ARC
  5
1B410
  8
01
 10
17002.27091385873
 20
6478.848430232495
 30
0.0
 40
17.50000000006908
 50
110.863868412854
 51
114.3550431956631
  0
ARC
  5
1B411
  8
01
 10
16996.14515441405
 20
6494.920613383155
 30
0.0
 40
0.2999999999997616
 50
27.51332536243108
 51
110.8638684134502
  0
ARC
  5
1B412
  8
01
 10
16997.74158056941
 20
6495.752132192615
 30
0.0
 40
1.499999999999949
 50
207.5133253628958
 51
2.486674637183421
  0
ARC
  5
1B413
  8
01
 10
16999.53988557994
 20
6495.830228857573
 30
0.0
 40
0.2999999999987944
 50
99.13613158690654
 51
182.4866746367729
  0
ARC
  5
1B414
  8
01
 10
17002.27091385853
 20
6478.848430233819
 30
0.0
 40
17.4999999987281
 50
95.86386841270387
 51
99.13613158728342
  0
ARC
  5
1B415
  8
01
 10
17000.51367170123
 20
6495.958430232557
 30
0.0
 40
0.2999999999994539
 50
12.51332536258503
 51
95.86386841256852
  0
ARC
  5
1B416
  8
01
 10
17002.2709138587
 20
6496.348430232557
 30
0.0
 40
1.499999999999701
 50
192.5133253629166
 51
347.4866746370834
  0
ARC
  5
1B417
  8
01
 10
17004.02815601617
 20
6495.958430232557
 30
0.0
 40
0.2999999999998071
 50
84.13613158744923
 51
167.486674637415
  0
ARC
  5
1B418
  8
01
 10
17002.2709138588
 20
6478.848430233354
 30
0.0
 40
17.49999999919532
 50
80.86386841274557
 51
84.13613158723771
  0
ARC
  5
1B419
  8
01
 10
17005.00194213746
 20
6495.830228857573
 30
0.0
 40
0.2999999999985462
 50
357.513325363227
 51
80.86386841309344
  0
ARC
  5
1B41A
  8
01
 10
17006.800247148
 20
6495.752132192615
 30
0.0
 40
1.499999999999893
 50
177.5133253628166
 51
332.4866746370117
  0
ARC
  5
1B41B
  8
01
 10
17008.39667330335
 20
6494.920613383155
 30
0.0
 40
0.2999999999992523
 50
69.13613158732278
 51
152.4866746375689
  0
ARC
  5
1B41C
  8
01
 10
17002.27091385856
 20
6478.848430232226
 30
0.0
 40
17.50000000036189
 50
65.64495680436643
 51
69.13613158712919
  0
ARC
  5
1B41D
  8
01
 10
17009.36401738715
 20
6494.517759584342
 30
0.0
 40
0.2999999999992308
 50
342.2843755462546
 51
65.64495680356505
  0
ARC
  5
1B41E
  8
01
 10
17011.08001313064
 20
6493.969599830744
 30
0.0
 40
1.50142180155121
 50
162.2843755464785
 51
317.2682647143593
  0
ARC
  5
1B41F
  8
01
 10
17012.40322744679
 20
6492.747215120185
 30
0.0
 40
0.2999999999996084
 50
53.90768345625437
 51
137.268264713933
  0
ARC
  5
1B420
  8
01
 10
17002.27091385841
 20
6478.848430232193
 30
0.0
 40
17.50000000046372
 50
50.86386841285405
 51
53.90768345647649
  0
ARC
  5
1B421
  8
01
 10
17013.12695303906
 20
6492.189585104396
 30
0.0
 40
0.3000000000008231
 50
327.5133253630084
 51
50.86386841215961
  0
ARC
  5
1B422
  8
01
 10
17014.64528252947
 20
6491.222798903321
 30
0.0
 40
1.499999999999913
 50
147.5133253627685
 51
302.4866746373195
  0
ARC
  5
1B423
  8
01
 10
17015.61206873054
 20
6489.704469412923
 30
0.0
 40
0.2999999999982434
 50
39.13613158716674
 51
122.4866746369253
  0
ARC
  5
1B424
  8
01
 10
17002.27091385906
 20
6478.84843023283
 30
0.0
 40
17.49999999954519
 50
35.86386841279739
 51
39.13613158722443
  0
ARC
  5
1B425
  8
01
 10
17016.20998743871
 20
6488.925246581531
 30
0.0
 40
0.3000000000015309
 50
312.5133253631231
 51
35.86386841180593
  0
ARC
  5
1B426
  8
01
 10
17017.42635842493
 20
6487.598430232557
 30
0.0
 40
1.500000000000168
 50
132.5133253628543
 51
287.4866746371139
  0
ARC
  5
1B427
  8
01
 10
17017.96722959619
 20
6485.881613883584
 30
0.0
 40
0.299999999999845
 50
24.13613158756828
 51
107.4866746375741
  0
ARC
  5
1B428
  8
01
 10
17002.27091385814
 20
6478.848430232328
 30
0.0
 40
17.50000000060036
 50
20.86386841287812
 51
24.13613158711064
  0
ARC
  5
1B429
  8
01
 10
17018.34309694244
 20
6484.974189702619
 30
0.0
 40
0.3000000534253183
 50
297.5133344466491
 51
20.8638593299529
  0
ARC
  5
1B42A
  8
01
 10
17019.17461581876
 20
6483.377763521851
 30
0.0
 40
1.499999999999807
 50
117.5133253626776
 51
272.4866746370446
  0
ARC
  5
1B42B
  8
01
 10
17019.25271248372
 20
6481.579458511315
 30
0.0
 40
0.2999999999982512
 50
9.136131586906558
 51
92.4866746381688
  0
ARC
  5
1B42C
  8
01
 10
17002.27091385862
 20
6478.848430232546
 30
0.0
 40
17.50000000007901
 50
5.863868412836027
 51
9.136131587163199
  0
ARC
  5
1B42D
  8
01
 10
17019.3809138587
 20
6480.60567239003
 30
0.0
 40
0.3000000000001731
 50
282.5133253626227
 51
5.863868412586268
  0
ARC
  5
1B42E
  8
01
 10
17019.77091385864
 20
6478.848430232604
 30
0.0
 40
1.49999999993841
 50
102.5133253610093
 51
179.9999999997221
  0
ARC
  5
1B42F
  8
01
 10
17019.17724105315
 20
6474.317779539998
 30
0.0
 40
1.502633659662684
 50
127.096489518064
 51
232.9035104821094
  0
ARC
  5
1B430
  8
01
 10
17002.27091385844
 20
6478.848430232662
 30
0.0
 40
17.50000000028392
 50
336.1044918138787
 51
339.1361315871637
  0
ARC
  5
1B431
  8
01
 10
17018.3430970093
 20
6472.722670787906
 30
0.0
 40
0.2999999999996049
 50
339.1361315873846
 51
62.48667463601551
  0
ARC
  5
1B432
  8
01
 10
17019.17461581873
 20
6474.319096943219
 30
0.0
 40
1.499999999949762
 50
233.2885437400949
 51
242.4866746374148
  0
ARC
  5
1B433
  8
01
 10
17002.27091364888
 20
6478.8484303261
 30
0.0
 40
17.50000022973143
 50
335.8638684142435
 51
336.1044918121035
  0
ARC
  5
1B434
  8
01
 10
17017.96722959619
 20
6471.81524658153
 30
0.0
 40
0.3000000000006109
 50
252.5133253631929
 51
335.8638684124318
  0
ARC
  5
1B435
  8
01
 10
17017.42635842493
 20
6470.098430232557
 30
0.0
 40
1.499999999999864
 50
72.51332536288614
 51
227.4866746371457
  0
ARC
  5
1B436
  8
01
 10
17016.20998743871
 20
6468.771613883583
 30
0.0
 40
0.3000000000005366
 50
324.1361315883348
 51
47.48667463652475
  0
LINE
  5
1B437
  8
01
 10
17016.45311081511
 20
6468.595855458895
 30
0.0
 11
17015.84476329225
 21
6467.803041531603
 31
0.0
  0
ARC
  5
1B438
  8
01
 10
17015.61206873054
 20
6467.992391052191
 30
0.0
 40
0.300000000000578
 50
237.5133253634479
 51
320.8638684132717
  0
ARC
  5
1B439
  8
01
 10
17014.64528252947
 20
6466.474061561793
 30
0.0
 40
1.499999999999704
 50
57.51332536268052
 51
212.4866746372315
  0
ARC
  5
1B43A
  8
01
 10
17013.12695303906
 20
6465.507275360717
 30
0.0
 40
0.3000000000024017
 50
309.1361315877307
 51
32.48667463713815
  0
ARC
  5
1B43B
  8
01
 10
17002.27091385827
 20
6478.848430233114
 30
0.0
 40
17.50000000070263
 50
306.0923165435156
 51
309.1361315871078
  0
ARC
  5
1B43C
  8
01
 10
17012.40322744679
 20
6464.949645344929
 30
0.0
 40
0.300000000000434
 50
222.7317352854679
 51
306.0923165437457
  0
ARC
  5
1B43D
  8
01
 10
17011.08001313064
 20
6463.727260634369
 30
0.0
 40
1.501421801551303
 50
42.73173528569167
 51
197.7156244535215
  0
ARC
  5
1B43E
  8
01
 10
17009.36401732179
 20
6463.179100909824
 30
0.0
 40
0.3000000534198481
 50
294.3550522809336
 51
17.71561536974452
  0
ARC
  5
1B43F
  8
01
 10
17002.27091385864
 20
6478.84843023271
 30
0.0
 40
17.50000000016589
 50
290.8638684128482
 51
294.3550431956501
  0
ARC
  5
1B440
  8
01
 10
17008.39667330335
 20
6462.776247081959
 30
0.0
 40
0.2999999999993646
 50
207.5133253624311
 51
290.8638684126772
  0
ARC
  5
1B441
  8
01
 10
17006.800247148
 20
6461.944728272499
 30
0.0
 40
1.499999999999537
 50
27.51332536283419
 51
182.4866746371834
  0
ARC
  5
1B442
  8
01
 10
17005.00194213746
 20
6461.866631607541
 30
0.0
 40
0.2999999999998956
 50
279.1361315868789
 51
2.48667463677296
  0
ARC
  5
1B443
  8
01
 10
17002.27091385875
 20
6478.848430232171
 30
0.0
 40
17.4999999996111
 50
275.8638684128019
 51
279.1361315872166
  0
ARC
  5
1B444
  8
01
 10
17004.02815601617
 20
6461.738430232556
 30
0.0
 40
0.3000000000001425
 50
192.513325362585
 51
275.8638684125508
  0
ARC
  5
1B445
  8
01
 10
17002.2709138587
 20
6461.348430232557
 30
0.0
 40
1.500000000000021
 50
12.51332536291656
 51
167.4866746370834
  0
ARC
  5
1B446
  8
01
 10
17000.51367170123
 20
6461.738430232556
 30
0.0
 40
0.2999999999998071
 50
264.1361315874492
 51
347.486674637415
  0
ARC
  5
1B447
  8
01
 10
17002.27091385872
 20
6478.848430232728
 30
0.0
 40
17.50000000017231
 50
260.8638684128497
 51
264.1361315871592
  0
ARC
  5
1B448
  8
01
 10
16999.53988557994
 20
6461.866631607541
 30
0.0
 40
0.2999999999994402
 50
177.5133253632271
 51
260.8638684131211
  0
ARC
  5
1B449
  8
01
 10
16997.74158056941
 20
6461.944728272499
 30
0.0
 40
1.499999999999898
 50
357.5133253628166
 51
152.4866746371042
  0
ARC
  5
1B44A
  8
01
 10
16996.14515441405
 20
6462.776247081963
 30
0.0
 40
0.2999999999999445
 50
249.1361315873228
 51
332.4866746371067
  0
ARC
  5
1B44B
  8
01
 10
17002.27091385856
 20
6478.848430232226
 30
0.0
 40
17.49999999964351
 50
245.6449568042946
 51
249.1361315872009
  0
ARC
  5
1B44C
  8
01
 10
16995.17781039561
 20
6463.179100909824
 30
0.0
 40
0.3000000534197662
 50
162.2843846302555
 51
245.644947719771
  0
ARC
  5
1B44D
  8
01
 10
16993.46181458676
 20
6463.727260634369
 30
0.0
 40
1.501421801551383
 50
342.2843755465116
 51
137.2682647141631
  0
ARC
  5
1B44E
  8
01
 10
16992.13860026364
 20
6464.949645416114
 30
0.0
 40
0.300000053420271
 50
233.9076925396378
 51
317.2682556313193
  0
LINE
  5
1B44F
  8
01
 10
16991.96187387082
 20
6464.707224678285
 30
0.0
 11
16991.22552515775
 21
6465.274580799
 31
0.0
  0
ARC
  5
1B450
  8
01
 10
16991.41487467834
 20
6465.507275360717
 30
0.0
 40
0.3000000000006355
 50
147.5133253623422
 51
230.8638684128081
  0
ARC
  5
1B451
  8
01
 10
16989.89654518794
 20
6466.474061561793
 30
0.0
 40
1.49999999999983
 50
327.5133253629016
 51
122.4866746371649
  0
ARC
  5
1B452
  8
01
 10
16988.92975899829
 20
6467.992391122797
 30
0.0
 40
0.3000000534239772
 50
219.136140669712
 51
302.4866655542535
  0
ARC
  5
1B453
  8
01
 10
17002.27091385867
 20
6478.848430232542
 30
0.0
 40
17.49999999996996
 50
215.8638684128504
 51
219.1361315871934
  0
ARC
  5
1B454
  8
01
 10
16988.33184027869
 20
6468.771613883583
 30
0.0
 40
0.3000000000004919
 50
132.5133253624936
 51
215.8638684123538
  0
ARC
  5
1B455
  8
01
 10
16987.11546929247
 20
6470.098430232557
 30
0.0
 40
1.500000000000098
 50
312.5133253630036
 51
107.4866746371139
  0
ARC
  5
1B456
  8
01
 10
16986.57459812121
 20
6471.81524658153
 30
0.0
 40
0.3000000000001161
 50
204.1361315875683
 51
287.486674636807
  0
ARC
  5
1B457
  8
01
 10
17002.27091379153
 20
6478.848430202638
 30
0.0
 40
17.49999992646635
 50
203.8955081844591
 51
204.1361315877099
  0
ARC
  5
1B458
  8
01
 10
16985.36721170272
 20
6474.319097253422
 30
0.0
 40
1.500000365591671
 50
297.5133265273956
 51
307.0468572850769
  0
ARC
  5
1B459
  8
01
 10
16986.19873077497
 20
6472.722670762495
 30
0.0
 40
0.3000000534251577
 50
117.5133344459526
 51
200.8638593299529
  0
ARC
  5
1B45A
  8
01
 10
17002.27091385862
 20
6478.848430232517
 30
0.0
 40
17.49999999991072
 50
200.8638684127968
 51
203.8955081849205
  0
ARC
  5
1B45B
  8
01
 10
17019.77091413764
 20
6478.848430456373
 30
0.0
 40
1.500000278934538
 50
180.0000085403751
 51
257.4866660879655
  0
ARC
  5
1B45C
  8
01
 10
17019.3809138007
 20
6477.091188033232
 30
0.0
 40
0.3000000534257323
 50
354.1361406704502
 51
77.4866655544495
  0
ARC
  5
1B45D
  8
01
 10
17002.27091385977
 20
6478.848430232415
 30
0.0
 40
17.4999999989204
 50
350.8638684127361
 51
354.1361315872771
  0
ARC
  5
1B45E
  8
01
 10
17019.25271243852
 20
6476.117402009238
 30
0.0
 40
0.3000000534257055
 50
267.5133344453243
 51
350.8638593299492
  0
ARC
  5
1B45F
  8
01
 10
17019.17461592499
 20
6474.319096601773
 30
0.0
 40
1.500000336556671
 50
87.51332998271691
 51
127.0468538368176
  0
ARC
  5
1B460
  8
01
 10
16984.7709135795
 20
6478.848430456434
 30
0.0
 40
1.500000279051863
 50
282.5133339214258
 51
359.9999914572625
  0
ARC
  5
1B461
  8
01
 10
16985.16091397471
 20
6477.091187991385
 30
0.0
 40
0.3000001068464442
 50
102.513343527985
 51
185.8638502473496
  0
ARC
  5
1B462
  8
01
 10
17002.27091799556
 20
6478.848430777188
 30
0.0
 40
17.50000417085102
 50
185.8638688028913
 51
189.136131197129
  0
ARC
  5
1B463
  8
01
 10
16985.28911523368
 20
6476.117401953802
 30
0.0
 40
0.3000000000000335
 50
189.1361315875925
 51
272.4866746374595
  0
ARC
  5
1B464
  8
01
 10
16985.36721179842
 20
6474.319096621101
 30
0.0
 40
1.500000317509574
 50
52.95314590892229
 51
92.486670278798
  0
LINE
  5
1B465
  8
1CENTER
 10
16380.0
 20
6548.66477737511
 30
0.0
 11
16529.73064360672
 21
6548.66477737511
 31
0.0
  0
LINE
  5
1B466
  8
01
 10
16949.7709138587
 20
6466.348430232557
 30
0.0
 11
16949.7709138587
 21
6491.348430232557
 31
0.0
  0
LINE
  5
1B468
  8
01
 10
16979.3609138587
 20
6466.348430232557
 30
0.0
 11
16961.77091385871
 21
6466.348430232557
 31
0.0
  0
LINE
  5
1B469
  8
01
 10
16979.3609138587
 20
6491.348430232557
 30
0.0
 11
16961.7709138587
 21
6491.348430232557
 31
0.0
  0
LINE
  5
1B46A
  8
01
 10
16979.8609138587
 20
6466.848430232557
 30
0.0
 11
16979.8609138587
 21
6490.848430232557
 31
0.0
  0
LINE
  5
1B46B
  8
01
 10
16987.90950724236
 20
6488.848430232557
 30
0.0
 11
16979.8609138587
 21
6488.848430232557
 31
0.0
  0
LINE
  5
1B46C
  8
01
 10
16987.90950724236
 20
6468.848430232557
 30
0.0
 11
16979.8609138587
 21
6468.848430232557
 31
0.0
  0
ARC
  5
1B46D
  8
01
 10
17002.2709138587
 20
6478.848430232557
 30
0.0
 40
17.50000000000096
 50
145.1500954209559
 51
214.8499045790441
  0
LINE
  5
1B46E
  8
01
 10
16481.30341189825
 20
6571.074777375114
 30
0.0
 11
16481.30341189825
 21
6601.164777375114
 31
0.0
  0
LINE
  5
1B46F
  8
01
 10
16506.30341189825
 20
6571.074777375114
 30
0.0
 11
16506.30341189825
 21
6601.164777375114
 31
0.0
  0
LINE
  5
1B470
  8
01
 10
16481.30341189825
 20
6571.074777375114
 30
0.0
 11
16506.30341189825
 21
6571.074777375114
 31
0.0
  0
ARC
  5
1B471
  8
01
 10
16493.80341189825
 20
6580.526183991455
 30
0.0
 40
17.49999999999807
 50
235.1500954209491
 51
304.8499045790509
  0
LINE
  5
1B472
  8
01
 10
16486.47429091076
 20
6564.634866061508
 30
0.0
 11
16395.80341189825
 21
6564.634866061508
 31
0.0
  0
LINE
  5
1B473
  8
01
 10
16487.32133659969
 20
6564.270947917386
 30
0.0
 11
16395.80341189825
 21
6564.270947917386
 31
0.0
  0
LINE
  5
1B474
  8
01
 10
16484.13004427966
 20
6565.94277016219
 30
0.0
 11
16395.80341189825
 21
6565.94277016219
 31
0.0
  0
LINE
  5
1B475
  8
01
 10
16485.65884583073
 20
6565.036960525707
 30
0.0
 11
16395.80341189825
 21
6565.036960525707
 31
0.0
  0
LINE
  5
1B476
  8
01
 10
16484.61321345904
 20
6565.633559889302
 30
0.0
 11
16395.80341189825
 21
6565.633559889302
 31
0.0
  0
LINE
  5
1B477
  8
01
 10
16483.93392119157
 20
6566.074777375114
 30
0.0
 11
16394.80341189825
 21
6566.074777375114
 31
0.0
  0
LINE
  5
1B478
  8
01
 10
16483.80341189825
 20
6566.164777375112
 30
0.0
 11
16483.80341189825
 21
6571.074777375114
 31
0.0
  0
LINE
  5
1B479
  8
01
 10
16503.80341189825
 20
6566.164777375112
 30
0.0
 11
16503.80341189825
 21
6571.074777375114
 31
0.0
  0
LINE
  5
1B47A
  8
01
 10
16596.58779339648
 20
6566.074777375115
 30
0.0
 11
16586.45728410315
 21
6566.074777375115
 31
0.0
  0
LINE
  5
1B47B
  8
01
 10
16564.08779339648
 20
6571.074777375115
 30
0.0
 11
16564.08779339648
 21
6601.164777375116
 31
0.0
  0
LINE
  5
1B47C
  8
01
 10
16589.08779339648
 20
6571.074777375115
 30
0.0
 11
16589.08779339648
 21
6601.164777375116
 31
0.0
  0
LINE
  5
1B47D
  8
01
 10
16564.08779339648
 20
6571.074777375115
 30
0.0
 11
16589.08779339648
 21
6571.074777375115
 31
0.0
  0
ARC
  5
1B47E
  8
01
 10
16576.58779339648
 20
6580.526183991456
 30
0.0
 40
17.49999999999807
 50
235.1500954209491
 51
304.8499045790509
  0
LINE
  5
1B47F
  8
01
 10
16566.58779339648
 20
6566.164777375114
 30
0.0
 11
16566.58779339648
 21
6571.074777375115
 31
0.0
  0
LINE
  5
1B480
  8
01
 10
16586.58779339648
 20
6566.164777375114
 30
0.0
 11
16586.58779339648
 21
6571.074777375115
 31
0.0
  0
LINE
  5
1B481
  8
01
 10
16675.89359995388
 20
6566.074777375115
 30
0.0
 11
16665.76309066056
 21
6566.074777375115
 31
0.0
  0
LINE
  5
1B482
  8
01
 10
16643.39359995388
 20
6571.074777375115
 30
0.0
 11
16643.39359995388
 21
6601.164777375116
 31
0.0
  0
LINE
  5
1B483
  8
01
 10
16668.39359995388
 20
6571.074777375115
 30
0.0
 11
16668.39359995388
 21
6601.164777375116
 31
0.0
  0
LINE
  5
1B484
  8
01
 10
16643.39359995388
 20
6571.074777375115
 30
0.0
 11
16668.39359995388
 21
6571.074777375115
 31
0.0
  0
ARC
  5
1B485
  8
01
 10
16655.89359995388
 20
6580.526183991456
 30
0.0
 40
17.49999999999807
 50
235.1500954209491
 51
304.8499045790509
  0
LINE
  5
1B486
  8
01
 10
16645.89359995388
 20
6566.164777375114
 30
0.0
 11
16645.89359995388
 21
6571.074777375115
 31
0.0
  0
LINE
  5
1B487
  8
01
 10
16665.89359995388
 20
6566.164777375114
 30
0.0
 11
16665.89359995388
 21
6571.074777375115
 31
0.0
  0
LINE
  5
1B488
  8
01
 10
16743.43570298218
 20
6566.074777375117
 30
0.0
 11
16733.30519368886
 21
6566.074777375117
 31
0.0
  0
LINE
  5
1B489
  8
01
 10
16710.93570298218
 20
6571.074777375117
 30
0.0
 11
16710.93570298218
 21
6601.164777375117
 31
0.0
  0
LINE
  5
1B48A
  8
01
 10
16735.93570298218
 20
6571.074777375117
 30
0.0
 11
16735.93570298218
 21
6601.164777375117
 31
0.0
  0
LINE
  5
1B48B
  8
01
 10
16710.93570298218
 20
6571.074777375117
 30
0.0
 11
16735.93570298218
 21
6571.074777375117
 31
0.0
  0
ARC
  5
1B48C
  8
01
 10
16723.43570298218
 20
6580.526183991458
 30
0.0
 40
17.49999999999807
 50
235.1500954209491
 51
304.8499045790509
  0
LINE
  5
1B48D
  8
01
 10
16713.43570298218
 20
6566.164777375116
 30
0.0
 11
16713.43570298218
 21
6571.074777375117
 31
0.0
  0
LINE
  5
1B48E
  8
01
 10
16733.43570298218
 20
6566.164777375116
 30
0.0
 11
16733.43570298218
 21
6571.074777375117
 31
0.0
  0
LINE
  5
1B48F
  8
01
 10
16481.30341189825
 20
6601.164777375114
 30
0.0
 11
16506.30341189825
 21
6601.164777375114
 31
0.0
  0
LINE
  5
1B490
  8
01
 10
16564.08779339648
 20
6601.164777375114
 30
0.0
 11
16589.08779339648
 21
6601.164777375114
 31
0.0
  0
LINE
  5
1B491
  8
01
 10
16643.39359995388
 20
6601.164777375114
 30
0.0
 11
16668.39359995388
 21
6601.164777375114
 31
0.0
  0
LINE
  5
1B492
  8
01
 10
16710.93570298218
 20
6601.164777375114
 30
0.0
 11
16735.93570298218
 21
6601.164777375114
 31
0.0
  0
LINE
  5
1B493
  8
01
 10
16393.80341189825
 20
6532.25477737511
 30
0.0
 11
16393.80341189825
 21
6565.074777375114
 31
0.0
  0
LINE
  5
1B494
  8
01
 10
16823.43570298218
 20
6532.256347142553
 30
0.0
 11
16823.43570298218
 21
6565.073207607667
 31
0.0
  0
LINE
  5
1B495
  8
01
 10
16821.43570298218
 20
6531.256347142553
 30
0.0
 11
16821.43570298218
 21
6566.073207607667
 31
0.0
  0
LINE
  5
1B496
  8
01
 10
16822.43570298218
 20
6566.073207607667
 30
0.0
 11
16823.43570298218
 21
6565.073207607667
 31
0.0
  0
LINE
  5
1B497
  8
01
 10
16822.43570298218
 20
6531.256347142553
 30
0.0
 11
16823.43570298218
 21
6532.256347142553
 31
0.0
  0
LINE
  5
1B498
  8
01
 10
16822.43570298218
 20
6531.256347142553
 30
0.0
 11
16822.43570298218
 21
6566.073207607667
 31
0.0
  0
LINE
  5
1B499
  8
01
 10
16395.80341189825
 20
6531.25477737511
 30
0.0
 11
16395.80341189825
 21
6566.074777375114
 31
0.0
  0
LINE
  5
1B49A
  8
01
 10
16394.80341189825
 20
6566.074777375114
 30
0.0
 11
16393.80341189825
 21
6565.074777375114
 31
0.0
  0
LINE
  5
1B49B
  8
01
 10
16394.80341189825
 20
6531.25477737511
 30
0.0
 11
16393.80341189825
 21
6532.25477737511
 31
0.0
  0
LINE
  5
1B49C
  8
01
 10
16394.80341189825
 20
6531.25477737511
 30
0.0
 11
16394.80341189825
 21
6566.074777375114
 31
0.0
  0
LINE
  5
1B49D
  8
01
 10
16566.72060161515
 20
6566.073207607667
 30
0.0
 11
16539.15429793541
 21
6566.073207607667
 31
0.0
  0
LINE
  5
1B49E
  8
01
 10
16568.48074797299
 20
6565.017289301588
 30
0.0
 11
16539.49426498663
 21
6565.017289301588
 31
0.0
  0
LINE
  5
1B49F
  8
01
 10
16566.9144257779
 20
6565.94277016219
 30
0.0
 11
16539.19821358238
 21
6565.94277016219
 31
0.0
  0
LINE
  5
1B4A0
  8
01
 10
16570.10571809792
 20
6564.270947917386
 30
0.0
 11
16539.71113395165
 21
6564.270947917386
 31
0.0
  0
LINE
  5
1B4A1
  8
01
 10
16569.25867240899
 20
6564.634866061508
 30
0.0
 11
16539.60799330672
 21
6564.634866061508
 31
0.0
  0
LINE
  5
1B4A2
  8
01
 10
16567.39759495728
 20
6565.633559889302
 30
0.0
 11
16539.30023252717
 21
6565.633559889302
 31
0.0
  0
LINE
  5
1B4A3
  8
01
 10
16568.44322732897
 20
6565.036960525707
 30
0.0
 11
16539.48827242031
 21
6565.036960525707
 31
0.0
  0
LINE
  5
1B4A4
  8
01
 10
16570.10571809792
 20
6646.058606832841
 30
0.0
 11
16536.56858402365
 21
6646.058606832841
 31
0.0
  0
LINE
  5
1B4A5
  8
01
 10
16566.72060161515
 20
6644.25634714256
 30
0.0
 11
16536.93051427198
 21
6644.25634714256
 31
0.0
  0
LINE
  5
1B4A6
  8
01
 10
16566.9144257779
 20
6644.386784588038
 30
0.0
 11
16536.90242600956
 21
6644.386784588038
 31
0.0
  0
LINE
  5
1B4A7
  8
01
 10
16569.25867240899
 20
6645.69468868872
 30
0.0
 11
16536.63677972291
 21
6645.69468868872
 31
0.0
  0
LINE
  5
1B4A8
  8
01
 10
16568.44322732897
 20
6645.29259422452
 30
0.0
 11
16536.7151639316
 21
6645.29259422452
 31
0.0
  0
LINE
  5
1B4A9
  8
01
 10
16568.48074797299
 20
6645.31226544864
 30
0.0
 11
16536.71125792029
 21
6645.31226544864
 31
0.0
  0
LINE
  5
1B4AA
  8
01
 10
16567.39759495728
 20
6644.695994860926
 30
0.0
 11
16536.83692960481
 21
6644.695994860926
 31
0.0
  0
LINE
  5
1B4AB
  8
01
 10
16649.41152465533
 20
6646.058606832841
 30
0.0
 11
16618.59033619446
 21
6646.058606832841
 31
0.0
  0
LINE
  5
1B4AC
  8
01
 10
16646.02640817255
 20
6644.25634714256
 30
0.0
 11
16618.95226644279
 21
6644.25634714256
 31
0.0
  0
LINE
  5
1B4AD
  8
01
 10
16646.2202323353
 20
6644.386784588038
 30
0.0
 11
16618.92417818037
 21
6644.386784588038
 31
0.0
  0
LINE
  5
1B4AE
  8
01
 10
16648.5644789664
 20
6645.69468868872
 30
0.0
 11
16618.65853189372
 21
6645.69468868872
 31
0.0
  0
LINE
  5
1B4AF
  8
01
 10
16647.74903388638
 20
6645.29259422452
 30
0.0
 11
16618.73691610241
 21
6645.29259422452
 31
0.0
  0
LINE
  5
1B4B0
  8
01
 10
16647.7865545304
 20
6645.31226544864
 30
0.0
 11
16618.7330100911
 21
6645.31226544864
 31
0.0
  0
LINE
  5
1B4B1
  8
01
 10
16646.70340151469
 20
6644.695994860926
 30
0.0
 11
16618.85868177562
 21
6644.695994860926
 31
0.0
  0
LINE
  5
1B4B2
  8
01
 10
16646.02640817255
 20
6566.073207607667
 30
0.0
 11
16621.17605010622
 21
6566.073207607667
 31
0.0
  0
LINE
  5
1B4B3
  8
01
 10
16647.7865545304
 20
6565.017289301588
 30
0.0
 11
16621.51601715744
 21
6565.017289301588
 31
0.0
  0
LINE
  5
1B4B4
  8
01
 10
16646.2202323353
 20
6565.94277016219
 30
0.0
 11
16621.21996575319
 21
6565.94277016219
 31
0.0
  0
LINE
  5
1B4B5
  8
01
 10
16649.41152465533
 20
6564.270947917386
 30
0.0
 11
16621.73288612246
 21
6564.270947917386
 31
0.0
  0
LINE
  5
1B4B6
  8
01
 10
16648.5644789664
 20
6564.634866061508
 30
0.0
 11
16621.62974547753
 21
6564.634866061508
 31
0.0
  0
LINE
  5
1B4B7
  8
01
 10
16646.70340151469
 20
6565.633559889302
 30
0.0
 11
16621.32198469798
 21
6565.633559889302
 31
0.0
  0
LINE
  5
1B4B8
  8
01
 10
16647.74903388638
 20
6565.036960525707
 30
0.0
 11
16621.51002459112
 21
6565.036960525707
 31
0.0
  0
LINE
  5
1B4B9
  8
01
 10
16713.56851120085
 20
6566.073207607667
 30
0.0
 11
16695.21970516859
 21
6566.073207607667
 31
0.0
  0
LINE
  5
1B4BA
  8
01
 10
16715.3286575587
 20
6565.017289301588
 30
0.0
 11
16695.55967221981
 21
6565.017289301588
 31
0.0
  0
LINE
  5
1B4BB
  8
01
 10
16713.7623353636
 20
6565.94277016219
 30
0.0
 11
16695.26362081556
 21
6565.94277016219
 31
0.0
  0
LINE
  5
1B4BC
  8
01
 10
16716.95362768363
 20
6564.270947917386
 30
0.0
 11
16695.77654118483
 21
6564.270947917386
 31
0.0
  0
LINE
  5
1B4BD
  8
01
 10
16716.1065819947
 20
6564.634866061508
 30
0.0
 11
16695.6734005399
 21
6564.634866061508
 31
0.0
  0
LINE
  5
1B4BE
  8
01
 10
16714.24550454299
 20
6565.633559889302
 30
0.0
 11
16695.36563976035
 21
6565.633559889302
 31
0.0
  0
LINE
  5
1B4BF
  8
01
 10
16715.29113691468
 20
6565.036960525707
 30
0.0
 11
16695.55367965349
 21
6565.036960525707
 31
0.0
  0
LINE
  5
1B4C0
  8
01
 10
16716.95362768363
 20
6646.058606832841
 30
0.0
 11
16692.63399125683
 21
6646.058606832841
 31
0.0
  0
LINE
  5
1B4C1
  8
01
 10
16713.56851120085
 20
6644.25634714256
 30
0.0
 11
16692.99592150516
 21
6644.25634714256
 31
0.0
  0
LINE
  5
1B4C2
  8
01
 10
16713.7623353636
 20
6644.386784588038
 30
0.0
 11
16692.96783324274
 21
6644.386784588038
 31
0.0
  0
LINE
  5
1B4C3
  8
01
 10
16716.1065819947
 20
6645.69468868872
 30
0.0
 11
16692.70218695609
 21
6645.69468868872
 31
0.0
  0
LINE
  5
1B4C4
  8
01
 10
16715.29113691468
 20
6645.29259422452
 30
0.0
 11
16692.78057116478
 21
6645.29259422452
 31
0.0
  0
LINE
  5
1B4C5
  8
01
 10
16715.3286575587
 20
6645.31226544864
 30
0.0
 11
16692.77666515347
 21
6645.31226544864
 31
0.0
  0
LINE
  5
1B4C6
  8
01
 10
16714.24550454299
 20
6644.695994860926
 30
0.0
 11
16692.90233683799
 21
6644.695994860926
 31
0.0
  0
POLYLINE
  5
1B4D7
  8
1DIM
 66
     1
 10
0.0
 20
0.0
 30
0.0
  0
VERTEX
  5
1DA01
  8
1DIM
 10
16530.98432509406
 20
6679.073208036783
 30
0.0
  0
VERTEX
  5
1DA02
  8
1DIM
 10
16531.26516422588
 20
6678.209125475771
 30
0.0
  0
VERTEX
  5
1DA03
  8
1DIM
 10
16531.52026206666
 20
6677.345325762797
 30
0.0
  0
VERTEX
  5
1DA04
  8
1DIM
 10
16531.74612598244
 20
6676.481847275293
 30
0.0
  0
VERTEX
  5
1DA05
  8
1DIM
 10
16531.93926333927
 20
6675.618728390693
 30
0.0
  0
VERTEX
  5
1DA06
  8
1DIM
 10
16532.09618150317
 20
6674.756007486428
 30
0.0
  0
VERTEX
  5
1DA07
  8
1DIM
 10
16532.21338784019
 20
6673.893722939933
 30
0.0
  0
VERTEX
  5
1DA08
  8
1DIM
 10
16532.28738971637
 20
6673.031913128637
 30
0.0
  0
VERTEX
  5
1DA09
  8
1DIM
 10
16532.31469449777
 20
6672.170616429976
 30
0.0
  0
VERTEX
  5
1DA0A
  8
1DIM
 10
16532.29185208498
 20
6671.309870299422
 30
0.0
  0
VERTEX
  5
1DA0B
  8
1DIM
 10
16532.21844955546
 20
6670.449646360108
 30
0.0
  0
VERTEX
  5
1DA0C
  8
1DIM
 10
16532.09908400683
 20
6669.589807640449
 30
0.0
  0
VERTEX
  5
1DA0D
  8
1DIM
 10
16531.93882089589
 20
6668.730207016938
 30
0.0
  0
VERTEX
  5
1DA0E
  8
1DIM
 10
16531.74272567944
 20
6667.870697366068
 30
0.0
  0
VERTEX
  5
1DA0F
  8
1DIM
 10
16531.51586381429
 20
6667.011131564333
 30
0.0
  0
VERTEX
  5
1DA10
  8
1DIM
 10
16531.26330075721
 20
6666.151362488224
 30
0.0
  0
VERTEX
  5
1DA11
  8
1DIM
 10
16530.99010196503
 20
6665.291243014234
 30
0.0
  0
VERTEX
  5
1DA12
  8
1DIM
 10
16530.70133289453
 20
6664.43062601886
 30
0.0
  0
VERTEX
  5
1DA13
  8
1DIM
 10
16530.40205900251
 20
6663.56936437859
 30
0.0
  0
VERTEX
  5
1DA14
  8
1DIM
 10
16530.09734574578
 20
6662.70731096992
 30
0.0
  0
VERTEX
  5
1DA15
  8
1DIM
 10
16529.79225858112
 20
6661.844318669341
 30
0.0
  0
VERTEX
  5
1DA16
  8
1DIM
 10
16529.49186296534
 20
6660.980240353349
 30
0.0
  0
VERTEX
  5
1DA17
  8
1DIM
 10
16529.20122435525
 20
6660.114928898434
 30
0.0
  0
VERTEX
  5
1DA18
  8
1DIM
 10
16528.92540820762
 20
6659.248237181091
 30
0.0
  0
VERTEX
  5
1DA19
  8
1DIM
 10
16528.66947997927
 20
6658.380018077813
 30
0.0
  0
VERTEX
  5
1DA1A
  8
1DIM
 10
16528.438505127
 20
6657.51012446509
 30
0.0
  0
VERTEX
  5
1DA1B
  8
1DIM
 10
16528.23754910759
 20
6656.638409219419
 30
0.0
  0
VERTEX
  5
1DA1C
  8
1DIM
 10
16528.07167726041
 20
6655.764725221524
 30
0.0
  0
VERTEX
  5
1DA1D
  8
1DIM
 10
16527.94458713949
 20
6654.888974632373
 30
0.0
  0
VERTEX
  5
1DA1E
  8
1DIM
 10
16527.85521099122
 20
6654.011231303275
 30
0.0
  0
VERTEX
  5
1DA1F
  8
1DIM
 10
16527.80144393474
 20
6653.131606452435
 30
0.0
  0
VERTEX
  5
1DA20
  8
1DIM
 10
16527.7811810891
 20
6652.250211298053
 30
0.0
  0
VERTEX
  5
1DA21
  8
1DIM
 10
16527.79231757342
 20
6651.367157058334
 30
0.0
  0
VERTEX
  5
1DA22
  8
1DIM
 10
16527.8327485068
 20
6650.482554951481
 30
0.0
  0
VERTEX
  5
1DA23
  8
1DIM
 10
16527.90036900831
 20
6649.596516195694
 30
0.0
  0
VERTEX
  5
1DA24
  8
1DIM
 10
16527.99307419706
 20
6648.709152009179
 30
0.0
  0
VERTEX
  5
1DA25
  8
1DIM
 10
16528.10875919215
 20
6647.820573610138
 30
0.0
  0
VERTEX
  5
1DA26
  8
1DIM
 10
16528.24531911266
 20
6646.930892216773
 30
0.0
  0
VERTEX
  5
1DA27
  8
1DIM
 10
16528.4006490777
 20
6646.040219047288
 30
0.0
  0
VERTEX
  5
1DA28
  8
1DIM
 10
16528.57264420635
 20
6645.148665319884
 30
0.0
  0
VERTEX
  5
1DA29
  8
1DIM
 10
16528.75919961771
 20
6644.256342252766
 30
0.0
  0
SEQEND
  5
1DD87
  8
1DIM
  0
POLYLINE
  5
1B4D8
  8
1DIM
 66
     1
 10
0.0
 20
0.0
 30
0.0
  0
VERTEX
  5
1DA2A
  8
1DIM
 10
16539.15564080617
 20
6679.073208037016
 30
0.0
  0
VERTEX
  5
1DA2B
  8
1DIM
 10
16539.43647991681
 20
6678.209125544159
 30
0.0
  0
VERTEX
  5
1DA2C
  8
1DIM
 10
16539.69157774076
 20
6677.345325899293
 30
0.0
  0
VERTEX
  5
1DA2D
  8
1DIM
 10
16539.91744164486
 20
6676.48184747984
 30
0.0
  0
VERTEX
  5
1DA2E
  8
1DIM
 10
16540.11057899599
 20
6675.618728663225
 30
0.0
  0
VERTEX
  5
1DA2F
  8
1DIM
 10
16540.26749716103
 20
6674.75600782687
 30
0.0
  0
VERTEX
  5
1DA30
  8
1DIM
 10
16540.38470350683
 20
6673.8937233482
 30
0.0
  0
VERTEX
  5
1DA31
  8
1DIM
 10
16540.45870540027
 20
6673.031913604637
 30
0.0
  0
VERTEX
  5
1DA32
  8
1DIM
 10
16540.4860102082
 20
6672.170616973607
 30
0.0
  0
VERTEX
  5
1DA33
  8
1DIM
 10
16540.46316783179
 20
6671.309870910578
 30
0.0
  0
VERTEX
  5
1DA34
  8
1DIM
 10
16540.38976534438
 20
6670.449647038783
 30
0.0
  0
VERTEX
  5
1DA35
  8
1DIM
 10
16540.27039984112
 20
6669.589808386698
 30
0.0
  0
VERTEX
  5
1DA36
  8
1DIM
 10
16540.11013677761
 20
6668.73020783085
 30
0.0
  0
VERTEX
  5
1DA37
  8
1DIM
 10
16539.91404160944
 20
6667.87069824777
 30
0.0
  0
VERTEX
  5
1DA38
  8
1DIM
 10
16539.68717979222
 20
6667.011132513981
 30
0.0
  0
VERTEX
  5
1DA39
  8
1DIM
 10
16539.43461678155
 20
6666.151363506016
 30
0.0
  0
VERTEX
  5
1DA3A
  8
1DIM
 10
16539.16141803303
 20
6665.291244100399
 30
0.0
  0
VERTEX
  5
1DA3B
  8
1DIM
 10
16538.87264900225
 20
6664.43062717366
 30
0.0
  0
VERTEX
  5
1DA3C
  8
1DIM
 10
16538.57337514481
 20
6663.569365602326
 30
0.0
  0
VERTEX
  5
1DA3D
  8
1DIM
 10
16538.26866191632
 20
6662.707312262925
 30
0.0
  0
VERTEX
  5
1DA3E
  8
1DIM
 10
16537.96357477238
 20
6661.844320031985
 30
0.0
  0
VERTEX
  5
1DA3F
  8
1DIM
 10
16537.66317916858
 20
6660.980241786035
 30
0.0
  0
VERTEX
  5
1DA40
  8
1DIM
 10
16537.37254056053
 20
6660.1149304016
 30
0.0
  0
VERTEX
  5
1DA41
  8
1DIM
 10
16537.09672440382
 20
6659.24823875521
 30
0.0
  0
VERTEX
  5
1DA42
  8
1DIM
 10
16536.84079615406
 20
6658.380019723391
 30
0.0
  0
VERTEX
  5
1DA43
  8
1DIM
 10
16536.60982126684
 20
6657.510126182674
 30
0.0
  0
VERTEX
  5
1DA44
  8
1DIM
 10
16536.40886519777
 20
6656.638411009585
 30
0.0
  0
VERTEX
  5
1DA45
  8
1DIM
 10
16536.242993285
 20
6655.764727084882
 30
0.0
  0
VERTEX
  5
1DA46
  8
1DIM
 10
16536.11590309
 20
6654.88897656926
 30
0.0
  0
VERTEX
  5
1DA47
  8
1DIM
 10
16536.02652686637
 20
6654.011233313761
 30
0.0
  0
VERTEX
  5
1DA48
  8
1DIM
 10
16535.97275973371
 20
6653.131608536561
 30
0.0
  0
VERTEX
  5
1DA49
  8
1DIM
 10
16535.95249681159
 20
6652.250213455836
 30
0.0
  0
VERTEX
  5
1DA4A
  8
1DIM
 10
16535.96363321964
 20
6651.367159289764
 30
0.0
  0
VERTEX
  5
1DA4B
  8
1DIM
 10
16536.00406407741
 20
6650.48255725652
 30
0.0
  0
VERTEX
  5
1DA4C
  8
1DIM
 10
16536.07168450453
 20
6649.596518574281
 30
0.0
  0
VERTEX
  5
1DA4D
  8
1DIM
 10
16536.16438962057
 20
6648.709154461223
 30
0.0
  0
VERTEX
  5
1DA4E
  8
1DIM
 10
16536.28007454513
 20
6647.820576135524
 30
0.0
  0
VERTEX
  5
1DA4F
  8
1DIM
 10
16536.4166343978
 20
6646.930894815358
 30
0.0
  0
VERTEX
  5
1DA50
  8
1DIM
 10
16536.57196429819
 20
6646.040221718906
 30
0.0
  0
VERTEX
  5
1DA51
  8
1DIM
 10
16536.74395936586
 20
6645.14866806434
 30
0.0
  0
VERTEX
  5
1DA52
  8
1DIM
 10
16536.93051472043
 20
6644.256345069838
 30
0.0
  0
SEQEND
  5
1DD88
  8
1DIM
  0
POLYLINE
  5
1B4D9
  8
1DIM
 66
     1
 10
0.0
 20
0.0
 30
0.0
  0
VERTEX
  5
1DA53
  8
1DIM
 10
16530.98298207647
 20
6566.073208041
 30
0.0
  0
VERTEX
  5
1DA54
  8
1DIM
 10
16531.26393229124
 20
6565.209121109594
 30
0.0
  0
VERTEX
  5
1DA55
  8
1DIM
 10
16531.51915704514
 20
6564.345316852281
 30
0.0
  0
VERTEX
  5
1DA56
  8
1DIM
 10
16531.7451636659
 20
6563.481833646917
 30
0.0
  0
VERTEX
  5
1DA57
  8
1DIM
 10
16531.93845948121
 20
6562.618709871355
 30
0.0
  0
VERTEX
  5
1DA58
  8
1DIM
 10
16532.09555181878
 20
6561.755983903448
 30
0.0
  0
VERTEX
  5
1DA59
  8
1DIM
 10
16532.21294800632
 20
6560.893694121051
 30
0.0
  0
VERTEX
  5
1DA5A
  8
1DIM
 10
16532.28715537156
 20
6560.031878902018
 30
0.0
  0
VERTEX
  5
1DA5B
  8
1DIM
 10
16532.31468124218
 20
6559.170576624201
 30
0.0
  0
VERTEX
  5
1DA5C
  8
1DIM
 10
16532.29207363272
 20
6558.309824783548
 30
0.0
  0
VERTEX
  5
1DA5D
  8
1DIM
 10
16532.21889179949
 20
6557.449595605819
 30
0.0
  0
VERTEX
  5
1DA5E
  8
1DIM
 10
16532.09972354556
 20
6556.589752320481
 30
0.0
  0
VERTEX
  5
1DA5F
  8
1DIM
 10
16531.93963438334
 20
6555.730147802416
 30
0.0
  0
VERTEX
  5
1DA60
  8
1DIM
 10
16531.7436898252
 20
6554.870634926498
 30
0.0
  0
VERTEX
  5
1DA61
  8
1DIM
 10
16531.51695538355
 20
6554.011066567609
 30
0.0
  0
VERTEX
  5
1DA62
  8
1DIM
 10
16531.26449657078
 20
6553.151295600625
 30
0.0
  0
VERTEX
  5
1DA63
  8
1DIM
 10
16530.99137889927
 20
6552.291174900426
 30
0.0
  0
VERTEX
  5
1DA64
  8
1DIM
 10
16530.70266788143
 20
6551.43055734189
 30
0.0
  0
VERTEX
  5
1DA65
  8
1DIM
 10
16530.40342902963
 20
6550.569295799895
 30
0.0
  0
VERTEX
  5
1DA66
  8
1DIM
 10
16530.09872785628
 20
6549.707243149319
 30
0.0
  0
VERTEX
  5
1DA67
  8
1DIM
 10
16529.79362987377
 20
6548.84425226504
 30
0.0
  0
VERTEX
  5
1DA68
  8
1DIM
 10
16529.49320059448
 20
6547.980176021938
 30
0.0
  0
VERTEX
  5
1DA69
  8
1DIM
 10
16529.20250553081
 20
6547.11486729489
 30
0.0
  0
VERTEX
  5
1DA6A
  8
1DIM
 10
16528.92661019515
 20
6546.248178958775
 30
0.0
  0
VERTEX
  5
1DA6B
  8
1DIM
 10
16528.6705800999
 20
6545.379963888471
 30
0.0
  0
VERTEX
  5
1DA6C
  8
1DIM
 10
16528.43948075745
 20
6544.510074958856
 30
0.0
  0
VERTEX
  5
1DA6D
  8
1DIM
 10
16528.23837768018
 20
6543.63836504481
 30
0.0
  0
VERTEX
  5
1DA6E
  8
1DIM
 10
16528.07233629411
 20
6542.764687024322
 30
0.0
  0
VERTEX
  5
1DA6F
  8
1DIM
 10
16527.94507164808
 20
6541.888942428425
 30
0.0
  0
VERTEX
  5
1DA70
  8
1DIM
 10
16527.85553069652
 20
6541.0112045789
 30
0.0
  0
VERTEX
  5
1DA71
  8
1DIM
 10
16527.80160853542
 20
6540.13158469517
 30
0.0
  0
VERTEX
  5
1DA72
  8
1DIM
 10
16527.78120026079
 20
6539.250193996657
 30
0.0
  0
VERTEX
  5
1DA73
  8
1DIM
 10
16527.79220096859
 20
6538.367143702785
 30
0.0
  0
VERTEX
  5
1DA74
  8
1DIM
 10
16527.83250575484
 20
6537.48254503298
 30
0.0
  0
VERTEX
  5
1DA75
  8
1DIM
 10
16527.90000971553
 20
6536.596509206662
 30
0.0
  0
VERTEX
  5
1DA76
  8
1DIM
 10
16527.99260794665
 20
6535.709147443255
 30
0.0
  0
VERTEX
  5
1DA77
  8
1DIM
 10
16528.10819554418
 20
6534.820570962186
 30
0.0
  0
VERTEX
  5
1DA78
  8
1DIM
 10
16528.24466760413
 20
6533.930890982874
 30
0.0
  0
VERTEX
  5
1DA79
  8
1DIM
 10
16528.3999192225
 20
6533.040218724745
 30
0.0
  0
VERTEX
  5
1DA7A
  8
1DIM
 10
16528.57184549526
 20
6532.148665407221
 30
0.0
  0
VERTEX
  5
1DA7B
  8
1DIM
 10
16528.75834151842
 20
6531.256342249726
 30
0.0
  0
SEQEND
  5
1DD89
  8
1DIM
  0
POLYLINE
  5
1B4DA
  8
1DIM
 66
     1
 10
0.0
 20
0.0
 30
0.0
  0
VERTEX
  5
1DA7C
  8
1DIM
 10
16539.15429779053
 20
6566.073208035503
 30
0.0
  0
VERTEX
  5
1DA7D
  8
1DIM
 10
16539.43524798388
 20
6565.209121172482
 30
0.0
  0
VERTEX
  5
1DA7E
  8
1DIM
 10
16539.69047272069
 20
6564.345316983509
 30
0.0
  0
VERTEX
  5
1DA7F
  8
1DIM
 10
16539.91647932951
 20
6563.481833846427
 30
0.0
  0
VERTEX
  5
1DA80
  8
1DIM
 10
16540.10977513886
 20
6562.61871013908
 30
0.0
  0
VERTEX
  5
1DA81
  8
1DIM
 10
16540.2668674773
 20
6561.755984239315
 30
0.0
  0
VERTEX
  5
1DA82
  8
1DIM
 10
16540.38426367335
 20
6560.893694524975
 30
0.0
  0
VERTEX
  5
1DA83
  8
1DIM
 10
16540.45847105557
 20
6560.031879373904
 30
0.0
  0
VERTEX
  5
1DA84
  8
1DIM
 10
16540.48599695248
 20
6559.170577163949
 30
0.0
  0
VERTEX
  5
1DA85
  8
1DIM
 10
16540.46338937915
 20
6558.309825391052
 30
0.0
  0
VERTEX
  5
1DA86
  8
1DIM
 10
16540.39020758786
 20
6557.449596281071
 30
0.0
  0
VERTEX
  5
1DA87
  8
1DIM
 10
16540.27103937917
 20
6556.589753063536
 30
0.0
  0
VERTEX
  5
1DA88
  8
1DIM
 10
16540.11095026428
 20
6555.73014861336
 30
0.0
  0
VERTEX
  5
1DA89
  8
1DIM
 10
16539.91500575438
 20
6554.870635805459
 30
0.0
  0
VERTEX
  5
1DA8A
  8
1DIM
 10
16539.68827136066
 20
6554.011067514744
 30
0.0
  0
VERTEX
  5
1DA8B
  8
1DIM
 10
16539.4358125943
 20
6553.15129661613
 30
0.0
  0
VERTEX
  5
1DA8C
  8
1DIM
 10
16539.1626949665
 20
6552.29117598453
 30
0.0
  0
VERTEX
  5
1DA8D
  8
1DIM
 10
16538.87398398845
 20
6551.430558494855
 30
0.0
  0
VERTEX
  5
1DA8E
  8
1DIM
 10
16538.57474517133
 20
6550.569297022021
 30
0.0
  0
VERTEX
  5
1DA8F
  8
1DIM
 10
16538.27004402634
 20
6549.70724444094
 30
0.0
  0
VERTEX
  5
1DA90
  8
1DIM
 10
16537.96494606465
 20
6548.844253626526
 30
0.0
  0
VERTEX
  5
1DA91
  8
1DIM
 10
16537.66451679747
 20
6547.980177453691
 30
0.0
  0
VERTEX
  5
1DA92
  8
1DIM
 10
16537.37382173598
 20
6547.114868797349
 30
0.0
  0
VERTEX
  5
1DA93
  8
1DIM
 10
16537.09792639137
 20
6546.248180532414
 30
0.0
  0
VERTEX
  5
1DA94
  8
1DIM
 10
16536.84189627483
 20
6545.379965533799
 30
0.0
  0
VERTEX
  5
1DA95
  8
1DIM
 10
16536.61079689755
 20
6544.510076676417
 30
0.0
  0
VERTEX
  5
1DA96
  8
1DIM
 10
16536.40969377072
 20
6543.63836683518
 30
0.0
  0
VERTEX
  5
1DA97
  8
1DIM
 10
16536.24365231915
 20
6542.764688888116
 30
0.0
  0
VERTEX
  5
1DA98
  8
1DIM
 10
16536.11638759906
 20
6541.888944365983
 30
0.0
  0
VERTEX
  5
1DA99
  8
1DIM
 10
16536.02684657211
 20
6541.011206590289
 30
0.0
  0
VERTEX
  5
1DA9A
  8
1DIM
 10
16535.9729243348
 20
6540.131586780436
 30
0.0
  0
VERTEX
  5
1DA9B
  8
1DIM
 10
16535.95251598363
 20
6539.250196155816
 30
0.0
  0
VERTEX
  5
1DA9C
  8
1DIM
 10
16535.96351661509
 20
6538.367145935829
 30
0.0
  0
VERTEX
  5
1DA9D
  8
1DIM
 10
16536.00382132567
 20
6537.482547339871
 30
0.0
  0
VERTEX
  5
1DA9E
  8
1DIM
 10
16536.07132521186
 20
6536.596511587338
 30
0.0
  0
VERTEX
  5
1DA9F
  8
1DIM
 10
16536.16392337016
 20
6535.70914989763
 30
0.0
  0
VERTEX
  5
1DAA0
  8
1DIM
 10
16536.27951089706
 20
6534.82057349014
 30
0.0
  0
VERTEX
  5
1DAA1
  8
1DIM
 10
16536.41598288905
 20
6533.93089358427
 30
0.0
  0
VERTEX
  5
1DAA2
  8
1DIM
 10
16536.57123444264
 20
6533.040221399412
 30
0.0
  0
VERTEX
  5
1DAA3
  8
1DIM
 10
16536.7431606543
 20
6532.148668154967
 30
0.0
  0
VERTEX
  5
1DAA4
  8
1DIM
 10
16536.92965662054
 20
6531.256345070329
 30
0.0
  0
SEQEND
  5
1DD8A
  8
1DIM
  0
POLYLINE
  5
1B4DB
  8
1DIM
 66
     1
 10
0.0
 20
0.0
 30
0.0
  0
VERTEX
  5
1DAA5
  8
1DIM
 10
16611.37306200312
 20
6679.073208036791
 30
0.0
  0
VERTEX
  5
1DAA6
  8
1DIM
 10
16611.6539011137
 20
6678.209125544116
 30
0.0
  0
VERTEX
  5
1DAA7
  8
1DIM
 10
16611.90899893759
 20
6677.34532589943
 30
0.0
  0
VERTEX
  5
1DAA8
  8
1DIM
 10
16612.13486284165
 20
6676.48184748016
 30
0.0
  0
VERTEX
  5
1DAA9
  8
1DIM
 10
16612.32800019277
 20
6675.618728663725
 30
0.0
  0
VERTEX
  5
1DAAA
  8
1DIM
 10
16612.48491835779
 20
6674.756007827551
 30
0.0
  0
VERTEX
  5
1DAAB
  8
1DIM
 10
16612.60212470361
 20
6673.893723349061
 30
0.0
  0
VERTEX
  5
1DAAC
  8
1DIM
 10
16612.67612659707
 20
6673.031913605681
 30
0.0
  0
VERTEX
  5
1DAAD
  8
1DIM
 10
16612.70343140506
 20
6672.170616974829
 30
0.0
  0
VERTEX
  5
1DAAE
  8
1DIM
 10
16612.68058902873
 20
6671.309870911981
 30
0.0
  0
VERTEX
  5
1DAAF
  8
1DIM
 10
16612.60718654143
 20
6670.449647040366
 30
0.0
  0
VERTEX
  5
1DAB0
  8
1DIM
 10
16612.48782103828
 20
6669.58980838846
 30
0.0
  0
VERTEX
  5
1DAB1
  8
1DIM
 10
16612.32755797488
 20
6668.730207832794
 30
0.0
  0
VERTEX
  5
1DAB2
  8
1DIM
 10
16612.13146280684
 20
6667.870698249893
 30
0.0
  0
VERTEX
  5
1DAB3
  8
1DIM
 10
16611.90460098974
 20
6667.011132516287
 30
0.0
  0
VERTEX
  5
1DAB4
  8
1DIM
 10
16611.65203797918
 20
6666.151363508502
 30
0.0
  0
VERTEX
  5
1DAB5
  8
1DIM
 10
16611.37883923077
 20
6665.291244103068
 30
0.0
  0
VERTEX
  5
1DAB6
  8
1DIM
 10
16611.09007020009
 20
6664.430627176512
 30
0.0
  0
VERTEX
  5
1DAB7
  8
1DIM
 10
16610.79079634275
 20
6663.569365605361
 30
0.0
  0
VERTEX
  5
1DAB8
  8
1DIM
 10
16610.48608311433
 20
6662.707312266145
 30
0.0
  0
VERTEX
  5
1DAB9
  8
1DIM
 10
16610.18099597045
 20
6661.84432003539
 30
0.0
  0
VERTEX
  5
1DABA
  8
1DIM
 10
16609.88060036668
 20
6660.980241789625
 30
0.0
  0
VERTEX
  5
1DABB
  8
1DIM
 10
16609.58996175864
 20
6660.114930405378
 30
0.0
  0
VERTEX
  5
1DABC
  8
1DIM
 10
16609.31414560191
 20
6659.248238759176
 30
0.0
  0
VERTEX
  5
1DABD
  8
1DIM
 10
16609.0582173521
 20
6658.380019727549
 30
0.0
  0
VERTEX
  5
1DABE
  8
1DIM
 10
16608.82724246479
 20
6657.510126187023
 30
0.0
  0
VERTEX
  5
1DABF
  8
1DIM
 10
16608.62628639559
 20
6656.638411014126
 30
0.0
  0
VERTEX
  5
1DAC0
  8
1DIM
 10
16608.46041448267
 20
6655.764727089618
 30
0.0
  0
VERTEX
  5
1DAC1
  8
1DIM
 10
16608.33332428748
 20
6654.888976574191
 30
0.0
  0
VERTEX
  5
1DAC2
  8
1DIM
 10
16608.24394806366
 20
6654.011233318887
 30
0.0
  0
VERTEX
  5
1DAC3
  8
1DIM
 10
16608.1901809308
 20
6653.131608541882
 30
0.0
  0
VERTEX
  5
1DAC4
  8
1DIM
 10
16608.1699180085
 20
6652.250213461353
 30
0.0
  0
VERTEX
  5
1DAC5
  8
1DIM
 10
16608.18105441634
 20
6651.367159295477
 30
0.0
  0
VERTEX
  5
1DAC6
  8
1DIM
 10
16608.22148527392
 20
6650.482557262429
 30
0.0
  0
VERTEX
  5
1DAC7
  8
1DIM
 10
16608.28910570085
 20
6649.596518580384
 30
0.0
  0
VERTEX
  5
1DAC8
  8
1DIM
 10
16608.3818108167
 20
6648.709154467522
 30
0.0
  0
VERTEX
  5
1DAC9
  8
1DIM
 10
16608.49749574108
 20
6647.820576142019
 30
0.0
  0
VERTEX
  5
1DACA
  8
1DIM
 10
16608.63405559357
 20
6646.930894822049
 30
0.0
  0
VERTEX
  5
1DACB
  8
1DIM
 10
16608.78938549379
 20
6646.040221725791
 30
0.0
  0
VERTEX
  5
1DACC
  8
1DIM
 10
16608.9613805613
 20
6645.148668071419
 30
0.0
  0
VERTEX
  5
1DACD
  8
1DIM
 10
16609.14793591572
 20
6644.25634507711
 30
0.0
  0
SEQEND
  5
1DD8B
  8
1DIM
  0
POLYLINE
  5
1B4DC
  8
1DIM
 66
     1
 10
0.0
 20
0.0
 30
0.0
  0
VERTEX
  5
1DACE
  8
1DIM
 10
16611.3717189874
 20
6566.073208035503
 30
0.0
  0
VERTEX
  5
1DACF
  8
1DIM
 10
16611.65266918072
 20
6565.209121172599
 30
0.0
  0
VERTEX
  5
1DAD0
  8
1DIM
 10
16611.9078939175
 20
6564.345316983741
 30
0.0
  0
VERTEX
  5
1DAD1
  8
1DIM
 10
16612.1339005263
 20
6563.481833846776
 30
0.0
  0
VERTEX
  5
1DAD2
  8
1DIM
 10
16612.32719633564
 20
6562.618710139546
 30
0.0
  0
VERTEX
  5
1DAD3
  8
1DIM
 10
16612.48428867408
 20
6561.755984239897
 30
0.0
  0
VERTEX
  5
1DAD4
  8
1DIM
 10
16612.60168487015
 20
6560.893694525673
 30
0.0
  0
VERTEX
  5
1DAD5
  8
1DIM
 10
16612.67589225239
 20
6560.031879374719
 30
0.0
  0
VERTEX
  5
1DAD6
  8
1DIM
 10
16612.70341814935
 20
6559.170577164879
 30
0.0
  0
VERTEX
  5
1DAD7
  8
1DIM
 10
16612.68081057609
 20
6558.309825392098
 30
0.0
  0
VERTEX
  5
1DAD8
  8
1DIM
 10
16612.60762878486
 20
6557.449596282232
 30
0.0
  0
VERTEX
  5
1DAD9
  8
1DIM
 10
16612.48846057625
 20
6556.589753064813
 30
0.0
  0
VERTEX
  5
1DADA
  8
1DIM
 10
16612.32837146144
 20
6555.730148614753
 30
0.0
  0
VERTEX
  5
1DADB
  8
1DIM
 10
16612.13242695163
 20
6554.870635806968
 30
0.0
  0
VERTEX
  5
1DADC
  8
1DIM
 10
16611.90569255799
 20
6554.011067516371
 30
0.0
  0
VERTEX
  5
1DADD
  8
1DIM
 10
16611.65323379171
 20
6553.151296617873
 30
0.0
  0
VERTEX
  5
1DADE
  8
1DIM
 10
16611.38011616399
 20
6552.291175986388
 30
0.0
  0
VERTEX
  5
1DADF
  8
1DIM
 10
16611.091405186
 20
6551.430558496832
 30
0.0
  0
VERTEX
  5
1DAE0
  8
1DIM
 10
16610.79216636894
 20
6550.569297024115
 30
0.0
  0
VERTEX
  5
1DAE1
  8
1DIM
 10
16610.48746522399
 20
6549.707244443152
 30
0.0
  0
VERTEX
  5
1DAE2
  8
1DIM
 10
16610.18236726235
 20
6548.844253628858
 30
0.0
  0
VERTEX
  5
1DAE3
  8
1DIM
 10
16609.88193799519
 20
6547.980177456142
 30
0.0
  0
VERTEX
  5
1DAE4
  8
1DIM
 10
16609.5912429337
 20
6547.114868799922
 30
0.0
  0
VERTEX
  5
1DAE5
  8
1DIM
 10
16609.31534758908
 20
6546.248180535108
 30
0.0
  0
VERTEX
  5
1DAE6
  8
1DIM
 10
16609.0593174725
 20
6545.379965536615
 30
0.0
  0
VERTEX
  5
1DAE7
  8
1DIM
 10
16608.82821809516
 20
6544.510076679356
 30
0.0
  0
VERTEX
  5
1DAE8
  8
1DIM
 10
16608.62711496824
 20
6543.638366838244
 30
0.0
  0
VERTEX
  5
1DAE9
  8
1DIM
 10
16608.46107351656
 20
6542.764688891305
 30
0.0
  0
VERTEX
  5
1DAEA
  8
1DIM
 10
16608.33380879634
 20
6541.888944369298
 30
0.0
  0
VERTEX
  5
1DAEB
  8
1DIM
 10
16608.24426776926
 20
6541.011206593732
 30
0.0
  0
VERTEX
  5
1DAEC
  8
1DIM
 10
16608.19034553183
 20
6540.131586784003
 30
0.0
  0
VERTEX
  5
1DAED
  8
1DIM
 10
16608.16993718053
 20
6539.25019615951
 30
0.0
  0
VERTEX
  5
1DAEE
  8
1DIM
 10
16608.18093781185
 20
6538.367145939649
 30
0.0
  0
VERTEX
  5
1DAEF
  8
1DIM
 10
16608.2212425223
 20
6537.482547343817
 30
0.0
  0
VERTEX
  5
1DAF0
  8
1DIM
 10
16608.28874640837
 20
6536.59651159141
 30
0.0
  0
VERTEX
  5
1DAF1
  8
1DIM
 10
16608.38134456654
 20
6535.709149901827
 30
0.0
  0
VERTEX
  5
1DAF2
  8
1DIM
 10
16608.49693209332
 20
6534.820573494464
 30
0.0
  0
VERTEX
  5
1DAF3
  8
1DIM
 10
16608.63340408519
 20
6533.930893588717
 30
0.0
  0
VERTEX
  5
1DAF4
  8
1DIM
 10
16608.78865563867
 20
6533.040221403986
 30
0.0
  0
VERTEX
  5
1DAF5
  8
1DIM
 10
16608.96058185023
 20
6532.148668159664
 30
0.0
  0
VERTEX
  5
1DAF6
  8
1DIM
 10
16609.14707781637
 20
6531.256345075151
 30
0.0
  0
SEQEND
  5
1DD8C
  8
1DIM
  0
POLYLINE
  5
1B4DD
  8
1DIM
 66
     1
 10
0.0
 20
0.0
 30
0.0
  0
VERTEX
  5
1DAF7
  8
1DIM
 10
16621.17739297698
 20
6679.073208037016
 30
0.0
  0
VERTEX
  5
1DAF8
  8
1DIM
 10
16621.45823208763
 20
6678.209125544159
 30
0.0
  0
VERTEX
  5
1DAF9
  8
1DIM
 10
16621.71332991157
 20
6677.345325899293
 30
0.0
  0
VERTEX
  5
1DAFA
  8
1DIM
 10
16621.93919381567
 20
6676.48184747984
 30
0.0
  0
VERTEX
  5
1DAFB
  8
1DIM
 10
16622.13233116681
 20
6675.618728663225
 30
0.0
  0
VERTEX
  5
1DAFC
  8
1DIM
 10
16622.28924933184
 20
6674.75600782687
 30
0.0
  0
VERTEX
  5
1DAFD
  8
1DIM
 10
16622.40645567764
 20
6673.8937233482
 30
0.0
  0
VERTEX
  5
1DAFE
  8
1DIM
 10
16622.48045757108
 20
6673.031913604637
 30
0.0
  0
VERTEX
  5
1DAFF
  8
1DIM
 10
16622.50776237901
 20
6672.170616973607
 30
0.0
  0
VERTEX
  5
1DB00
  8
1DIM
 10
16622.4849200026
 20
6671.309870910578
 30
0.0
  0
VERTEX
  5
1DB01
  8
1DIM
 10
16622.41151751519
 20
6670.449647038783
 30
0.0
  0
VERTEX
  5
1DB02
  8
1DIM
 10
16622.29215201193
 20
6669.589808386698
 30
0.0
  0
VERTEX
  5
1DB03
  8
1DIM
 10
16622.13188894842
 20
6668.73020783085
 30
0.0
  0
VERTEX
  5
1DB04
  8
1DIM
 10
16621.93579378025
 20
6667.87069824777
 30
0.0
  0
VERTEX
  5
1DB05
  8
1DIM
 10
16621.70893196304
 20
6667.011132513981
 30
0.0
  0
VERTEX
  5
1DB06
  8
1DIM
 10
16621.45636895236
 20
6666.151363506016
 30
0.0
  0
VERTEX
  5
1DB07
  8
1DIM
 10
16621.18317020384
 20
6665.291244100399
 30
0.0
  0
VERTEX
  5
1DB08
  8
1DIM
 10
16620.89440117306
 20
6664.43062717366
 30
0.0
  0
VERTEX
  5
1DB09
  8
1DIM
 10
16620.59512731562
 20
6663.569365602326
 30
0.0
  0
VERTEX
  5
1DB0A
  8
1DIM
 10
16620.29041408714
 20
6662.707312262925
 30
0.0
  0
VERTEX
  5
1DB0B
  8
1DIM
 10
16619.98532694319
 20
6661.844320031985
 30
0.0
  0
VERTEX
  5
1DB0C
  8
1DIM
 10
16619.68493133939
 20
6660.980241786035
 30
0.0
  0
VERTEX
  5
1DB0D
  8
1DIM
 10
16619.39429273134
 20
6660.1149304016
 30
0.0
  0
VERTEX
  5
1DB0E
  8
1DIM
 10
16619.11847657463
 20
6659.24823875521
 30
0.0
  0
VERTEX
  5
1DB0F
  8
1DIM
 10
16618.86254832487
 20
6658.380019723391
 30
0.0
  0
VERTEX
  5
1DB10
  8
1DIM
 10
16618.63157343765
 20
6657.510126182674
 30
0.0
  0
VERTEX
  5
1DB11
  8
1DIM
 10
16618.43061736858
 20
6656.638411009585
 30
0.0
  0
VERTEX
  5
1DB12
  8
1DIM
 10
16618.26474545581
 20
6655.764727084882
 30
0.0
  0
VERTEX
  5
1DB13
  8
1DIM
 10
16618.13765526081
 20
6654.88897656926
 30
0.0
  0
VERTEX
  5
1DB14
  8
1DIM
 10
16618.04827903718
 20
6654.011233313761
 30
0.0
  0
VERTEX
  5
1DB15
  8
1DIM
 10
16617.99451190452
 20
6653.131608536561
 30
0.0
  0
VERTEX
  5
1DB16
  8
1DIM
 10
16617.97424898241
 20
6652.250213455836
 30
0.0
  0
VERTEX
  5
1DB17
  8
1DIM
 10
16617.98538539044
 20
6651.367159289764
 30
0.0
  0
VERTEX
  5
1DB18
  8
1DIM
 10
16618.02581624822
 20
6650.48255725652
 30
0.0
  0
VERTEX
  5
1DB19
  8
1DIM
 10
16618.09343667534
 20
6649.596518574281
 30
0.0
  0
VERTEX
  5
1DB1A
  8
1DIM
 10
16618.18614179138
 20
6648.709154461223
 30
0.0
  0
VERTEX
  5
1DB1B
  8
1DIM
 10
16618.30182671594
 20
6647.820576135524
 30
0.0
  0
VERTEX
  5
1DB1C
  8
1DIM
 10
16618.43838656861
 20
6646.930894815358
 30
0.0
  0
VERTEX
  5
1DB1D
  8
1DIM
 10
16618.59371646899
 20
6646.040221718906
 30
0.0
  0
VERTEX
  5
1DB1E
  8
1DIM
 10
16618.76571153666
 20
6645.14866806434
 30
0.0
  0
VERTEX
  5
1DB1F
  8
1DIM
 10
16618.95226689124
 20
6644.256345069838
 30
0.0
  0
SEQEND
  5
1DD8D
  8
1DIM
  0
POLYLINE
  5
1B4DE
  8
1DIM
 66
     1
 10
0.0
 20
0.0
 30
0.0
  0
VERTEX
  5
1DB20
  8
1DIM
 10
16621.17604996134
 20
6566.073208035503
 30
0.0
  0
VERTEX
  5
1DB21
  8
1DIM
 10
16621.45700015469
 20
6565.209121172482
 30
0.0
  0
VERTEX
  5
1DB22
  8
1DIM
 10
16621.7122248915
 20
6564.345316983509
 30
0.0
  0
VERTEX
  5
1DB23
  8
1DIM
 10
16621.93823150032
 20
6563.481833846427
 30
0.0
  0
VERTEX
  5
1DB24
  8
1DIM
 10
16622.13152730968
 20
6562.618710139081
 30
0.0
  0
VERTEX
  5
1DB25
  8
1DIM
 10
16622.28861964812
 20
6561.755984239315
 30
0.0
  0
VERTEX
  5
1DB26
  8
1DIM
 10
16622.40601584417
 20
6560.893694524974
 30
0.0
  0
VERTEX
  5
1DB27
  8
1DIM
 10
16622.48022322638
 20
6560.031879373905
 30
0.0
  0
VERTEX
  5
1DB28
  8
1DIM
 10
16622.50774912329
 20
6559.17057716395
 30
0.0
  0
VERTEX
  5
1DB29
  8
1DIM
 10
16622.48514154997
 20
6558.309825391053
 30
0.0
  0
VERTEX
  5
1DB2A
  8
1DIM
 10
16622.41195975867
 20
6557.449596281071
 30
0.0
  0
VERTEX
  5
1DB2B
  8
1DIM
 10
16622.29279154998
 20
6556.589753063537
 30
0.0
  0
VERTEX
  5
1DB2C
  8
1DIM
 10
16622.13270243509
 20
6555.730148613361
 30
0.0
  0
VERTEX
  5
1DB2D
  8
1DIM
 10
16621.93675792519
 20
6554.87063580546
 30
0.0
  0
VERTEX
  5
1DB2E
  8
1DIM
 10
16621.71002353147
 20
6554.011067514745
 30
0.0
  0
VERTEX
  5
1DB2F
  8
1DIM
 10
16621.45756476511
 20
6553.151296616131
 30
0.0
  0
VERTEX
  5
1DB30
  8
1DIM
 10
16621.18444713732
 20
6552.29117598453
 30
0.0
  0
VERTEX
  5
1DB31
  8
1DIM
 10
16620.89573615926
 20
6551.430558494855
 30
0.0
  0
VERTEX
  5
1DB32
  8
1DIM
 10
16620.59649734214
 20
6550.569297022022
 30
0.0
  0
VERTEX
  5
1DB33
  8
1DIM
 10
16620.29179619715
 20
6549.70724444094
 30
0.0
  0
VERTEX
  5
1DB34
  8
1DIM
 10
16619.98669823547
 20
6548.844253626526
 30
0.0
  0
VERTEX
  5
1DB35
  8
1DIM
 10
16619.68626896829
 20
6547.980177453692
 30
0.0
  0
VERTEX
  5
1DB36
  8
1DIM
 10
16619.3955739068
 20
6547.11486879735
 30
0.0
  0
VERTEX
  5
1DB37
  8
1DIM
 10
16619.11967856219
 20
6546.248180532415
 30
0.0
  0
VERTEX
  5
1DB38
  8
1DIM
 10
16618.86364844565
 20
6545.3799655338
 30
0.0
  0
VERTEX
  5
1DB39
  8
1DIM
 10
16618.63254906837
 20
6544.510076676417
 30
0.0
  0
VERTEX
  5
1DB3A
  8
1DIM
 10
16618.43144594153
 20
6543.638366835181
 30
0.0
  0
VERTEX
  5
1DB3B
  8
1DIM
 10
16618.26540448996
 20
6542.764688888117
 30
0.0
  0
VERTEX
  5
1DB3C
  8
1DIM
 10
16618.13813976987
 20
6541.888944365984
 30
0.0
  0
VERTEX
  5
1DB3D
  8
1DIM
 10
16618.04859874292
 20
6541.011206590291
 30
0.0
  0
VERTEX
  5
1DB3E
  8
1DIM
 10
16617.99467650562
 20
6540.131586780437
 30
0.0
  0
VERTEX
  5
1DB3F
  8
1DIM
 10
16617.97426815445
 20
6539.250196155817
 30
0.0
  0
VERTEX
  5
1DB40
  8
1DIM
 10
16617.98526878591
 20
6538.36714593583
 30
0.0
  0
VERTEX
  5
1DB41
  8
1DIM
 10
16618.02557349648
 20
6537.482547339871
 30
0.0
  0
VERTEX
  5
1DB42
  8
1DIM
 10
16618.09307738267
 20
6536.59651158734
 30
0.0
  0
VERTEX
  5
1DB43
  8
1DIM
 10
16618.18567554097
 20
6535.70914989763
 30
0.0
  0
VERTEX
  5
1DB44
  8
1DIM
 10
16618.30126306787
 20
6534.82057349014
 30
0.0
  0
VERTEX
  5
1DB45
  8
1DIM
 10
16618.43773505987
 20
6533.930893584268
 30
0.0
  0
VERTEX
  5
1DB46
  8
1DIM
 10
16618.59298661345
 20
6533.040221399412
 30
0.0
  0
VERTEX
  5
1DB47
  8
1DIM
 10
16618.76491282511
 20
6532.148668154966
 30
0.0
  0
VERTEX
  5
1DB48
  8
1DIM
 10
16618.95140879135
 20
6531.256345070327
 30
0.0
  0
SEQEND
  5
1DD8E
  8
1DIM
  0
POLYLINE
  5
1B4DF
  8
1DIM
 66
     1
 10
0.0
 20
0.0
 30
0.0
  0
VERTEX
  5
1DB49
  8
1DIM
 10
16687.49563660607
 20
6679.073208036783
 30
0.0
  0
VERTEX
  5
1DB4A
  8
1DIM
 10
16687.77647573789
 20
6678.209125475771
 30
0.0
  0
VERTEX
  5
1DB4B
  8
1DIM
 10
16688.03157357867
 20
6677.345325762797
 30
0.0
  0
VERTEX
  5
1DB4C
  8
1DIM
 10
16688.25743749445
 20
6676.481847275293
 30
0.0
  0
VERTEX
  5
1DB4D
  8
1DIM
 10
16688.45057485127
 20
6675.618728390693
 30
0.0
  0
VERTEX
  5
1DB4E
  8
1DIM
 10
16688.60749301517
 20
6674.756007486428
 30
0.0
  0
VERTEX
  5
1DB4F
  8
1DIM
 10
16688.7246993522
 20
6673.893722939933
 30
0.0
  0
VERTEX
  5
1DB50
  8
1DIM
 10
16688.79870122838
 20
6673.031913128637
 30
0.0
  0
VERTEX
  5
1DB51
  8
1DIM
 10
16688.82600600977
 20
6672.170616429976
 30
0.0
  0
VERTEX
  5
1DB52
  8
1DIM
 10
16688.80316359699
 20
6671.309870299422
 30
0.0
  0
VERTEX
  5
1DB53
  8
1DIM
 10
16688.72976106747
 20
6670.449646360108
 30
0.0
  0
VERTEX
  5
1DB54
  8
1DIM
 10
16688.61039551884
 20
6669.589807640449
 30
0.0
  0
VERTEX
  5
1DB55
  8
1DIM
 10
16688.4501324079
 20
6668.730207016938
 30
0.0
  0
VERTEX
  5
1DB56
  8
1DIM
 10
16688.25403719145
 20
6667.870697366068
 30
0.0
  0
VERTEX
  5
1DB57
  8
1DIM
 10
16688.0271753263
 20
6667.011131564333
 30
0.0
  0
VERTEX
  5
1DB58
  8
1DIM
 10
16687.77461226923
 20
6666.151362488224
 30
0.0
  0
VERTEX
  5
1DB59
  8
1DIM
 10
16687.50141347704
 20
6665.291243014234
 30
0.0
  0
VERTEX
  5
1DB5A
  8
1DIM
 10
16687.21264440654
 20
6664.43062601886
 30
0.0
  0
VERTEX
  5
1DB5B
  8
1DIM
 10
16686.91337051452
 20
6663.56936437859
 30
0.0
  0
VERTEX
  5
1DB5C
  8
1DIM
 10
16686.60865725779
 20
6662.70731096992
 30
0.0
  0
VERTEX
  5
1DB5D
  8
1DIM
 10
16686.30357009313
 20
6661.844318669341
 30
0.0
  0
VERTEX
  5
1DB5E
  8
1DIM
 10
16686.00317447736
 20
6660.980240353349
 30
0.0
  0
VERTEX
  5
1DB5F
  8
1DIM
 10
16685.71253586726
 20
6660.114928898434
 30
0.0
  0
VERTEX
  5
1DB60
  8
1DIM
 10
16685.43671971963
 20
6659.248237181091
 30
0.0
  0
VERTEX
  5
1DB61
  8
1DIM
 10
16685.18079149128
 20
6658.380018077813
 30
0.0
  0
VERTEX
  5
1DB62
  8
1DIM
 10
16684.94981663901
 20
6657.51012446509
 30
0.0
  0
VERTEX
  5
1DB63
  8
1DIM
 10
16684.7488606196
 20
6656.638409219419
 30
0.0
  0
VERTEX
  5
1DB64
  8
1DIM
 10
16684.58298877242
 20
6655.764725221524
 30
0.0
  0
VERTEX
  5
1DB65
  8
1DIM
 10
16684.4558986515
 20
6654.888974632373
 30
0.0
  0
VERTEX
  5
1DB66
  8
1DIM
 10
16684.36652250323
 20
6654.011231303275
 30
0.0
  0
VERTEX
  5
1DB67
  8
1DIM
 10
16684.31275544675
 20
6653.131606452435
 30
0.0
  0
VERTEX
  5
1DB68
  8
1DIM
 10
16684.29249260111
 20
6652.250211298053
 30
0.0
  0
VERTEX
  5
1DB69
  8
1DIM
 10
16684.30362908543
 20
6651.367157058334
 30
0.0
  0
VERTEX
  5
1DB6A
  8
1DIM
 10
16684.34406001881
 20
6650.482554951481
 30
0.0
  0
VERTEX
  5
1DB6B
  8
1DIM
 10
16684.41168052032
 20
6649.596516195694
 30
0.0
  0
VERTEX
  5
1DB6C
  8
1DIM
 10
16684.50438570907
 20
6648.709152009179
 30
0.0
  0
VERTEX
  5
1DB6D
  8
1DIM
 10
16684.62007070416
 20
6647.820573610138
 30
0.0
  0
VERTEX
  5
1DB6E
  8
1DIM
 10
16684.75663062467
 20
6646.930892216773
 30
0.0
  0
VERTEX
  5
1DB6F
  8
1DIM
 10
16684.91196058971
 20
6646.040219047288
 30
0.0
  0
VERTEX
  5
1DB70
  8
1DIM
 10
16685.08395571837
 20
6645.148665319884
 30
0.0
  0
VERTEX
  5
1DB71
  8
1DIM
 10
16685.27051112973
 20
6644.256342252766
 30
0.0
  0
SEQEND
  5
1DD8F
  8
1DIM
  0
POLYLINE
  5
1B4E0
  8
1DIM
 66
     1
 10
0.0
 20
0.0
 30
0.0
  0
VERTEX
  5
1DB72
  8
1DIM
 10
16687.49429358848
 20
6566.073208040996
 30
0.0
  0
VERTEX
  5
1DB73
  8
1DIM
 10
16687.77524380325
 20
6565.20912110959
 30
0.0
  0
VERTEX
  5
1DB74
  8
1DIM
 10
16688.03046855715
 20
6564.345316852279
 30
0.0
  0
VERTEX
  5
1DB75
  8
1DIM
 10
16688.2564751779
 20
6563.481833646916
 30
0.0
  0
VERTEX
  5
1DB76
  8
1DIM
 10
16688.44977099321
 20
6562.618709871354
 30
0.0
  0
VERTEX
  5
1DB77
  8
1DIM
 10
16688.60686333079
 20
6561.755983903447
 30
0.0
  0
VERTEX
  5
1DB78
  8
1DIM
 10
16688.72425951833
 20
6560.893694121051
 30
0.0
  0
VERTEX
  5
1DB79
  8
1DIM
 10
16688.79846688356
 20
6560.031878902018
 30
0.0
  0
VERTEX
  5
1DB7A
  8
1DIM
 10
16688.82599275419
 20
6559.1705766242
 30
0.0
  0
VERTEX
  5
1DB7B
  8
1DIM
 10
16688.80338514473
 20
6558.309824783547
 30
0.0
  0
VERTEX
  5
1DB7C
  8
1DIM
 10
16688.7302033115
 20
6557.449595605818
 30
0.0
  0
VERTEX
  5
1DB7D
  8
1DIM
 10
16688.61103505757
 20
6556.589752320481
 30
0.0
  0
VERTEX
  5
1DB7E
  8
1DIM
 10
16688.45094589535
 20
6555.730147802416
 30
0.0
  0
VERTEX
  5
1DB7F
  8
1DIM
 10
16688.25500133721
 20
6554.870634926498
 30
0.0
  0
VERTEX
  5
1DB80
  8
1DIM
 10
16688.02826689556
 20
6554.011066567609
 30
0.0
  0
VERTEX
  5
1DB81
  8
1DIM
 10
16687.77580808279
 20
6553.151295600626
 30
0.0
  0
VERTEX
  5
1DB82
  8
1DIM
 10
16687.50269041128
 20
6552.291174900427
 30
0.0
  0
VERTEX
  5
1DB83
  8
1DIM
 10
16687.21397939344
 20
6551.430557341891
 30
0.0
  0
VERTEX
  5
1DB84
  8
1DIM
 10
16686.91474054164
 20
6550.569295799895
 30
0.0
  0
VERTEX
  5
1DB85
  8
1DIM
 10
16686.61003936829
 20
6549.707243149319
 30
0.0
  0
VERTEX
  5
1DB86
  8
1DIM
 10
16686.30494138578
 20
6548.844252265041
 30
0.0
  0
VERTEX
  5
1DB87
  8
1DIM
 10
16686.00451210649
 20
6547.980176021938
 30
0.0
  0
VERTEX
  5
1DB88
  8
1DIM
 10
16685.71381704282
 20
6547.114867294891
 30
0.0
  0
VERTEX
  5
1DB89
  8
1DIM
 10
16685.43792170717
 20
6546.248178958775
 30
0.0
  0
VERTEX
  5
1DB8A
  8
1DIM
 10
16685.18189161192
 20
6545.379963888471
 30
0.0
  0
VERTEX
  5
1DB8B
  8
1DIM
 10
16684.95079226946
 20
6544.510074958856
 30
0.0
  0
VERTEX
  5
1DB8C
  8
1DIM
 10
16684.74968919219
 20
6543.638365044811
 30
0.0
  0
VERTEX
  5
1DB8D
  8
1DIM
 10
16684.58364780612
 20
6542.764687024322
 30
0.0
  0
VERTEX
  5
1DB8E
  8
1DIM
 10
16684.45638316009
 20
6541.888942428426
 30
0.0
  0
VERTEX
  5
1DB8F
  8
1DIM
 10
16684.36684220854
 20
6541.011204578901
 30
0.0
  0
VERTEX
  5
1DB90
  8
1DIM
 10
16684.31292004744
 20
6540.13158469517
 30
0.0
  0
VERTEX
  5
1DB91
  8
1DIM
 10
16684.2925117728
 20
6539.250193996658
 30
0.0
  0
VERTEX
  5
1DB92
  8
1DIM
 10
16684.30351248061
 20
6538.367143702787
 30
0.0
  0
VERTEX
  5
1DB93
  8
1DIM
 10
16684.34381726686
 20
6537.482545032981
 30
0.0
  0
VERTEX
  5
1DB94
  8
1DIM
 10
16684.41132122754
 20
6536.596509206664
 30
0.0
  0
VERTEX
  5
1DB95
  8
1DIM
 10
16684.50391945866
 20
6535.709147443257
 30
0.0
  0
VERTEX
  5
1DB96
  8
1DIM
 10
16684.6195070562
 20
6534.820570962187
 30
0.0
  0
VERTEX
  5
1DB97
  8
1DIM
 10
16684.75597911615
 20
6533.930890982876
 30
0.0
  0
VERTEX
  5
1DB98
  8
1DIM
 10
16684.91123073451
 20
6533.040218724746
 30
0.0
  0
VERTEX
  5
1DB99
  8
1DIM
 10
16685.08315700727
 20
6532.148665407222
 30
0.0
  0
VERTEX
  5
1DB9A
  8
1DIM
 10
16685.26965303043
 20
6531.256342249728
 30
0.0
  0
SEQEND
  5
1DD90
  8
1DIM
  0
POLYLINE
  5
1B4E1
  8
1DIM
 66
     1
 10
0.0
 20
0.0
 30
0.0
  0
VERTEX
  5
1DB9B
  8
1DIM
 10
16695.22104803936
 20
6679.07320803702
 30
0.0
  0
VERTEX
  5
1DB9C
  8
1DIM
 10
16695.50188715
 20
6678.209125544163
 30
0.0
  0
VERTEX
  5
1DB9D
  8
1DIM
 10
16695.75698497394
 20
6677.345325899297
 30
0.0
  0
VERTEX
  5
1DB9E
  8
1DIM
 10
16695.98284887804
 20
6676.481847479843
 30
0.0
  0
VERTEX
  5
1DB9F
  8
1DIM
 10
16696.17598622918
 20
6675.618728663228
 30
0.0
  0
VERTEX
  5
1DBA0
  8
1DIM
 10
16696.33290439421
 20
6674.756007826873
 30
0.0
  0
VERTEX
  5
1DBA1
  8
1DIM
 10
16696.45011074001
 20
6673.893723348202
 30
0.0
  0
VERTEX
  5
1DBA2
  8
1DIM
 10
16696.52411263345
 20
6673.031913604639
 30
0.0
  0
VERTEX
  5
1DBA3
  8
1DIM
 10
16696.55141744138
 20
6672.170616973608
 30
0.0
  0
VERTEX
  5
1DBA4
  8
1DIM
 10
16696.52857506497
 20
6671.30987091058
 30
0.0
  0
VERTEX
  5
1DBA5
  8
1DIM
 10
16696.45517257756
 20
6670.449647038785
 30
0.0
  0
VERTEX
  5
1DBA6
  8
1DIM
 10
16696.3358070743
 20
6669.589808386699
 30
0.0
  0
VERTEX
  5
1DBA7
  8
1DIM
 10
16696.17554401079
 20
6668.730207830852
 30
0.0
  0
VERTEX
  5
1DBA8
  8
1DIM
 10
16695.97944884262
 20
6667.870698247771
 30
0.0
  0
VERTEX
  5
1DBA9
  8
1DIM
 10
16695.7525870254
 20
6667.011132513982
 30
0.0
  0
VERTEX
  5
1DBAA
  8
1DIM
 10
16695.50002401473
 20
6666.151363506017
 30
0.0
  0
VERTEX
  5
1DBAB
  8
1DIM
 10
16695.2268252662
 20
6665.2912441004
 30
0.0
  0
VERTEX
  5
1DBAC
  8
1DIM
 10
16694.93805623543
 20
6664.43062717366
 30
0.0
  0
VERTEX
  5
1DBAD
  8
1DIM
 10
16694.63878237799
 20
6663.569365602327
 30
0.0
  0
VERTEX
  5
1DBAE
  8
1DIM
 10
16694.3340691495
 20
6662.707312262926
 30
0.0
  0
VERTEX
  5
1DBAF
  8
1DIM
 10
16694.02898200556
 20
6661.844320031986
 30
0.0
  0
VERTEX
  5
1DBB0
  8
1DIM
 10
16693.72858640176
 20
6660.980241786035
 30
0.0
  0
VERTEX
  5
1DBB1
  8
1DIM
 10
16693.43794779371
 20
6660.1149304016
 30
0.0
  0
VERTEX
  5
1DBB2
  8
1DIM
 10
16693.162131637
 20
6659.24823875521
 30
0.0
  0
VERTEX
  5
1DBB3
  8
1DIM
 10
16692.90620338724
 20
6658.380019723391
 30
0.0
  0
VERTEX
  5
1DBB4
  8
1DIM
 10
16692.67522850002
 20
6657.510126182674
 30
0.0
  0
VERTEX
  5
1DBB5
  8
1DIM
 10
16692.47427243094
 20
6656.638411009585
 30
0.0
  0
VERTEX
  5
1DBB6
  8
1DIM
 10
16692.30840051818
 20
6655.764727084882
 30
0.0
  0
VERTEX
  5
1DBB7
  8
1DIM
 10
16692.18131032318
 20
6654.88897656926
 30
0.0
  0
VERTEX
  5
1DBB8
  8
1DIM
 10
16692.09193409955
 20
6654.01123331376
 30
0.0
  0
VERTEX
  5
1DBB9
  8
1DIM
 10
16692.03816696689
 20
6653.131608536561
 30
0.0
  0
VERTEX
  5
1DBBA
  8
1DIM
 10
16692.01790404478
 20
6652.250213455836
 30
0.0
  0
VERTEX
  5
1DBBB
  8
1DIM
 10
16692.02904045281
 20
6651.367159289763
 30
0.0
  0
VERTEX
  5
1DBBC
  8
1DIM
 10
16692.06947131059
 20
6650.482557256519
 30
0.0
  0
VERTEX
  5
1DBBD
  8
1DIM
 10
16692.13709173771
 20
6649.59651857428
 30
0.0
  0
VERTEX
  5
1DBBE
  8
1DIM
 10
16692.22979685375
 20
6648.709154461222
 30
0.0
  0
VERTEX
  5
1DBBF
  8
1DIM
 10
16692.34548177831
 20
6647.820576135523
 30
0.0
  0
VERTEX
  5
1DBC0
  8
1DIM
 10
16692.48204163098
 20
6646.930894815358
 30
0.0
  0
VERTEX
  5
1DBC1
  8
1DIM
 10
16692.63737153136
 20
6646.040221718904
 30
0.0
  0
VERTEX
  5
1DBC2
  8
1DIM
 10
16692.80936659903
 20
6645.148668064338
 30
0.0
  0
VERTEX
  5
1DBC3
  8
1DIM
 10
16692.9959219536
 20
6644.256345069836
 30
0.0
  0
SEQEND
  5
1DD91
  8
1DIM
  0
POLYLINE
  5
1B4E2
  8
1DIM
 66
     1
 10
0.0
 20
0.0
 30
0.0
  0
VERTEX
  5
1DBC4
  8
1DIM
 10
16695.21970502371
 20
6566.073208035503
 30
0.0
  0
VERTEX
  5
1DBC5
  8
1DIM
 10
16695.50065521706
 20
6565.209121172482
 30
0.0
  0
VERTEX
  5
1DBC6
  8
1DIM
 10
16695.75587995387
 20
6564.345316983509
 30
0.0
  0
VERTEX
  5
1DBC7
  8
1DIM
 10
16695.98188656269
 20
6563.481833846427
 30
0.0
  0
VERTEX
  5
1DBC8
  8
1DIM
 10
16696.17518237205
 20
6562.618710139081
 30
0.0
  0
VERTEX
  5
1DBC9
  8
1DIM
 10
16696.33227471049
 20
6561.755984239315
 30
0.0
  0
VERTEX
  5
1DBCA
  8
1DIM
 10
16696.44967090654
 20
6560.893694524974
 30
0.0
  0
VERTEX
  5
1DBCB
  8
1DIM
 10
16696.52387828876
 20
6560.031879373905
 30
0.0
  0
VERTEX
  5
1DBCC
  8
1DIM
 10
16696.55140418567
 20
6559.17057716395
 30
0.0
  0
VERTEX
  5
1DBCD
  8
1DIM
 10
16696.52879661234
 20
6558.309825391053
 30
0.0
  0
VERTEX
  5
1DBCE
  8
1DIM
 10
16696.45561482104
 20
6557.449596281071
 30
0.0
  0
VERTEX
  5
1DBCF
  8
1DIM
 10
16696.33644661235
 20
6556.589753063537
 30
0.0
  0
VERTEX
  5
1DBD0
  8
1DIM
 10
16696.17635749746
 20
6555.730148613361
 30
0.0
  0
VERTEX
  5
1DBD1
  8
1DIM
 10
16695.98041298756
 20
6554.87063580546
 30
0.0
  0
VERTEX
  5
1DBD2
  8
1DIM
 10
16695.75367859384
 20
6554.011067514745
 30
0.0
  0
VERTEX
  5
1DBD3
  8
1DIM
 10
16695.50121982749
 20
6553.151296616131
 30
0.0
  0
VERTEX
  5
1DBD4
  8
1DIM
 10
16695.22810219969
 20
6552.29117598453
 30
0.0
  0
VERTEX
  5
1DBD5
  8
1DIM
 10
16694.93939122163
 20
6551.430558494855
 30
0.0
  0
VERTEX
  5
1DBD6
  8
1DIM
 10
16694.64015240452
 20
6550.569297022021
 30
0.0
  0
VERTEX
  5
1DBD7
  8
1DIM
 10
16694.33545125952
 20
6549.70724444094
 30
0.0
  0
VERTEX
  5
1DBD8
  8
1DIM
 10
16694.03035329784
 20
6548.844253626526
 30
0.0
  0
VERTEX
  5
1DBD9
  8
1DIM
 10
16693.72992403066
 20
6547.980177453691
 30
0.0
  0
VERTEX
  5
1DBDA
  8
1DIM
 10
16693.43922896917
 20
6547.114868797349
 30
0.0
  0
VERTEX
  5
1DBDB
  8
1DIM
 10
16693.16333362456
 20
6546.248180532414
 30
0.0
  0
VERTEX
  5
1DBDC
  8
1DIM
 10
16692.90730350802
 20
6545.379965533799
 30
0.0
  0
VERTEX
  5
1DBDD
  8
1DIM
 10
16692.67620413074
 20
6544.510076676416
 30
0.0
  0
VERTEX
  5
1DBDE
  8
1DIM
 10
16692.4751010039
 20
6543.638366835181
 30
0.0
  0
VERTEX
  5
1DBDF
  8
1DIM
 10
16692.30905955234
 20
6542.764688888116
 30
0.0
  0
VERTEX
  5
1DBE0
  8
1DIM
 10
16692.18179483224
 20
6541.888944365984
 30
0.0
  0
VERTEX
  5
1DBE1
  8
1DIM
 10
16692.09225380529
 20
6541.01120659029
 30
0.0
  0
VERTEX
  5
1DBE2
  8
1DIM
 10
16692.03833156799
 20
6540.131586780437
 30
0.0
  0
VERTEX
  5
1DBE3
  8
1DIM
 10
16692.01792321682
 20
6539.250196155817
 30
0.0
  0
VERTEX
  5
1DBE4
  8
1DIM
 10
16692.02892384828
 20
6538.367145935831
 30
0.0
  0
VERTEX
  5
1DBE5
  8
1DIM
 10
16692.06922855885
 20
6537.482547339872
 30
0.0
  0
VERTEX
  5
1DBE6
  8
1DIM
 10
16692.13673244504
 20
6536.596511587341
 30
0.0
  0
VERTEX
  5
1DBE7
  8
1DIM
 10
16692.22933060334
 20
6535.709149897632
 30
0.0
  0
VERTEX
  5
1DBE8
  8
1DIM
 10
16692.34491813024
 20
6534.820573490143
 30
0.0
  0
VERTEX
  5
1DBE9
  8
1DIM
 10
16692.48139012224
 20
6533.930893584272
 30
0.0
  0
VERTEX
  5
1DBEA
  8
1DIM
 10
16692.63664167582
 20
6533.040221399414
 30
0.0
  0
VERTEX
  5
1DBEB
  8
1DIM
 10
16692.80856788748
 20
6532.14866815497
 30
0.0
  0
VERTEX
  5
1DBEC
  8
1DIM
 10
16692.99506385372
 20
6531.256345070331
 30
0.0
  0
SEQEND
  5
1DD92
  8
1DIM
  0
LINE
  5
1B4E3
  8
01
 10
16609.13068868795
 20
6658.634031594604
 30
0.0
 11
16536.91326749108
 21
6658.634031594604
 31
0.0
  0
LINE
  5
1B4E4
  8
01
 10
16612.13803943534
 20
6667.897381461244
 30
0.0
 11
16539.92061823847
 21
6667.897381461244
 31
0.0
  0
LINE
  5
1B4E5
  8
01
 10
16612.28029780299
 20
6675.846974331529
 30
0.0
 11
16540.06287660612
 21
6675.846974331529
 31
0.0
  0
LINE
  5
1B4E6
  8
01
 10
16609.20463477287
 20
6658.886114882196
 30
0.0
 11
16536.987213576
 21
6658.886114882196
 31
0.0
  0
LINE
  5
1B4E7
  8
01
 10
16608.46722406984
 20
6655.80508895636
 30
0.0
 11
16536.24980287297
 21
6655.80508895636
 31
0.0
  0
LINE
  5
1B4E8
  8
01
 10
16612.04349472186
 20
6667.524465793875
 30
0.0
 11
16539.82607352499
 21
6667.524465793875
 31
0.0
  0
LINE
  5
1B4E9
  8
01
 10
16612.40179665732
 20
6675.23862680867
 30
0.0
 11
16540.18437546045
 21
6675.23862680867
 31
0.0
  0
LINE
  5
1B4EA
  8
01
 10
16608.21340630314
 20
6650.619388674164
 30
0.0
 11
16535.99598510627
 21
6650.619388674164
 31
0.0
  0
LINE
  5
1B4EB
  8
01
 10
16608.4600085326
 20
6648.090927941561
 30
0.0
 11
16536.24258733573
 21
6648.090927941561
 31
0.0
  0
LINE
  5
1B4EC
  8
01
 10
16611.82656596179
 20
6677.634866061515
 30
0.0
 11
16539.60914476492
 21
6677.634866061515
 31
0.0
  0
LINE
  5
1B4ED
  8
01
 10
16608.28381048251
 20
6654.447956924654
 30
0.0
 11
16536.06638928564
 21
6654.447956924654
 31
0.0
  0
LINE
  5
1B4EE
  8
01
 10
16608.18139459204
 20
6651.355737387232
 30
0.0
 11
16535.96397339517
 21
6651.355737387232
 31
0.0
  0
LINE
  5
1B4EF
  8
01
 10
16611.41696226192
 20
6678.942770162197
 30
0.0
 11
16539.19954106505
 21
6678.942770162197
 31
0.0
  0
LINE
  5
1B4F0
  8
01
 10
16610.74973585944
 20
6663.452669105103
 30
0.0
 11
16538.53231466257
 21
6663.452669105103
 31
0.0
  0
LINE
  5
1B4F1
  8
01
 10
16611.37306214871
 20
6679.073207607675
 30
0.0
 11
16539.15564095184
 21
6679.073207607675
 31
0.0
  0
LINE
  5
1B4F2
  8
01
 10
16612.70275147913
 20
6671.973817363003
 30
0.0
 11
16540.48533028226
 21
6671.973817363003
 31
0.0
  0
LINE
  5
1B4F3
  8
01
 10
16612.35852882425
 20
6668.881597825577
 30
0.0
 11
16540.14110762738
 21
6668.881597825577
 31
0.0
  0
LINE
  5
1B4F4
  8
01
 10
16608.54704962447
 20
6647.482580418706
 30
0.0
 11
16536.3296284276
 21
6647.482580418706
 31
0.0
  0
LINE
  5
1B4F5
  8
01
 10
16609.51246905352
 20
6659.876885645132
 30
0.0
 11
16537.29504785665
 21
6659.876885645132
 31
0.0
  0
LINE
  5
1B4F6
  8
01
 10
16608.17246643596
 20
6651.752825444968
 30
0.0
 11
16535.95504523909
 21
6651.752825444968
 31
0.0
  0
LINE
  5
1B4F7
  8
01
 10
16611.51894292136
 20
6678.633559889306
 30
0.0
 11
16539.30152172449
 21
6678.633559889306
 31
0.0
  0
LINE
  5
1B4F8
  8
01
 10
16612.47053875353
 20
6674.844801213443
 30
0.0
 11
16540.25311755665
 21
6674.844801213443
 31
0.0
  0
LINE
  5
1B4F9
  8
01
 10
16612.69322236464
 20
6671.576729305263
 30
0.0
 11
16540.47580116777
 21
6671.576729305263
 31
0.0
  0
LINE
  5
1B4FA
  8
01
 10
16608.40754203928
 20
6655.432173288988
 30
0.0
 11
16536.19012084241
 21
6655.432173288988
 31
0.0
  0
LINE
  5
1B4FB
  8
01
 10
16611.92965106131
 20
6677.270947917394
 30
0.0
 11
16539.71222986444
 21
6677.270947917394
 31
0.0
  0
LINE
  5
1B4FC
  8
01
 10
16612.69197519089
 20
6672.710166076071
 30
0.0
 11
16540.47455399402
 21
6672.710166076071
 31
0.0
  0
LINE
  5
1B4FD
  8
01
 10
16608.40895356084
 20
6648.484753536792
 30
0.0
 11
16536.19153236397
 21
6648.484753536792
 31
0.0
  0
LINE
  5
1B4FE
  8
01
 10
16611.09445744079
 20
6664.443439868039
 30
0.0
 11
16538.87703624392
 21
6664.443439868039
 31
0.0
  0
LINE
  5
1B4FF
  8
01
 10
16622.07235592104
 20
6675.903850955132
 30
0.0
 11
16688.39059955005
 21
6675.903850955132
 31
0.0
  0
LINE
  5
1B500
  8
01
 10
16609.61807539165
 20
6660.200408910554
 30
0.0
 11
16537.40065419478
 21
6660.200408910554
 31
0.0
  0
LINE
  5
1B501
  8
01
 10
16620.98471264985
 20
6664.695805653872
 30
0.0
 11
16687.30295627885
 21
6664.695805653872
 31
0.0
  0
LINE
  5
1B502
  8
01
 10
16608.21988913181
 20
6650.508738194752
 30
0.0
 11
16536.00246793494
 21
6650.508738194752
 31
0.0
  0
LINE
  5
1B503
  8
01
 10
16611.71289293356
 20
6678.017289301595
 30
0.0
 11
16539.49547173669
 21
6678.017289301595
 31
0.0
  0
LINE
  5
1B504
  8
01
 10
16622.49160160375
 20
6672.820816555482
 30
0.0
 11
16688.80984523275
 21
6672.820816555482
 31
0.0
  0
LINE
  5
1B505
  8
01
 10
16608.26663835136
 20
6654.271673846662
 30
0.0
 11
16536.04921715449
 21
6654.271673846662
 31
0.0
  0
LINE
  5
1B506
  8
01
 10
16621.51123410271
 20
6678.036960525711
 30
0.0
 11
16687.82947773171
 21
6678.036960525711
 31
0.0
  0
LINE
  5
1B507
  8
01
 10
16608.55567420413
 20
6647.425703795103
 30
0.0
 11
16536.33825300726
 21
6647.425703795103
 31
0.0
  0
LINE
  5
1B508
  8
01
 10
16609.13060692867
 20
6658.63374909636
 30
0.0
 11
16536.9131857318
 21
6658.63374909636
 31
0.0
  0
LINE
  5
1B509
  8
01
 10
16622.19748475873
 20
6669.057880903569
 30
0.0
 11
16688.51572838773
 21
6669.057880903569
 31
0.0
  0
LINE
  5
1B50A
  8
01
 10
16610.63551285679
 20
6663.129145839677
 30
0.0
 11
16538.41809165992
 21
6663.129145839677
 31
0.0
  0
LINE
  5
1B50B
  8
1CENTER
 10
16619.92232218968
 20
6661.664777375117
 30
0.0
 11
16686.24056581868
 21
6661.664777375117
 31
0.0
  0
LINE
  5
1B50C
  8
01
 10
16608.78600522052
 20
6646.058606832841
 30
0.0
 11
16583.06986869504
 21
6646.058606832841
 31
0.0
  0
LINE
  5
1B50D
  8
01
 10
16609.14793546885
 20
6644.25634714256
 30
0.0
 11
16586.45498517781
 21
6644.25634714256
 31
0.0
  0
LINE
  5
1B50E
  8
01
 10
16609.11984720643
 20
6644.386784588038
 30
0.0
 11
16586.26116101506
 21
6644.386784588038
 31
0.0
  0
LINE
  5
1B50F
  8
01
 10
16608.85420091978
 20
6645.69468868872
 30
0.0
 11
16583.91691438397
 21
6645.69468868872
 31
0.0
  0
LINE
  5
1B510
  8
01
 10
16608.93258512847
 20
6645.29259422452
 30
0.0
 11
16584.73235946399
 21
6645.29259422452
 31
0.0
  0
LINE
  5
1B511
  8
01
 10
16608.92867911716
 20
6645.31226544864
 30
0.0
 11
16584.69483881997
 21
6645.31226544864
 31
0.0
  0
LINE
  5
1B512
  8
01
 10
16609.05435080168
 20
6644.695994860926
 30
0.0
 11
16585.77799183568
 21
6644.695994860926
 31
0.0
  0
LINE
  5
1B513
  8
01
 10
16608.40846129988
 20
6535.484753536784
 30
0.0
 11
16536.19104010301
 21
6535.484753536784
 31
0.0
  0
LINE
  5
1B514
  8
01
 10
16608.78527682424
 20
6533.058606832834
 30
0.0
 11
16536.56785562737
 21
6533.058606832834
 31
0.0
  0
LINE
  5
1B515
  8
01
 10
16608.21318183343
 20
6537.619388674157
 30
0.0
 11
16535.99576063655
 21
6537.619388674157
 31
0.0
  0
LINE
  5
1B516
  8
01
 10
16608.17240769355
 20
6538.752825444964
 30
0.0
 11
16535.95498649668
 21
6538.752825444964
 31
0.0
  0
LINE
  5
1B517
  8
01
 10
16608.85344322611
 20
6532.694688688713
 30
0.0
 11
16536.63602202923
 21
6532.694688688713
 31
0.0
  0
LINE
  5
1B518
  8
01
 10
16608.5464511541
 20
6534.482580418698
 30
0.0
 11
16536.32902995722
 21
6534.482580418698
 31
0.0
  0
LINE
  5
1B519
  8
01
 10
16608.45947305932
 20
6535.090927941557
 30
0.0
 11
16536.24205186245
 21
6535.090927941557
 31
0.0
  0
LINE
  5
1B51A
  8
01
 10
16608.18127589879
 20
6538.355737387225
 30
0.0
 11
16535.96385470191
 21
6538.355737387225
 31
0.0
  0
LINE
  5
1B51B
  8
01
 10
16611.18162882567
 20
6551.695523155624
 30
0.0
 11
16538.9642076288
 21
6551.695523155624
 31
0.0
  0
LINE
  5
1B51C
  8
01
 10
16612.70279135424
 20
6558.973817362996
 30
0.0
 11
16540.48537015737
 21
6558.973817362996
 31
0.0
  0
LINE
  5
1B51D
  8
01
 10
16612.13901456959
 20
6554.89738146124
 30
0.0
 11
16539.92159337272
 21
6554.89738146124
 31
0.0
  0
LINE
  5
1B51E
  8
01
 10
16612.04452955213
 20
6554.524465793867
 30
0.0
 11
16539.82710835526
 21
6554.524465793867
 31
0.0
  0
LINE
  5
1B51F
  8
01
 10
16608.40813900521
 20
6542.432173288984
 30
0.0
 11
16536.19071780833
 21
6542.432173288984
 31
0.0
  0
LINE
  5
1B520
  8
01
 10
16608.28421391871
 20
6541.44795692465
 30
0.0
 11
16536.06679272183
 21
6541.44795692465
 31
0.0
  0
LINE
  5
1B521
  8
01
 10
16612.69182017456
 20
6559.710166076064
 30
0.0
 11
16540.47439897769
 21
6559.710166076064
 31
0.0
  0
LINE
  5
1B522
  8
01
 10
16608.46789793435
 20
6542.805088956353
 30
0.0
 11
16536.25047673747
 21
6542.805088956353
 31
0.0
  0
LINE
  5
1B523
  8
01
 10
16610.75113299672
 20
6550.452669105096
 30
0.0
 11
16538.53371179985
 21
6550.452669105096
 31
0.0
  0
LINE
  5
1B524
  8
01
 10
16611.09581523729
 20
6551.443439868031
 30
0.0
 11
16538.87839404042
 21
6551.443439868031
 31
0.0
  0
LINE
  5
1B525
  8
01
 10
16612.69337236009
 20
6558.57672930526
 30
0.0
 11
16540.47595116321
 21
6558.57672930526
 31
0.0
  0
LINE
  5
1B526
  8
01
 10
16612.46988662179
 20
6561.844801213436
 30
0.0
 11
16540.25246542492
 21
6561.844801213436
 31
0.0
  0
LINE
  5
1B527
  8
01
 10
16612.40106376088
 20
6562.238626808667
 30
0.0
 11
16540.18364256401
 21
6562.238626808667
 31
0.0
  0
LINE
  5
1B528
  8
01
 10
16609.51375035767
 20
6546.876885645124
 30
0.0
 11
16537.29632916079
 21
6546.876885645124
 31
0.0
  0
LINE
  5
1B529
  8
01
 10
16609.20581382627
 20
6545.886114882189
 30
0.0
 11
16536.9883926294
 21
6545.886114882189
 31
0.0
  0
LINE
  5
1B52A
  8
01
 10
16612.35932511878
 20
6555.881597825573
 30
0.0
 11
16540.14190392191
 21
6555.881597825573
 31
0.0
  0
LINE
  5
1B52B
  8
01
 10
16618.07133952378
 20
6541.271673846659
 30
0.0
 11
16684.38958315278
 21
6541.271673846659
 31
0.0
  0
LINE
  5
1B52C
  8
01
 10
16609.05352079735
 20
6531.695994860922
 30
0.0
 11
16536.83609960047
 21
6531.695994860922
 31
0.0
  0
LINE
  5
1B52D
  8
01
 10
16618.02398034211
 20
6537.508738194745
 30
0.0
 11
16684.34222397111
 21
6537.508738194745
 31
0.0
  0
LINE
  5
1B52E
  8
01
 10
16618.35940104801
 20
6534.425703795096
 30
0.0
 11
16684.67764467702
 21
6534.425703795096
 31
0.0
  0
LINE
  5
1B52F
  8
01
 10
16609.11899720488
 20
6531.38678458803
 30
0.0
 11
16536.90157600801
 21
6531.38678458803
 31
0.0
  0
LINE
  5
1B530
  8
01
 10
16608.92789233653
 20
6532.312265448632
 30
0.0
 11
16536.71047113966
 21
6532.312265448632
 31
0.0
  0
LINE
  5
1B531
  8
01
 10
16609.14707735806
 20
6531.256347142553
 30
0.0
 11
16536.92965616119
 21
6531.256347142553
 31
0.0
  0
LINE
  5
1B532
  8
01
 10
16618.93608616509
 20
6545.633749096356
 30
0.0
 11
16685.25432979409
 21
6545.633749096356
 31
0.0
  0
LINE
  5
1B533
  8
01
 10
16612.27944681122
 20
6562.846974331522
 30
0.0
 11
16540.06202561436
 21
6562.846974331522
 31
0.0
  0
LINE
  5
1B534
  8
01
 10
16611.18172444533
 20
6551.695805653868
 30
0.0
 11
16538.96430324846
 21
6551.695805653868
 31
0.0
  0
LINE
  5
1B535
  8
01
 10
16612.39391479516
 20
6556.057880903565
 30
0.0
 11
16540.17649359829
 21
6556.057880903565
 31
0.0
  0
LINE
  5
1B536
  8
01
 10
16612.6870873699
 20
6559.820816555475
 30
0.0
 11
16540.46966617303
 21
6559.820816555475
 31
0.0
  0
LINE
  5
1B537
  8
01
 10
16609.6193835693
 20
6547.20040891055
 30
0.0
 11
16537.40196237242
 21
6547.20040891055
 31
0.0
  0
LINE
  5
1B538
  8
01
 10
16610.63691607099
 20
6550.129145839674
 30
0.0
 11
16538.41949487412
 21
6550.129145839674
 31
0.0
  0
LINE
  5
1B539
  8
01
 10
16618.73612787259
 20
6532.292594224517
 30
0.0
 11
16685.05437150159
 21
6532.292594224517
 31
0.0
  0
LINE
  5
1B53A
  8
01
 10
16612.26716332689
 20
6562.903850955125
 30
0.0
 11
16540.04974213002
 21
6562.903850955125
 31
0.0
  0
LINE
  5
1B53B
  8
1CENTER
 10
16619.92371148972
 20
6548.66477737511
 30
0.0
 11
16686.24195511872
 21
6548.66477737511
 31
0.0
  0
LINE
  5
1B53C
  8
01
 10
16611.37171913228
 20
6566.073207607667
 30
0.0
 11
16586.45498517781
 21
6566.073207607667
 31
0.0
  0
LINE
  5
1B53D
  8
01
 10
16611.7116861835
 20
6565.017289301588
 30
0.0
 11
16584.69483881997
 21
6565.017289301588
 31
0.0
  0
LINE
  5
1B53E
  8
01
 10
16611.51765372404
 20
6565.633559889302
 30
0.0
 11
16585.77799183568
 21
6565.633559889302
 31
0.0
  0
LINE
  5
1B53F
  8
01
 10
16611.70569361718
 20
6565.036960525707
 30
0.0
 11
16584.73235946399
 21
6565.036960525707
 31
0.0
  0
LINE
  5
1B540
  8
01
 10
16611.41563477925
 20
6565.94277016219
 30
0.0
 11
16586.26116101506
 21
6565.94277016219
 31
0.0
  0
LINE
  5
1B541
  8
01
 10
16611.92855514852
 20
6564.270947917386
 30
0.0
 11
16583.06986869504
 21
6564.270947917386
 31
0.0
  0
LINE
  5
1B542
  8
01
 10
16611.82541450359
 20
6564.634866061508
 30
0.0
 11
16583.91691438397
 21
6564.634866061508
 31
0.0
  0
LINE
  5
1B543
  8
01
 10
16685.2532632909
 20
6658.634031594604
 30
0.0
 11
16618.93501966189
 21
6658.634031594604
 31
0.0
  0
LINE
  5
1B544
  8
01
 10
16688.26061403828
 20
6667.897381461244
 30
0.0
 11
16621.94237040928
 21
6667.897381461244
 31
0.0
  0
LINE
  5
1B545
  8
01
 10
16688.40287240594
 20
6675.846974331529
 30
0.0
 11
16622.08462877693
 21
6675.846974331529
 31
0.0
  0
LINE
  5
1B546
  8
01
 10
16685.32720937581
 20
6658.886114882196
 30
0.0
 11
16619.00896574681
 21
6658.886114882196
 31
0.0
  0
LINE
  5
1B547
  8
01
 10
16684.58979867278
 20
6655.80508895636
 30
0.0
 11
16618.27155504378
 21
6655.80508895636
 31
0.0
  0
LINE
  5
1B548
  8
01
 10
16688.1660693248
 20
6667.524465793875
 30
0.0
 11
16621.8478256958
 21
6667.524465793875
 31
0.0
  0
LINE
  5
1B549
  8
01
 10
16688.52437126027
 20
6675.23862680867
 30
0.0
 11
16622.20612763126
 21
6675.23862680867
 31
0.0
  0
LINE
  5
1B54A
  8
01
 10
16684.33598090609
 20
6650.619388674164
 30
0.0
 11
16618.01773727708
 21
6650.619388674164
 31
0.0
  0
LINE
  5
1B54B
  8
01
 10
16684.58258313554
 20
6648.090927941561
 30
0.0
 11
16618.26433950654
 21
6648.090927941561
 31
0.0
  0
LINE
  5
1B54C
  8
01
 10
16687.94914056474
 20
6677.634866061515
 30
0.0
 11
16621.63089693573
 21
6677.634866061515
 31
0.0
  0
LINE
  5
1B54D
  8
01
 10
16684.40638508545
 20
6654.447956924654
 30
0.0
 11
16618.08814145645
 21
6654.447956924654
 31
0.0
  0
LINE
  5
1B54E
  8
01
 10
16684.30396919499
 20
6651.355737387232
 30
0.0
 11
16617.98572556598
 21
6651.355737387232
 31
0.0
  0
LINE
  5
1B54F
  8
01
 10
16687.53953686486
 20
6678.942770162197
 30
0.0
 11
16621.22129323586
 21
6678.942770162197
 31
0.0
  0
LINE
  5
1B550
  8
01
 10
16686.87231046239
 20
6663.452669105103
 30
0.0
 11
16620.55406683338
 21
6663.452669105103
 31
0.0
  0
LINE
  5
1B551
  8
01
 10
16687.49563675166
 20
6679.073207607675
 30
0.0
 11
16621.17739312265
 21
6679.073207607675
 31
0.0
  0
LINE
  5
1B552
  8
01
 10
16688.82532608207
 20
6671.973817363003
 30
0.0
 11
16622.50708245307
 21
6671.973817363003
 31
0.0
  0
LINE
  5
1B553
  8
01
 10
16688.4811034272
 20
6668.881597825577
 30
0.0
 11
16622.16285979819
 21
6668.881597825577
 31
0.0
  0
LINE
  5
1B554
  8
01
 10
16684.66962422742
 20
6647.482580418706
 30
0.0
 11
16618.35138059841
 21
6647.482580418706
 31
0.0
  0
LINE
  5
1B555
  8
01
 10
16685.63504365646
 20
6659.876885645132
 30
0.0
 11
16619.31680002746
 21
6659.876885645132
 31
0.0
  0
LINE
  5
1B556
  8
01
 10
16684.29504103891
 20
6651.752825444968
 30
0.0
 11
16617.9767974099
 21
6651.752825444968
 31
0.0
  0
LINE
  5
1B557
  8
01
 10
16687.64151752431
 20
6678.633559889306
 30
0.0
 11
16621.3232738953
 21
6678.633559889306
 31
0.0
  0
LINE
  5
1B558
  8
01
 10
16688.59311335647
 20
6674.844801213443
 30
0.0
 11
16622.27486972747
 21
6674.844801213443
 31
0.0
  0
LINE
  5
1B559
  8
01
 10
16688.81579696758
 20
6671.576729305263
 30
0.0
 11
16622.49755333858
 21
6671.576729305263
 31
0.0
  0
LINE
  5
1B55A
  8
01
 10
16684.53011664223
 20
6655.432173288988
 30
0.0
 11
16618.21187301322
 21
6655.432173288988
 31
0.0
  0
LINE
  5
1B55B
  8
01
 10
16688.05222566425
 20
6677.270947917394
 30
0.0
 11
16621.73398203525
 21
6677.270947917394
 31
0.0
  0
LINE
  5
1B55C
  8
01
 10
16688.81454979383
 20
6672.710166076071
 30
0.0
 11
16622.49630616483
 21
6672.710166076071
 31
0.0
  0
LINE
  5
1B55D
  8
01
 10
16684.53152816378
 20
6648.484753536792
 30
0.0
 11
16618.21328453478
 21
6648.484753536792
 31
0.0
  0
LINE
  5
1B55E
  8
01
 10
16687.21703204374
 20
6664.443439868039
 30
0.0
 11
16620.89878841474
 21
6664.443439868039
 31
0.0
  0
LINE
  5
1B55F
  8
01
 10
16685.74064999459
 20
6660.200408910554
 30
0.0
 11
16619.42240636559
 21
6660.200408910554
 31
0.0
  0
LINE
  5
1B560
  8
01
 10
16684.34246373476
 20
6650.508738194752
 30
0.0
 11
16618.02422010576
 21
6650.508738194752
 31
0.0
  0
LINE
  5
1B561
  8
01
 10
16687.8354675365
 20
6678.017289301595
 30
0.0
 11
16621.5172239075
 21
6678.017289301595
 31
0.0
  0
LINE
  5
1B562
  8
01
 10
16684.38921295431
 20
6654.271673846662
 30
0.0
 11
16618.0709693253
 21
6654.271673846662
 31
0.0
  0
LINE
  5
1B563
  8
01
 10
16684.67824880707
 20
6647.425703795103
 30
0.0
 11
16618.36000517807
 21
6647.425703795103
 31
0.0
  0
LINE
  5
1B564
  8
01
 10
16685.25318153161
 20
6658.63374909636
 30
0.0
 11
16618.93493790261
 21
6658.63374909636
 31
0.0
  0
LINE
  5
1B565
  8
01
 10
16686.75808745973
 20
6663.129145839677
 30
0.0
 11
16620.43984383073
 21
6663.129145839677
 31
0.0
  0
LINE
  5
1B566
  8
01
 10
16695.02836771222
 20
6664.695805653872
 30
0.0
 11
16821.43570298218
 21
6664.695805653872
 31
0.0
  0
LINE
  5
1B567
  8
01
 10
16696.53525666612
 20
6672.820816555482
 30
0.0
 11
16821.43570298218
 21
6672.820816555482
 31
0.0
  0
LINE
  5
1B568
  8
01
 10
16696.11601098341
 20
6675.903850955132
 30
0.0
 11
16821.43570298218
 21
6675.903850955132
 31
0.0
  0
LINE
  5
1B569
  8
1CENTER
 10
16693.96597725205
 20
6661.664777375117
 30
0.0
 11
16839.25265306572
 21
6661.664777375117
 31
0.0
  0
LINE
  5
1B56A
  8
01
 10
16695.55488916508
 20
6678.036960525711
 30
0.0
 11
16821.43570298218
 21
6678.036960525711
 31
0.0
  0
LINE
  5
1B56B
  8
01
 10
16696.2411398211
 20
6669.057880903569
 30
0.0
 11
16821.43570298218
 21
6669.057880903569
 31
0.0
  0
LINE
  5
1B56C
  8
01
 10
16684.90857982346
 20
6646.058606832841
 30
0.0
 11
16662.37567525244
 21
6646.058606832841
 31
0.0
  0
LINE
  5
1B56D
  8
01
 10
16685.27051007179
 20
6644.25634714256
 30
0.0
 11
16665.76079173521
 21
6644.25634714256
 31
0.0
  0
LINE
  5
1B56E
  8
01
 10
16685.24242180937
 20
6644.386784588038
 30
0.0
 11
16665.56696757247
 21
6644.386784588038
 31
0.0
  0
LINE
  5
1B56F
  8
01
 10
16684.97677552273
 20
6645.69468868872
 30
0.0
 11
16663.22272094137
 21
6645.69468868872
 31
0.0
  0
LINE
  5
1B570
  8
01
 10
16685.0512537201
 20
6645.31226544864
 30
0.0
 11
16664.00064537737
 21
6645.31226544864
 31
0.0
  0
LINE
  5
1B571
  8
01
 10
16685.05515973141
 20
6645.29259422452
 30
0.0
 11
16664.03816602139
 21
6645.29259422452
 31
0.0
  0
LINE
  5
1B572
  8
01
 10
16685.17692540463
 20
6644.695994860926
 30
0.0
 11
16665.08379839308
 21
6644.695994860926
 31
0.0
  0
LINE
  5
1B573
  8
01
 10
16692.06763540448
 20
6537.508738194745
 30
0.0
 11
16821.43570298218
 21
6537.508738194745
 31
0.0
  0
LINE
  5
1B574
  8
01
 10
16692.97974122746
 20
6545.633749096356
 30
0.0
 11
16821.43570298218
 21
6545.633749096356
 31
0.0
  0
LINE
  5
1B575
  8
01
 10
16692.40305611038
 20
6534.425703795096
 30
0.0
 11
16821.43570298218
 21
6534.425703795096
 31
0.0
  0
LINE
  5
1B576
  8
1CENTER
 10
16693.96736655209
 20
6548.66477737511
 30
0.0
 11
16839.25265306572
 21
6548.66477737511
 31
0.0
  0
LINE
  5
1B577
  8
01
 10
16692.11499458615
 20
6541.271673846659
 30
0.0
 11
16821.43570298218
 21
6541.271673846659
 31
0.0
  0
LINE
  5
1B578
  8
01
 10
16692.77978293496
 20
6532.292594224517
 30
0.0
 11
16821.43570298218
 21
6532.292594224517
 31
0.0
  0
LINE
  5
1B579
  8
01
 10
16684.53103590283
 20
6535.484753536784
 30
0.0
 11
16618.21279227382
 21
6535.484753536784
 31
0.0
  0
LINE
  5
1B57A
  8
01
 10
16684.90785142719
 20
6533.058606832834
 30
0.0
 11
16618.58960779818
 21
6533.058606832834
 31
0.0
  0
LINE
  5
1B57B
  8
01
 10
16684.33575643637
 20
6537.619388674157
 30
0.0
 11
16618.01751280737
 21
6537.619388674157
 31
0.0
  0
LINE
  5
1B57C
  8
01
 10
16684.29498229649
 20
6538.752825444964
 30
0.0
 11
16617.97673866749
 21
6538.752825444964
 31
0.0
  0
LINE
  5
1B57D
  8
01
 10
16684.97601782905
 20
6532.694688688713
 30
0.0
 11
16618.65777420005
 21
6532.694688688713
 31
0.0
  0
LINE
  5
1B57E
  8
01
 10
16684.66902575704
 20
6534.482580418698
 30
0.0
 11
16618.35078212804
 21
6534.482580418698
 31
0.0
  0
LINE
  5
1B57F
  8
01
 10
16684.58204766226
 20
6535.090927941557
 30
0.0
 11
16618.26380403326
 21
6535.090927941557
 31
0.0
  0
LINE
  5
1B580
  8
01
 10
16684.30385050173
 20
6538.355737387225
 30
0.0
 11
16617.98560687273
 21
6538.355737387225
 31
0.0
  0
LINE
  5
1B581
  8
01
 10
16687.30420342862
 20
6551.695523155624
 30
0.0
 11
16620.98595979961
 21
6551.695523155624
 31
0.0
  0
LINE
  5
1B582
  8
01
 10
16688.82536595719
 20
6558.973817362996
 30
0.0
 11
16622.50712232818
 21
6558.973817362996
 31
0.0
  0
LINE
  5
1B583
  8
01
 10
16688.26158917254
 20
6554.89738146124
 30
0.0
 11
16621.94334554353
 21
6554.89738146124
 31
0.0
  0
LINE
  5
1B584
  8
01
 10
16688.16710415508
 20
6554.524465793867
 30
0.0
 11
16621.84886052607
 21
6554.524465793867
 31
0.0
  0
LINE
  5
1B585
  8
01
 10
16684.53071360815
 20
6542.432173288984
 30
0.0
 11
16618.21246997915
 21
6542.432173288984
 31
0.0
  0
LINE
  5
1B586
  8
01
 10
16684.40678852165
 20
6541.44795692465
 30
0.0
 11
16618.08854489265
 21
6541.44795692465
 31
0.0
  0
LINE
  5
1B587
  8
01
 10
16688.81439477751
 20
6559.710166076064
 30
0.0
 11
16622.4961511485
 21
6559.710166076064
 31
0.0
  0
LINE
  5
1B588
  8
01
 10
16684.59047253729
 20
6542.805088956353
 30
0.0
 11
16618.27222890829
 21
6542.805088956353
 31
0.0
  0
LINE
  5
1B589
  8
01
 10
16686.87370759967
 20
6550.452669105096
 30
0.0
 11
16620.55546397066
 21
6550.452669105096
 31
0.0
  0
LINE
  5
1B58A
  8
01
 10
16687.21838984024
 20
6551.443439868031
 30
0.0
 11
16620.90014621123
 21
6551.443439868031
 31
0.0
  0
LINE
  5
1B58B
  8
01
 10
16688.81594696303
 20
6558.57672930526
 30
0.0
 11
16622.49770333403
 21
6558.57672930526
 31
0.0
  0
LINE
  5
1B58C
  8
01
 10
16688.59246122473
 20
6561.844801213436
 30
0.0
 11
16622.27421759573
 21
6561.844801213436
 31
0.0
  0
LINE
  5
1B58D
  8
01
 10
16688.52363836382
 20
6562.238626808667
 30
0.0
 11
16622.20539473482
 21
6562.238626808667
 31
0.0
  0
LINE
  5
1B58E
  8
01
 10
16685.63632496061
 20
6546.876885645124
 30
0.0
 11
16619.31808133161
 21
6546.876885645124
 31
0.0
  0
LINE
  5
1B58F
  8
01
 10
16685.32838842921
 20
6545.886114882189
 30
0.0
 11
16619.01014480021
 21
6545.886114882189
 31
0.0
  0
LINE
  5
1B590
  8
01
 10
16688.48189972173
 20
6555.881597825573
 30
0.0
 11
16622.16365609272
 21
6555.881597825573
 31
0.0
  0
LINE
  5
1B591
  8
01
 10
16685.17609540029
 20
6531.695994860922
 30
0.0
 11
16618.85785177129
 21
6531.695994860922
 31
0.0
  0
LINE
  5
1B592
  8
01
 10
16685.24157180783
 20
6531.38678458803
 30
0.0
 11
16618.92332817882
 21
6531.38678458803
 31
0.0
  0
LINE
  5
1B593
  8
01
 10
16685.05046693948
 20
6532.312265448632
 30
0.0
 11
16618.73222331047
 21
6532.312265448632
 31
0.0
  0
LINE
  5
1B594
  8
01
 10
16685.26965196101
 20
6531.256347142553
 30
0.0
 11
16618.951408332
 21
6531.256347142553
 31
0.0
  0
LINE
  5
1B595
  8
01
 10
16688.40202141417
 20
6562.846974331522
 30
0.0
 11
16622.08377778517
 21
6562.846974331522
 31
0.0
  0
LINE
  5
1B596
  8
01
 10
16687.30429904828
 20
6551.695805653868
 30
0.0
 11
16620.98605541927
 21
6551.695805653868
 31
0.0
  0
LINE
  5
1B597
  8
01
 10
16688.51648939811
 20
6556.057880903565
 30
0.0
 11
16622.19824576911
 21
6556.057880903565
 31
0.0
  0
LINE
  5
1B598
  8
01
 10
16688.80966197285
 20
6559.820816555475
 30
0.0
 11
16622.49141834384
 21
6559.820816555475
 31
0.0
  0
LINE
  5
1B599
  8
01
 10
16685.74195817224
 20
6547.20040891055
 30
0.0
 11
16619.42371454324
 21
6547.20040891055
 31
0.0
  0
LINE
  5
1B59A
  8
01
 10
16686.75949067394
 20
6550.129145839674
 30
0.0
 11
16620.44124704494
 21
6550.129145839674
 31
0.0
  0
LINE
  5
1B59B
  8
01
 10
16688.38973792983
 20
6562.903850955125
 30
0.0
 11
16622.07149430083
 21
6562.903850955125
 31
0.0
  0
LINE
  5
1B59C
  8
01
 10
16687.49429373522
 20
6566.073207607667
 30
0.0
 11
16665.76079173521
 21
6566.073207607667
 31
0.0
  0
LINE
  5
1B59D
  8
01
 10
16688.05112975146
 20
6564.270947917386
 30
0.0
 11
16662.37567525244
 21
6564.270947917386
 31
0.0
  0
LINE
  5
1B59E
  8
01
 10
16687.82826822012
 20
6565.036960525707
 30
0.0
 11
16664.03816602139
 21
6565.036960525707
 31
0.0
  0
LINE
  5
1B59F
  8
01
 10
16687.83426078645
 20
6565.017289301588
 30
0.0
 11
16664.00064537737
 21
6565.017289301588
 31
0.0
  0
LINE
  5
1B5A0
  8
01
 10
16687.94798910654
 20
6564.634866061508
 30
0.0
 11
16663.22272094137
 21
6564.634866061508
 31
0.0
  0
LINE
  5
1B5A1
  8
01
 10
16687.64022832698
 20
6565.633559889302
 30
0.0
 11
16665.08379839308
 21
6565.633559889302
 31
0.0
  0
LINE
  5
1B5A2
  8
01
 10
16687.5382093822
 20
6565.94277016219
 30
0.0
 11
16665.56696757247
 21
6565.94277016219
 31
0.0
  0
LINE
  5
1B5A3
  8
1CENTER
 10
16537.90195931891
 20
6548.66477737511
 30
0.0
 11
16610.11938051578
 21
6548.66477737511
 31
0.0
  0
LINE
  5
1B5A4
  8
1CENTER
 10
16537.90057001887
 20
6661.664777375117
 30
0.0
 11
16610.11799121574
 21
6661.664777375117
 31
0.0
  0
LINE
  5
1B5A5
  8
1CENTER
 10
16489.00341189823
 20
6617.164777375139
 30
0.0
 11
16498.60341189824
 21
6617.164777375139
 31
0.0
  0
CIRCLE
  5
1B5A6
  8
01
  6
CONTINUOUS
 10
16493.80341189823
 20
6617.164777375139
 30
0.0
 40
4.0
  0
ARC
  5
1B5A7
  8
01
  6
CONTINUOUS
 10
16495.30341189823
 20
6618.664777375139
 30
0.0
 40
1.0
 50
180.0
 51
270.0
  0
ARC
  5
1B5A8
  8
01
  6
CONTINUOUS
 10
16492.30341189823
 20
6615.664777375139
 30
0.0
 40
1.0
 50
0.0
 51
90.0
  0
ARC
  5
1B5A9
  8
01
  6
CONTINUOUS
 10
16495.30341189823
 20
6615.664777375139
 30
0.0
 40
1.0
 50
90.0
 51
180.0
  0
ARC
  5
1B5AA
  8
01
  6
CONTINUOUS
 10
16492.30341189823
 20
6618.664777375139
 30
0.0
 40
1.0
 50
270.0
 51
0.0
  0
LINE
  5
1B5AB
  8
01
  6
CONTINUOUS
 10
16496.05341189823
 20
6616.664777375139
 30
0.0
 11
16496.05341189823
 21
6617.664777375139
 31
0.0
  0
LINE
  5
1B5AC
  8
01
  6
CONTINUOUS
 10
16494.30341189823
 20
6618.664777375139
 30
0.0
 11
16494.30341189824
 21
6619.414777375139
 31
0.0
  0
LINE
  5
1B5AD
  8
01
  6
CONTINUOUS
 10
16494.30341189824
 20
6619.414777375139
 30
0.0
 11
16493.30341189824
 21
6619.414777375139
 31
0.0
  0
LINE
  5
1B5AE
  8
01
  6
CONTINUOUS
 10
16491.55341189823
 20
6617.664777375139
 30
0.0
 11
16491.55341189823
 21
6616.664777375139
 31
0.0
  0
LINE
  5
1B5AF
  8
01
  6
CONTINUOUS
 10
16491.55341189823
 20
6616.664777375139
 30
0.0
 11
16492.30341189823
 21
6616.664777375139
 31
0.0
  0
LINE
  5
1B5B0
  8
01
  6
CONTINUOUS
 10
16493.30341189823
 20
6614.914777375139
 30
0.0
 11
16494.30341189823
 21
6614.914777375139
 31
0.0
  0
LINE
  5
1B5B1
  8
01
  6
CONTINUOUS
 10
16494.30341189823
 20
6614.914777375139
 30
0.0
 11
16494.30341189823
 21
6615.664777375139
 31
0.0
  0
LINE
  5
1B5B2
  8
01
  6
CONTINUOUS
 10
16495.30341189823
 20
6616.664777375139
 30
0.0
 11
16496.05341189823
 21
6616.664777375139
 31
0.0
  0
LINE
  5
1B5B3
  8
01
  6
CONTINUOUS
 10
16496.05341189823
 20
6617.664777375139
 30
0.0
 11
16495.30341189823
 21
6617.664777375139
 31
0.0
  0
LINE
  5
1B5B4
  8
01
  6
CONTINUOUS
 10
16493.30341189823
 20
6615.664777375139
 30
0.0
 11
16493.30341189823
 21
6614.914777375139
 31
0.0
  0
LINE
  5
1B5B5
  8
01
  6
CONTINUOUS
 10
16493.30341189824
 20
6619.414777375139
 30
0.0
 11
16493.30341189823
 21
6618.664777375139
 31
0.0
  0
LINE
  5
1B5B6
  8
01
  6
CONTINUOUS
 10
16492.30341189823
 20
6617.664777375139
 30
0.0
 11
16491.55341189823
 21
6617.664777375139
 31
0.0
  0
LINE
  5
1B5B7
  8
1CENTER
 10
16571.78779339647
 20
6617.164777375139
 30
0.0
 11
16581.38779339647
 21
6617.164777375139
 31
0.0
  0
CIRCLE
  5
1B5B8
  8
01
  6
CONTINUOUS
 10
16576.58779339647
 20
6617.164777375139
 30
0.0
 40
4.0
  0
ARC
  5
1B5B9
  8
01
  6
CONTINUOUS
 10
16578.08779339647
 20
6618.664777375139
 30
0.0
 40
1.0
 50
180.0
 51
270.0
  0
ARC
  5
1B5BA
  8
01
  6
CONTINUOUS
 10
16575.08779339647
 20
6615.664777375139
 30
0.0
 40
1.0
 50
0.0
 51
90.0
  0
ARC
  5
1B5BB
  8
01
  6
CONTINUOUS
 10
16578.08779339647
 20
6615.664777375139
 30
0.0
 40
1.0
 50
90.0
 51
180.0
  0
ARC
  5
1B5BC
  8
01
  6
CONTINUOUS
 10
16575.08779339647
 20
6618.664777375139
 30
0.0
 40
1.0
 50
270.0
 51
0.0
  0
LINE
  5
1B5BD
  8
01
  6
CONTINUOUS
 10
16578.83779339647
 20
6616.664777375139
 30
0.0
 11
16578.83779339647
 21
6617.664777375139
 31
0.0
  0
LINE
  5
1B5BE
  8
01
  6
CONTINUOUS
 10
16577.08779339647
 20
6618.664777375139
 30
0.0
 11
16577.08779339647
 21
6619.414777375139
 31
0.0
  0
LINE
  5
1B5BF
  8
01
  6
CONTINUOUS
 10
16577.08779339647
 20
6619.414777375139
 30
0.0
 11
16576.08779339647
 21
6619.414777375139
 31
0.0
  0
LINE
  5
1B5C0
  8
01
  6
CONTINUOUS
 10
16574.33779339647
 20
6617.664777375139
 30
0.0
 11
16574.33779339647
 21
6616.664777375139
 31
0.0
  0
LINE
  5
1B5C1
  8
01
  6
CONTINUOUS
 10
16574.33779339647
 20
6616.664777375139
 30
0.0
 11
16575.08779339647
 21
6616.664777375139
 31
0.0
  0
LINE
  5
1B5C2
  8
01
  6
CONTINUOUS
 10
16576.08779339647
 20
6614.914777375139
 30
0.0
 11
16577.08779339647
 21
6614.914777375139
 31
0.0
  0
LINE
  5
1B5C3
  8
01
  6
CONTINUOUS
 10
16577.08779339647
 20
6614.914777375139
 30
0.0
 11
16577.08779339647
 21
6615.664777375139
 31
0.0
  0
LINE
  5
1B5C4
  8
01
  6
CONTINUOUS
 10
16578.08779339647
 20
6616.664777375139
 30
0.0
 11
16578.83779339647
 21
6616.664777375139
 31
0.0
  0
LINE
  5
1B5C5
  8
01
  6
CONTINUOUS
 10
16578.83779339647
 20
6617.664777375139
 30
0.0
 11
16578.08779339647
 21
6617.664777375139
 31
0.0
  0
LINE
  5
1B5C6
  8
01
  6
CONTINUOUS
 10
16576.08779339647
 20
6615.664777375139
 30
0.0
 11
16576.08779339647
 21
6614.914777375139
 31
0.0
  0
LINE
  5
1B5C7
  8
01
  6
CONTINUOUS
 10
16576.08779339647
 20
6619.414777375139
 30
0.0
 11
16576.08779339647
 21
6618.664777375139
 31
0.0
  0
LINE
  5
1B5C8
  8
01
  6
CONTINUOUS
 10
16575.08779339647
 20
6617.664777375139
 30
0.0
 11
16574.33779339647
 21
6617.664777375139
 31
0.0
  0
LINE
  5
1B5C9
  8
1CENTER
 10
16651.09359995387
 20
6617.164777375139
 30
0.0
 11
16660.69359995387
 21
6617.164777375139
 31
0.0
  0
CIRCLE
  5
1B5CA
  8
01
  6
CONTINUOUS
 10
16655.89359995387
 20
6617.164777375139
 30
0.0
 40
4.0
  0
ARC
  5
1B5CB
  8
01
  6
CONTINUOUS
 10
16657.39359995387
 20
6618.664777375139
 30
0.0
 40
1.0
 50
180.0
 51
269.9999999997916
  0
ARC
  5
1B5CC
  8
01
  6
CONTINUOUS
 10
16654.39359995387
 20
6615.664777375139
 30
0.0
 40
1.0
 50
0.0
 51
90.0
  0
ARC
  5
1B5CD
  8
01
  6
CONTINUOUS
 10
16657.39359995387
 20
6615.664777375139
 30
0.0
 40
1.0
 50
90.0
 51
180.0
  0
ARC
  5
1B5CE
  8
01
  6
CONTINUOUS
 10
16654.39359995387
 20
6618.664777375139
 30
0.0
 40
1.0
 50
269.9999999997916
 51
0.0
  0
LINE
  5
1B5CF
  8
01
  6
CONTINUOUS
 10
16658.14359995387
 20
6616.664777375139
 30
0.0
 11
16658.14359995387
 21
6617.664777375139
 31
0.0
  0
LINE
  5
1B5D0
  8
01
  6
CONTINUOUS
 10
16656.39359995387
 20
6618.664777375139
 30
0.0
 11
16656.39359995387
 21
6619.414777375139
 31
0.0
  0
LINE
  5
1B5D1
  8
01
  6
CONTINUOUS
 10
16656.39359995387
 20
6619.414777375139
 30
0.0
 11
16655.39359995387
 21
6619.414777375139
 31
0.0
  0
LINE
  5
1B5D2
  8
01
  6
CONTINUOUS
 10
16653.64359995387
 20
6617.664777375139
 30
0.0
 11
16653.64359995387
 21
6616.664777375139
 31
0.0
  0
LINE
  5
1B5D3
  8
01
  6
CONTINUOUS
 10
16653.64359995387
 20
6616.664777375139
 30
0.0
 11
16654.39359995387
 21
6616.664777375139
 31
0.0
  0
LINE
  5
1B5D4
  8
01
  6
CONTINUOUS
 10
16655.39359995387
 20
6614.914777375139
 30
0.0
 11
16656.39359995387
 21
6614.914777375139
 31
0.0
  0
LINE
  5
1B5D5
  8
01
  6
CONTINUOUS
 10
16656.39359995387
 20
6614.914777375139
 30
0.0
 11
16656.39359995387
 21
6615.664777375139
 31
0.0
  0
LINE
  5
1B5D6
  8
01
  6
CONTINUOUS
 10
16657.39359995387
 20
6616.664777375139
 30
0.0
 11
16658.14359995387
 21
6616.664777375139
 31
0.0
  0
LINE
  5
1B5D7
  8
01
  6
CONTINUOUS
 10
16658.14359995387
 20
6617.664777375139
 30
0.0
 11
16657.39359995387
 21
6617.664777375139
 31
0.0
  0
LINE
  5
1B5D8
  8
01
  6
CONTINUOUS
 10
16655.39359995387
 20
6615.664777375139
 30
0.0
 11
16655.39359995387
 21
6614.914777375139
 31
0.0
  0
LINE
  5
1B5D9
  8
01
  6
CONTINUOUS
 10
16655.39359995387
 20
6619.414777375139
 30
0.0
 11
16655.39359995387
 21
6618.664777375139
 31
0.0
  0
LINE
  5
1B5DA
  8
01
  6
CONTINUOUS
 10
16654.39359995387
 20
6617.664777375139
 30
0.0
 11
16653.64359995387
 21
6617.664777375139
 31
0.0
  0
LINE
  5
1B5DB
  8
1CENTER
 10
16718.63570298217
 20
6617.164777375139
 30
0.0
 11
16728.23570298217
 21
6617.164777375139
 31
0.0
  0
CIRCLE
  5
1B5DC
  8
01
  6
CONTINUOUS
 10
16723.43570298217
 20
6617.164777375139
 30
0.0
 40
4.0
  0
ARC
  5
1B5DD
  8
01
  6
CONTINUOUS
 10
16724.93570298217
 20
6618.664777375139
 30
0.0
 40
1.0
 50
180.0
 51
269.9999999997916
  0
ARC
  5
1B5DE
  8
01
  6
CONTINUOUS
 10
16721.93570298217
 20
6615.664777375139
 30
0.0
 40
1.0
 50
0.0
 51
90.0
  0
ARC
  5
1B5DF
  8
01
  6
CONTINUOUS
 10
16724.93570298217
 20
6615.664777375139
 30
0.0
 40
1.0
 50
90.0
 51
180.0
  0
ARC
  5
1B5E0
  8
01
  6
CONTINUOUS
 10
16721.93570298217
 20
6618.664777375139
 30
0.0
 40
1.0
 50
269.9999999997916
 51
0.0
  0
LINE
  5
1B5E1
  8
01
  6
CONTINUOUS
 10
16725.68570298217
 20
6616.664777375139
 30
0.0
 11
16725.68570298217
 21
6617.664777375139
 31
0.0
  0
LINE
  5
1B5E2
  8
01
  6
CONTINUOUS
 10
16723.93570298217
 20
6618.664777375139
 30
0.0
 11
16723.93570298217
 21
6619.414777375139
 31
0.0
  0
LINE
  5
1B5E3
  8
01
  6
CONTINUOUS
 10
16723.93570298217
 20
6619.414777375139
 30
0.0
 11
16722.93570298217
 21
6619.414777375139
 31
0.0
  0
LINE
  5
1B5E4
  8
01
  6
CONTINUOUS
 10
16721.18570298217
 20
6617.664777375139
 30
0.0
 11
16721.18570298217
 21
6616.664777375139
 31
0.0
  0
LINE
  5
1B5E5
  8
01
  6
CONTINUOUS
 10
16721.18570298217
 20
6616.664777375139
 30
0.0
 11
16721.93570298217
 21
6616.664777375139
 31
0.0
  0
LINE
  5
1B5E6
  8
01
  6
CONTINUOUS
 10
16722.93570298217
 20
6614.914777375139
 30
0.0
 11
16723.93570298217
 21
6614.914777375139
 31
0.0
  0
LINE
  5
1B5E7
  8
01
  6
CONTINUOUS
 10
16723.93570298217
 20
6614.914777375139
 30
0.0
 11
16723.93570298217
 21
6615.664777375139
 31
0.0
  0
LINE
  5
1B5E8
  8
01
  6
CONTINUOUS
 10
16724.93570298217
 20
6616.664777375139
 30
0.0
 11
16725.68570298217
 21
6616.664777375139
 31
0.0
  0
LINE
  5
1B5E9
  8
01
  6
CONTINUOUS
 10
16725.68570298217
 20
6617.664777375139
 30
0.0
 11
16724.93570298217
 21
6617.664777375139
 31
0.0
  0
LINE
  5
1B5EA
  8
01
  6
CONTINUOUS
 10
16722.93570298217
 20
6615.664777375139
 30
0.0
 11
16722.93570298217
 21
6614.914777375139
 31
0.0
  0
LINE
  5
1B5EB
  8
01
  6
CONTINUOUS
 10
16722.93570298217
 20
6619.414777375139
 30
0.0
 11
16722.93570298217
 21
6618.664777375139
 31
0.0
  0
LINE
  5
1B5EC
  8
01
  6
CONTINUOUS
 10
16721.93570298217
 20
6617.664777375139
 30
0.0
 11
16721.18570298217
 21
6617.664777375139
 31
0.0
  0
LINE
  5
1B6E5
  8
01
 10
16821.43570298218
 20
6462.878341546159
 30
0.0
 11
16692.70142926242
 21
6462.878341546159
 31
0.0
  0
LINE
  5
1B6E6
  8
01
 10
16821.43570298218
 20
6463.242259690281
 30
0.0
 11
16692.63326286055
 21
6463.242259690281
 31
0.0
  0
LINE
  5
1B6E7
  8
01
 10
16821.43570298218
 20
6464.666233276145
 30
0.0
 11
16692.39443719041
 21
6464.666233276145
 31
0.0
  0
LINE
  5
1B6E8
  8
01
 10
16821.43570298218
 20
6465.274580799004
 30
0.0
 11
16692.30745909563
 21
6465.274580799004
 31
0.0
  0
LINE
  5
1B6E9
  8
01
 10
16821.43570298218
 20
6465.668406394231
 30
0.0
 11
16692.25644733619
 21
6465.668406394231
 31
0.0
  0
LINE
  5
1B6EA
  8
01
 10
16821.43570298218
 20
6467.803041531603
 30
0.0
 11
16692.06116786974
 21
6467.803041531603
 31
0.0
  0
LINE
  5
1B6EB
  8
01
 10
16821.43570298218
 20
6468.539390244671
 30
0.0
 11
16692.0292619351
 21
6468.539390244671
 31
0.0
  0
LINE
  5
1B6EC
  8
01
 10
16821.43570298218
 20
6468.936478302411
 30
0.0
 11
16692.02039372986
 21
6468.936478302411
 31
0.0
  0
LINE
  5
1B6ED
  8
01
 10
16821.43570298218
 20
6471.631609782097
 30
0.0
 11
16692.13219995502
 21
6471.631609782097
 31
0.0
  0
LINE
  5
1B6EE
  8
01
 10
16821.43570298218
 20
6472.615826146431
 30
0.0
 11
16692.25612504152
 21
6472.615826146431
 31
0.0
  0
LINE
  5
1B6EF
  8
01
 10
16821.43570298218
 20
6472.9887418138
 30
0.0
 11
16692.31588397066
 21
6472.9887418138
 31
0.0
  0
LINE
  5
1B6F0
  8
01
 10
16821.43570298218
 20
6476.069767739636
 30
0.0
 11
16693.05379986258
 21
6476.069767739636
 31
0.0
  0
LINE
  5
1B6F1
  8
01
 10
16821.43570298218
 20
6477.060538502571
 30
0.0
 11
16693.36173639398
 21
6477.060538502571
 31
0.0
  0
LINE
  5
1B6F2
  8
01
 10
16821.43570298218
 20
6480.636321962543
 30
0.0
 11
16694.59911903304
 21
6480.636321962543
 31
0.0
  0
LINE
  5
1B6F3
  8
01
 10
16821.43570298218
 20
6481.627092725478
 30
0.0
 11
16694.9438012736
 21
6481.627092725478
 31
0.0
  0
LINE
  5
1B6F4
  8
01
 10
16821.43570298218
 20
6481.879176013071
 30
0.0
 11
16695.02961486198
 21
6481.879176013071
 31
0.0
  0
LINE
  5
1B6F5
  8
01
 10
16821.43570298218
 20
6484.708118651314
 30
0.0
 11
16695.89251558844
 21
6484.708118651314
 31
0.0
  0
LINE
  5
1B6F6
  8
01
 10
16821.43570298218
 20
6485.081034318687
 30
0.0
 11
16695.9870006059
 21
6485.081034318687
 31
0.0
  0
LINE
  5
1B6F7
  8
01
 10
16821.43570298218
 20
6486.06525068302
 30
0.0
 11
16696.20731115509
 21
6486.06525068302
 31
0.0
  0
LINE
  5
1B6F8
  8
01
 10
16821.43570298218
 20
6488.760382162706
 30
0.0
 11
16696.5413583964
 21
6488.760382162706
 31
0.0
  0
LINE
  5
1B6F9
  8
01
 10
16821.43570298218
 20
6489.157470220443
 30
0.0
 11
16696.55077739055
 21
6489.157470220443
 31
0.0
  0
LINE
  5
1B6FA
  8
01
 10
16821.43570298218
 20
6489.89381893351
 30
0.0
 11
16696.53980621087
 21
6489.89381893351
 31
0.0
  0
LINE
  5
1B6FB
  8
01
 10
16821.43570298218
 20
6492.028454070883
 30
0.0
 11
16696.3178726581
 21
6492.028454070883
 31
0.0
  0
LINE
  5
1B6FC
  8
01
 10
16821.43570298218
 20
6492.422279666113
 30
0.0
 11
16696.24904979719
 21
6492.422279666113
 31
0.0
  0
LINE
  5
1B6FD
  8
01
 10
16821.43570298218
 20
6493.030627188969
 30
0.0
 11
16696.12743284753
 21
6493.030627188969
 31
0.0
  0
LINE
  5
1B6FE
  8
01
 10
16821.43570298218
 20
6494.454600774833
 30
0.0
 11
16694.91777828073
 21
6494.454600774833
 31
0.0
  0
LINE
  5
1B6FF
  8
01
 10
16821.43570298218
 20
6494.818518918954
 30
0.0
 11
16691.76482396966
 21
6494.818518918954
 31
0.0
  0
LINE
  5
1B700
  8
01
 10
16821.43570298218
 20
6496.126423019637
 30
0.0
 11
16694.70907060076
 21
6496.126423019637
 31
0.0
  0
LINE
  5
1B701
  8
01
 10
16822.43570298218
 20
6496.256860465114
 30
0.0
 11
16694.80289476351
 21
6496.256860465114
 31
0.0
  0
LINE
  5
1B702
  8
01
 10
16822.43570298218
 20
6461.44
 30
0.0
 11
16692.99506339437
 21
6461.44
 31
0.0
  0
LINE
  5
1B703
  8
01
 10
16821.43570298218
 20
6461.570437445477
 30
0.0
 11
16692.96698324119
 21
6461.570437445477
 31
0.0
  0
LINE
  5
1B704
  8
01
 10
16821.43570298218
 20
6461.879647718369
 30
0.0
 11
16692.90150683366
 21
6461.879647718369
 31
0.0
  0
LINE
  5
1B705
  8
01
 10
16821.43570298218
 20
6462.495918306079
 30
0.0
 11
16692.77587837284
 21
6462.495918306079
 31
0.0
  0
LINE
  5
1B706
  8
01
 10
16821.43570298218
 20
6495.200942159035
 30
0.0
 11
16691.54274840566
 21
6495.200942159035
 31
0.0
  0
LINE
  5
1B707
  8
01
 10
16821.43570298218
 20
6495.817212746749
 30
0.0
 11
16694.72590142137
 21
6495.817212746749
 31
0.0
  0
LINE
  5
1B708
  8
01
 10
16821.43570298218
 20
6481.879458511315
 30
0.0
 11
16695.02971048164
 21
6481.879458511315
 31
0.0
  0
LINE
  5
1B709
  8
01
 10
16821.43570298218
 20
6486.241533761012
 30
0.0
 11
16696.24190083148
 21
6486.241533761012
 31
0.0
  0
LINE
  5
1B70A
  8
01
 10
16821.43570298218
 20
6490.004469412922
 30
0.0
 11
16696.53507340621
 21
6490.004469412922
 31
0.0
  0
LINE
  5
1B70B
  8
01
 10
16821.43570298218
 20
6493.087503812571
 30
0.0
 11
16696.1151493632
 21
6493.087503812571
 31
0.0
  0
LINE
  5
1B70C
  8
01
 10
16821.43570298218
 20
6495.220613383154
 30
0.0
 11
16694.88026904969
 21
6495.220613383154
 31
0.0
  0
LINE
  5
1B70D
  8
01
 10
16821.43570298218
 20
6477.384061767997
 30
0.0
 11
16693.46736960561
 21
6477.384061767997
 31
0.0
  0
LINE
  5
1B70E
  8
01
 10
16821.43570298218
 20
6480.31279869712
 30
0.0
 11
16694.48490210731
 21
6480.31279869712
 31
0.0
  0
LINE
  5
1B70F
  8
01
 10
16823.43570298218
 20
6462.44
 30
0.0
 11
16823.43570298218
 21
6495.256860465114
 31
0.0
  0
LINE
  5
1B710
  8
01
 10
16821.43570298218
 20
6461.44
 30
0.0
 11
16821.43570298218
 21
6496.256860465114
 31
0.0
  0
LINE
  5
1B711
  8
01
 10
16822.43570298218
 20
6496.256860465114
 30
0.0
 11
16823.43570298218
 21
6495.256860465114
 31
0.0
  0
LINE
  5
1B712
  8
01
 10
16822.43570298218
 20
6461.44
 30
0.0
 11
16823.43570298218
 21
6462.44
 31
0.0
  0
LINE
  5
1B713
  8
01
 10
16822.43570298218
 20
6461.44
 30
0.0
 11
16822.43570298218
 21
6496.256860465114
 31
0.0
  0
LINE
  5
1B714
  8
01
 10
16692.06763540448
 20
6467.692391052192
 30
0.0
 11
16821.43570298218
 21
6467.692391052192
 31
0.0
  0
LINE
  5
1B715
  8
01
 10
16692.97974122746
 20
6475.817401953803
 30
0.0
 11
16821.43570298218
 21
6475.817401953803
 31
0.0
  0
LINE
  5
1B716
  8
01
 10
16692.40305611038
 20
6464.609356652542
 30
0.0
 11
16821.43570298218
 21
6464.609356652542
 31
0.0
  0
LINE
  5
1B717
  8
1CENTER
 10
16693.96736655209
 20
6478.848430232557
 30
0.0
 11
16839.25265306572
 21
6478.848430232557
 31
0.0
  0
LINE
  5
1B718
  8
01
 10
16692.11499458615
 20
6471.455326704106
 30
0.0
 11
16821.43570298218
 21
6471.455326704106
 31
0.0
  0
LINE
  5
1B719
  8
01
 10
16692.77978293496
 20
6462.476247081963
 30
0.0
 11
16821.43570298218
 21
6462.476247081963
 31
0.0
  0
TEXT
  5
1B93A
  8
1TEXT
 10
16855.39194308292
 20
6582.684823395275
 30
0.0
 40
8.0
  1
DA-175-XX-2000
 41
0.8
  0
LINE
  5
1B93B
  8
1DIM
 10
16855.39194308292
 20
6577.684823395275
 30
0.0
 11
17030.39194308292
 21
6577.684823395275
 31
0.0
  0
LINE
  5
1B93C
  8
1DIM
 10
16855.39194308292
 20
6563.684823395275
 30
0.0
 11
17030.39194308292
 21
6563.684823395275
 31
0.0
  0
LINE
  5
1B93D
  8
1DIM
 10
16855.39194308292
 20
6570.684823395275
 30
0.0
 11
17030.39194308292
 21
6570.684823395275
 31
0.0
  0
LINE
  5
1B93E
  8
1DIM
 10
17030.39194308292
 20
6577.684823395275
 30
0.0
 11
17030.39194308292
 21
6535.684823395275
 31
0.0
  0
TEXT
  5
1B93F
  8
1TEXT
 10
17005.45860974958
 20
6572.184823395275
 30
0.0
 40
4.0
  1
Code
 72
     1
 11
17012.79194308291
 21
6572.184823395275
 31
0.0
  0
TEXT
  5
1B940
  8
1TEXT
 10
16872.54319133234
 20
6572.184823395275
 30
0.0
 40
4.0
  1
Finish：Grip
 72
     1
 11
16889.32414371329
 21
6572.184823395275
 31
0.0
  0
LINE
  5
1B941
  8
1DIM
 10
16855.39194308292
 20
6535.684823395275
 30
0.0
 11
16855.39194308292
 21
6577.684823395275
 31
0.0
  0
TEXT
  5
1B942
  8
1TEXT
 10
16862.83849102819
 20
6565.34953473575
 30
0.0
 40
4.0
  1
Shot Champagne Gold
 41
0.8
 72
     1
 11
16890.34325293295
 21
6565.34953473575
 31
0.0
  0
TEXT
  5
1B943
  8
1TEXT
 10
16998.64908594005
 20
6564.970466411625
 30
0.0
 40
4.0
  1
DA-175-LQ-2000
 41
0.5
 72
     1
 11
17012.79194308291
 21
6564.970466411625
 31
0.0
  0
LINE
  5
1BAED
  8
1DIM
 10
16995.39194308292
 20
6577.684823395275
 30
0.0
 11
16995.39194308292
 21
6535.684823395275
 31
0.0
  0
LINE
  5
1BAEE
  8
1DIM
 10
16925.39194308292
 20
6577.684823395275
 30
0.0
 11
16925.39194308292
 21
6535.684823395275
 31
0.0
  0
TEXT
  5
1BAEF
  8
1TEXT
 10
16943.30509609425
 20
6572.184823395275
 30
0.0
 40
4.0
  1
Finish：Leg
 72
     1
 11
16959.32414371329
 21
6572.184823395275
 31
0.0
  0
LINE
  5
1BAF0
  8
1DIM
 10
16855.39194308292
 20
6556.684823395275
 30
0.0
 11
17030.39194308292
 21
6556.684823395275
 31
0.0
  0
TEXT
  5
1BAF1
  8
1TEXT
 10
16875.18134817105
 20
6558.34953473575
 30
0.0
 40
4.0
  1
Dark Bronze
 41
0.8
 72
     1
 11
16890.34325293295
 21
6558.34953473575
 31
0.0
  0
TEXT
  5
1BAF2
  8
1TEXT
 10
16998.5062287972
 20
6557.970466411625
 30
0.0
 40
4.0
  1
DA-175-1U-2000
 41
0.5
 72
     1
 11
17012.79194308291
 21
6557.970466411625
 31
0.0
  0
LINE
  5
1BAF3
  8
1DIM
 10
16855.39194308292
 20
6549.684823395275
 30
0.0
 11
17030.39194308292
 21
6549.684823395275
 31
0.0
  0
TEXT
  5
1BAF4
  8
1TEXT
 10
16874.64801483771
 20
6551.34953473575
 30
0.0
 40
4.0
  1
Satin Bronze
 41
0.8
 72
     1
 11
16890.34325293295
 21
6551.34953473575
 31
0.0
  0
TEXT
  5
1BAF5
  8
1TEXT
 10
16998.5062287972
 20
6550.970466411625
 30
0.0
 40
4.0
  1
DA-175-3U-2000
 41
0.5
 72
     1
 11
17012.79194308291
 21
6550.970466411625
 31
0.0
  0
LINE
  5
1BAF6
  8
1DIM
 10
16855.39194308292
 20
6542.684823395275
 30
0.0
 11
17030.39194308292
 21
6542.684823395275
 31
0.0
  0
TEXT
  5
1BAF7
  8
1TEXT
 10
16873.58134817105
 20
6544.34953473575
 30
0.0
 40
4.0
  1
Blasted Black
 41
0.8
 72
     1
 11
16890.34325293295
 21
6544.34953473575
 31
0.0
  0
TEXT
  5
1BAF8
  8
1TEXT
 10
16998.55384784482
 20
6543.970466411625
 30
0.0
 40
4.0
  1
DA-175-XK-2000
 41
0.5
 72
     1
 11
17012.79194308291
 21
6543.970466411625
 31
0.0
  0
LINE
  5
1BAF9
  8
1DIM
 10
16855.39194308292
 20
6535.684823395275
 30
0.0
 11
17030.39194308292
 21
6535.684823395275
 31
0.0
  0
TEXT
  5
1BAFA
  8
1TEXT
 10
16863.82896721867
 20
6537.34953473575
 30
0.0
 40
4.0
  1
Nickel Colour Hairline
 41
0.8
 72
     1
 11
16890.34325293295
 21
6537.34953473575
 31
0.0
  0
TEXT
  5
1BAFB
  8
1TEXT
 10
16998.60146689244
 20
6536.970466411625
 30
0.0
 40
4.0
  1
DA-175-XZ-2000
 41
0.5
 72
     1
 11
17012.79194308291
 21
6536.970466411625
 31
0.0
  0
TEXT
  5
1BAFC
  8
1TEXT
 10
16932.83849102819
 20
6565.34953473575
 30
0.0
 40
4.0
  1
Shot Champagne Gold
 41
0.8
 72
     1
 11
16960.34325293295
 21
6565.34953473575
 31
0.0
  0
TEXT
  5
1BAFD
  8
1TEXT
 10
16945.18134817105
 20
6558.34953473575
 30
0.0
 40
4.0
  1
Dark Bronze
 41
0.8
 72
     1
 11
16960.34325293295
 21
6558.34953473575
 31
0.0
  0
TEXT
  5
1BAFE
  8
1TEXT
 10
16944.64801483771
 20
6551.34953473575
 30
0.0
 40
4.0
  1
Satin Bronze
 41
0.8
 72
     1
 11
16960.34325293295
 21
6551.34953473575
 31
0.0
  0
TEXT
  5
1BAFF
  8
1TEXT
 10
16943.58134817105
 20
6544.34953473575
 30
0.0
 40
4.0
  1
Blasted Black
 41
0.8
 72
     1
 11
16960.34325293295
 21
6544.34953473575
 31
0.0
  0
TEXT
  5
1BB00
  8
1TEXT
 10
16933.82896721867
 20
6537.34953473575
 30
0.0
 40
4.0
  1
Nickel Colour Hairline
 41
0.8
 72
     1
 11
16960.34325293295
 21
6537.34953473575
 31
0.0
  0
LINE
  5
1C08E
  8
01
 10
16941.7709138587
 20
6471.348430232557
 30
0.0
 11
16949.7709138587
 21
6471.348430232557
 31
0.0
  0
LINE
  5
1C08F
  8
01
 10
16941.7709138587
 20
6486.348430232557
 30
0.0
 11
16949.7709138587
 21
6486.348430232557
 31
0.0
  0
LINE
  5
1C0CA
  8
1DIM
 10
16941.7709138587
 20
6501.348430232557
 30
0.0
 11
16941.7709138587
 21
6456.348430232557
 31
0.0
  0
LINE
  5
1C0CB
  8
1DIM
 10
16949.7709138587
 20
6501.348430232557
 30
0.0
 11
16949.7709138587
 21
6456.348430232557
 31
0.0
  0
ARC
  5
1C987
  8
01
 10
16979.3609138587
 20
6466.848430232557
 30
0.0
 40
0.5
 50
270.0
 51
0.0
  0
LINE
  5
1C989
  8
1DIM
 10
16957.77091385871
 20
6496.348430232561
 30
0.0
 11
16957.77091385871
 21
6461.348430232557
 31
0.0
  0
LINE
  5
1C9EE
  8
01
 10
16962.7709138587
 20
6469.598430232557
 30
0.0
 11
16962.7709138587
 21
6488.098430232557
 31
0.0
  0
LINE
  5
1C9EF
  8
1DIM
 10
16949.78471729285
 20
6483.098430232557
 30
0.0
 11
16962.7709138587
 21
6483.098430232557
 31
0.0
  0
LINE
  5
1C9F0
  8
1DIM
 10
16949.78471729285
 20
6474.598430232557
 30
0.0
 11
16962.7709138587
 21
6474.598430232557
 31
0.0
  0
LINE
  5
1C9F1
  8
1DIM
 10
16959.7709138587
 20
6487.598430232557
 30
0.0
 11
16959.7709138587
 21
6483.098430232557
 31
0.0
  0
LINE
  5
1C9F2
  8
1DIM
 10
16955.7709138587
 20
6487.598430232557
 30
0.0
 11
16955.7709138587
 21
6483.098430232557
 31
0.0
  0
LINE
  5
1C9F3
  8
1DIM
 10
16959.4209138587
 20
6487.598430232557
 30
0.0
 11
16959.4209138587
 21
6483.098430232557
 31
0.0
  0
LINE
  5
1C9F4
  8
1DIM
 10
16956.1209138587
 20
6487.598430232557
 30
0.0
 11
16956.1209138587
 21
6483.098430232557
 31
0.0
  0
LINE
  5
1C9F5
  8
1DIM
 10
16959.7709138587
 20
6470.098430232557
 30
0.0
 11
16959.7709138587
 21
6474.598430232557
 31
0.0
  0
LINE
  5
1C9F6
  8
1DIM
 10
16955.7709138587
 20
6470.098430232557
 30
0.0
 11
16955.7709138587
 21
6474.598430232557
 31
0.0
  0
LINE
  5
1C9F7
  8
1DIM
 10
16959.4209138587
 20
6470.098430232557
 30
0.0
 11
16959.4209138587
 21
6474.598430232557
 31
0.0
  0
LINE
  5
1C9F8
  8
1DIM
 10
16956.1209138587
 20
6470.098430232557
 30
0.0
 11
16956.1209138587
 21
6474.598430232557
 31
0.0
  0
LINE
  5
1C9F9
  8
01
 10
16949.7709138587
 20
6488.598430232557
 30
0.0
 11
16954.7709138587
 21
6488.598430232557
 31
0.0
  0
LINE
  5
1C9FA
  8
01
 10
16960.7709138587
 20
6488.598430232557
 30
0.0
 11
16962.2709138587
 21
6488.598430232557
 31
0.0
  0
LINE
  5
1C9FB
  8
01
 10
16962.7709138587
 20
6488.098430232557
 30
0.0
 11
16962.2709138587
 21
6488.598430232557
 31
0.0
  0
LINE
  5
1C9FC
  8
01
 10
16949.7709138587
 20
6469.098430232557
 30
0.0
 11
16954.7709138587
 21
6469.098430232557
 31
0.0
  0
LINE
  5
1C9FD
  8
01
 10
16960.7709138587
 20
6469.098430232557
 30
0.0
 11
16962.2709138587
 21
6469.098430232557
 31
0.0
  0
LINE
  5
1C9FE
  8
01
 10
16962.7709138587
 20
6469.598430232557
 30
0.0
 11
16962.2709138587
 21
6469.098430232557
 31
0.0
  0
LINE
  5
1C9FF
  8
1DIM
 10
16960.7709138587
 20
6488.598430232557
 30
0.0
 11
16959.7709138587
 21
6487.598430232557
 31
0.0
  0
LINE
  5
1CA00
  8
1DIM
 10
16954.7709138587
 20
6488.598430232557
 30
0.0
 11
16955.7709138587
 21
6487.598430232557
 31
0.0
  0
ARC
  5
1CA01
  8
01
 10
16957.7709138587
 20
6500.918430232557
 30
0.0
 40
12.67999999999961
 50
256.3144531747378
 51
283.6855468252622
  0
LINE
  5
1CA02
  8
1DIM
 10
16959.7709138587
 20
6470.098430232557
 30
0.0
 11
16959.7709138587
 21
6474.598430232557
 31
0.0
  0
LINE
  5
1CA03
  8
1DIM
 10
16955.7709138587
 20
6470.098430232557
 30
0.0
 11
16955.7709138587
 21
6474.598430232557
 31
0.0
  0
LINE
  5
1CA04
  8
1DIM
 10
16959.4209138587
 20
6470.098430232557
 30
0.0
 11
16959.4209138587
 21
6474.598430232557
 31
0.0
  0
LINE
  5
1CA05
  8
1DIM
 10
16956.1209138587
 20
6470.098430232557
 30
0.0
 11
16956.1209138587
 21
6474.598430232557
 31
0.0
  0
LINE
  5
1CA06
  8
1DIM
 10
16960.7709138587
 20
6469.098430232557
 30
0.0
 11
16959.7709138587
 21
6470.098430232557
 31
0.0
  0
LINE
  5
1CA07
  8
1DIM
 10
16954.7709138587
 20
6469.098430232557
 30
0.0
 11
16955.7709138587
 21
6470.098430232557
 31
0.0
  0
ARC
  5
1CA08
  8
01
 10
16957.7709138587
 20
6456.778430232557
 30
0.0
 40
12.67999999999961
 50
76.31445317473782
 51
103.6855468252622
  0
LINE
  5
1CA09
  8
1DIM
 10
16955.7709138587
 20
6487.598430232557
 30
0.0
 11
16959.7709138587
 21
6487.598430232557
 31
0.0
  0
LINE
  5
1CA0A
  8
1DIM
 10
16955.7709138587
 20
6470.098430232557
 30
0.0
 11
16959.7709138587
 21
6470.098430232557
 31
0.0
  0
LINE
  5
1CA0B
  8
1DIM
 10
16964.7709138587
 20
6471.148430432558
 30
0.0
 11
16964.7709138587
 21
6486.54843003256
 31
0.0
  0
LINE
  5
1CA0C
  8
01
 10
16962.7709138587
 20
6471.148430432558
 30
0.0
 11
16962.7709138587
 21
6486.54843003256
 31
0.0
  0
LINE
  5
1CA0D
  8
1DIM
 10
16962.7709138587
 20
6471.148430432558
 30
0.0
 11
16964.7709138587
 21
6471.148430432558
 31
0.0
  0
LINE
  5
1CA0E
  8
1DIM
 10
16964.7709138587
 20
6478.119177552749
 30
0.0
 11
16962.7709138587
 21
6477.831407656581
 31
0.0
  0
LINE
  5
1CA0F
  8
1DIM
 10
16962.7709138587
 20
6479.61060903988
 30
0.0
 11
16964.7709138587
 21
6479.898378854735
 31
0.0
  0
LINE
  5
1CA10
  8
1DIM
 10
16962.7709138587
 20
6486.54843003256
 30
0.0
 11
16964.7709138587
 21
6486.54843003256
 31
0.0
  0
ARC
  5
1CA11
  8
1DIM
 10
16966.78313930719
 20
6483.062451739745
 30
0.0
 40
2.6
 50
15.88085000819321
 51
85.00000000000263
  0
ARC
  5
1CA12
  8
1DIM
 10
16966.78313930719
 20
6474.634408725372
 30
0.0
 40
2.6
 50
274.9999999999973
 51
344.1191499917077
  0
ARC
  5
1CA13
  8
1DIM
 10
16951.9709138587
 20
6478.848430232557
 30
0.0
 40
18.0
 50
344.1191499917205
 51
15.88085000827953
  0
ARC
  5
1CA14
  8
1DIM
 10
16964.3709138587
 20
6482.623430232558
 30
0.0
 40
0.4
 50
270.0
 51
0.0
  0
ARC
  5
1CA15
  8
1DIM
 10
16964.3709138587
 20
6475.073430232559
 30
0.0
 40
0.4
 50
0.0
 51
90.0
  0
LINE
  5
1CA16
  8
1DIM
 10
16967.00974423833
 20
6485.652557954782
 30
0.0
 11
16964.7709138587
 21
6485.848430232557
 31
0.0
  0
LINE
  5
1CA17
  8
1DIM
 10
16964.7709138587
 20
6471.848430232557
 30
0.0
 11
16967.00974423833
 21
6472.044302510335
 31
0.0
  0
LINE
  5
1CA18
  8
1DIM
 10
16964.7709138587
 20
6485.848430232557
 30
0.0
 11
16964.7709138587
 21
6471.848430232557
 31
0.0
  0
LINE
  5
1CA19
  8
1DIM
 10
16964.3709138587
 20
6482.223430232557
 30
0.0
 11
16961.8709138587
 21
6482.848430232557
 31
0.0
  0
LINE
  5
1CA1A
  8
1DIM
 10
16961.8709138587
 20
6482.848430232557
 30
0.0
 11
16949.7709138587
 21
6482.848430232557
 31
0.0
  0
LINE
  5
1CA1B
  8
1DIM
 10
16949.7709138587
 20
6474.848430232557
 30
0.0
 11
16961.8709138587
 21
6474.848430232557
 31
0.0
  0
LINE
  5
1CA1C
  8
1DIM
 10
16961.8709138587
 20
6474.848430232557
 30
0.0
 11
16964.3709138587
 21
6475.473430232557
 31
0.0
  0
LINE
  5
1CA1D
  8
1DIM
 10
16961.8709138587
 20
6482.848430232557
 30
0.0
 11
16961.8709138587
 21
6474.848430232557
 31
0.0
  0
LINE
  5
1CA1E
  8
1DIM
 10
16964.3709138587
 20
6482.223430232557
 30
0.0
 11
16949.7709138587
 21
6482.223430232557
 31
0.0
  0
LINE
  5
1CA1F
  8
1DIM
 10
16949.7709138587
 20
6475.473430232557
 30
0.0
 11
16964.3709138587
 21
6475.473430232557
 31
0.0
  0
LINE
  5
1CA20
  8
1DIM
 10
16959.77091385871
 20
6486.475464089945
 30
0.0
 11
16959.77091385871
 21
6483.041149514896
 31
0.0
  0
LINE
  5
1CA21
  8
1DIM
 10
16955.77091385871
 20
6483.041149514896
 30
0.0
 11
16955.77091385871
 21
6486.475464089945
 31
0.0
  0
LINE
  5
1CA22
  8
1DIM
 10
16956.08498574715
 20
6488.041149514896
 30
0.0
 11
16959.45684197026
 21
6488.041149514896
 31
0.0
  0
LINE
  5
1CA23
  8
1DIM
 10
16959.53807114623
 20
6488.15830680242
 30
0.0
 11
16961.77091385871
 21
6490.391149514894
 31
0.0
  0
LINE
  5
1CA24
  8
1DIM
 10
16956.00375657118
 20
6488.15830680242
 30
0.0
 11
16953.77091385871
 21
6490.391149514894
 31
0.0
  0
LINE
  5
1CA25
  8
1DIM
 10
16959.77091385871
 20
6486.475464089945
 30
0.0
 11
16959.42091385871
 21
6487.875464089947
 31
0.0
  0
LINE
  5
1CA26
  8
1DIM
 10
16955.77091385871
 20
6486.475464089945
 30
0.0
 11
16956.1209138587
 21
6487.875464089947
 31
0.0
  0
LINE
  5
1CA27
  8
1DIM
 10
16959.77091385871
 20
6486.475464089945
 30
0.0
 11
16955.77091385871
 21
6486.475464089945
 31
0.0
  0
LINE
  5
1CA28
  8
1DIM
 10
16956.1209138587
 20
6482.691149514893
 30
0.0
 11
16956.1209138587
 21
6487.875464089947
 31
0.0
  0
LINE
  5
1CA29
  8
1DIM
 10
16959.42091385871
 20
6482.691149514893
 30
0.0
 11
16959.42091385871
 21
6487.875464089947
 31
0.0
  0
LINE
  5
1CA2A
  8
1DIM
 10
16953.77091385871
 20
6490.691149514893
 30
0.0
 11
16953.77091385871
 21
6490.391149514894
 31
0.0
  0
LINE
  5
1CA2B
  8
1DIM
 10
16961.77091385871
 20
6490.391149514894
 30
0.0
 11
16961.77091385871
 21
6490.691149514893
 31
0.0
  0
LINE
  5
1CA2C
  8
1DIM
 10
16953.77091385871
 20
6490.391149514894
 30
0.0
 11
16961.77091385871
 21
6490.391149514894
 31
0.0
  0
LINE
  5
1CA2D
  8
1DIM
 10
16961.77091385871
 20
6490.691149514893
 30
0.0
 11
16953.77091385871
 21
6490.691149514893
 31
0.0
  0
ARC
  5
1CA2E
  8
1DIM
 10
16957.77091385871
 20
6482.252260626007
 30
0.0
 40
9.338888888888889
 50
70.82850934024039
 51
109.1714906597349
  0
ARC
  5
1CA2F
  8
1DIM
 10
16955.72091385871
 20
6487.875464089947
 30
0.0
 40
0.4
 50
0.0
 51
45.00000000027636
  0
ARC
  5
1CA30
  8
1DIM
 10
16959.8209138587
 20
6487.875464089947
 30
0.0
 40
0.4
 50
134.9999999997236
 51
180.0
  0
LINE
  5
1CA31
  8
1DIM
 10
16955.77091385871
 20
6483.041149514896
 30
0.0
 11
16959.77091385871
 21
6483.041149514896
 31
0.0
  0
LINE
  5
1CA32
  8
1DIM
 10
16959.77091385871
 20
6483.041149514896
 30
0.0
 11
16959.42091385871
 21
6482.691149514893
 31
0.0
  0
LINE
  5
1CA33
  8
1DIM
 10
16959.42091385871
 20
6482.691149514893
 30
0.0
 11
16956.1209138587
 21
6482.691149514893
 31
0.0
  0
LINE
  5
1CA34
  8
1DIM
 10
16956.1209138587
 20
6482.691149514893
 30
0.0
 11
16955.77091385871
 21
6483.041149514896
 31
0.0
  0
LINE
  5
1CA35
  8
1DIM
 10
16955.77091385871
 20
6483.041149514896
 30
0.0
 11
16959.77091385871
 21
6483.041149514896
 31
0.0
  0
ARC
  5
1CA36
  8
01
 10
16957.77091385871
 20
6503.191149515057
 30
0.0
 40
12.50000000016224
 50
251.3370751153089
 51
288.6629248846912
  0
ARC
  5
1CA37
  8
1DIM
 10
16957.77091385871
 20
6482.252260626007
 30
0.0
 40
9.338888888889281
 50
64.6392330163627
 51
70.82850934024222
  0
ARC
  5
1CA38
  8
1DIM
 10
16957.77091385871
 20
6482.252260626007
 30
0.0
 40
9.338888888889281
 50
109.1714906597349
 51
115.3607669836373
  0
LINE
  5
1CA39
  8
1DIM
 10
16961.77091385871
 20
6491.348430232561
 30
0.0
 11
16961.77091385871
 21
6490.691149514893
 31
0.0
  0
LINE
  5
1CA3A
  8
1DIM
 10
16953.77091385871
 20
6491.348430232561
 30
0.0
 11
16953.77091385871
 21
6490.691149514893
 31
0.0
  0
LINE
  5
1CA3B
  8
1DIM
 10
16959.77091385871
 20
6471.22139637519
 30
0.0
 11
16959.77091385871
 21
6474.65571095024
 31
0.0
  0
LINE
  5
1CA3C
  8
1DIM
 10
16955.77091385871
 20
6474.65571095024
 30
0.0
 11
16955.77091385871
 21
6471.22139637519
 31
0.0
  0
LINE
  5
1CA3D
  8
1DIM
 10
16956.08498574715
 20
6469.65571095024
 30
0.0
 11
16959.45684197026
 21
6469.65571095024
 31
0.0
  0
LINE
  5
1CA3E
  8
1DIM
 10
16959.53807114623
 20
6469.538553662715
 30
0.0
 11
16961.77091385871
 21
6467.305710950242
 31
0.0
  0
LINE
  5
1CA3F
  8
1DIM
 10
16956.00375657118
 20
6469.538553662715
 30
0.0
 11
16953.77091385871
 21
6467.305710950242
 31
0.0
  0
LINE
  5
1CA40
  8
1DIM
 10
16959.77091385871
 20
6471.22139637519
 30
0.0
 11
16959.42091385871
 21
6469.821396375189
 31
0.0
  0
LINE
  5
1CA41
  8
1DIM
 10
16955.77091385871
 20
6471.22139637519
 30
0.0
 11
16956.1209138587
 21
6469.821396375189
 31
0.0
  0
LINE
  5
1CA42
  8
1DIM
 10
16959.77091385871
 20
6471.22139637519
 30
0.0
 11
16955.77091385871
 21
6471.22139637519
 31
0.0
  0
LINE
  5
1CA43
  8
1DIM
 10
16956.1209138587
 20
6475.005710950242
 30
0.0
 11
16956.1209138587
 21
6469.821396375189
 31
0.0
  0
LINE
  5
1CA44
  8
1DIM
 10
16959.42091385871
 20
6475.005710950242
 30
0.0
 11
16959.42091385871
 21
6469.821396375189
 31
0.0
  0
LINE
  5
1CA45
  8
1DIM
 10
16953.77091385871
 20
6467.005710950242
 30
0.0
 11
16953.77091385871
 21
6467.305710950242
 31
0.0
  0
LINE
  5
1CA46
  8
1DIM
 10
16961.77091385871
 20
6467.305710950242
 30
0.0
 11
16961.77091385871
 21
6467.005710950242
 31
0.0
  0
LINE
  5
1CA47
  8
1DIM
 10
16953.77091385871
 20
6467.305710950242
 30
0.0
 11
16961.77091385871
 21
6467.305710950242
 31
0.0
  0
LINE
  5
1CA48
  8
1DIM
 10
16961.77091385871
 20
6467.005710950242
 30
0.0
 11
16953.77091385871
 21
6467.005710950242
 31
0.0
  0
ARC
  5
1CA49
  8
1DIM
 10
16957.77091385871
 20
6475.444599839128
 30
0.0
 40
9.338888888888889
 50
250.828509340431
 51
289.1714906596166
  0
ARC
  5
1CA4A
  8
1DIM
 10
16955.72091385871
 20
6469.821396375189
 30
0.0
 40
0.4
 50
314.9999999997236
 51
0.0
  0
ARC
  5
1CA4B
  8
1DIM
 10
16959.8209138587
 20
6469.821396375189
 30
0.0
 40
0.4
 50
180.0
 51
225.0000000002763
  0
LINE
  5
1CA4C
  8
1DIM
 10
16959.77091385871
 20
6474.65571095024
 30
0.0
 11
16959.42091385871
 21
6475.005710950242
 31
0.0
  0
LINE
  5
1CA4D
  8
1DIM
 10
16959.42091385871
 20
6475.005710950242
 30
0.0
 11
16956.1209138587
 21
6475.005710950242
 31
0.0
  0
LINE
  5
1CA4E
  8
1DIM
 10
16956.1209138587
 20
6475.005710950242
 30
0.0
 11
16955.77091385871
 21
6474.65571095024
 31
0.0
  0
LINE
  5
1CA4F
  8
1DIM
 10
16955.77091385871
 20
6474.65571095024
 30
0.0
 11
16959.77091385871
 21
6474.65571095024
 31
0.0
  0
ARC
  5
1CA50
  8
01
 10
16957.77091385871
 20
6454.50571095041
 30
0.0
 40
12.49999999983254
 50
71.33707511479793
 51
108.6629248852021
  0
ARC
  5
1CA51
  8
1DIM
 10
16957.77091385871
 20
6475.444599839128
 30
0.0
 40
9.338888888889155
 50
244.6392330163603
 51
250.8285093404081
  0
ARC
  5
1CA52
  8
1DIM
 10
16957.77091385871
 20
6475.444599839128
 30
0.0
 40
9.338888888889155
 50
289.1714906595919
 51
295.3607669836397
  0
LINE
  5
1CA53
  8
1DIM
 10
16961.77091385871
 20
6467.005710950242
 30
0.0
 11
16961.77091385871
 21
6466.348430232557
 31
0.0
  0
LINE
  5
1CA54
  8
1DIM
 10
16953.77091385871
 20
6467.005710950242
 30
0.0
 11
16953.77091385871
 21
6466.348430232557
 31
0.0
  0
ARC
  5
1CA5B
  8
01
 10
16979.3609138587
 20
6490.848430232557
 30
0.0
 40
0.5
 50
0.0
 51
90.0
  0
LINE
  5
1CABA
  8
01
 10
16953.7709138587
 20
6466.348430232557
 30
0.0
 11
16949.7709138587
 21
6466.348430232557
 31
0.0
  0
LINE
  5
1CABB
  8
01
 10
16953.77091385871
 20
6491.348430232557
 30
0.0
 11
16949.7709138587
 21
6491.348430232557
 31
0.0
  0
LINE
  5
1CB42
  8
01
 10
17654.80341189825
 20
7219.074777375117
 30
0.0
 11
19652.80341189825
 21
7219.074777375117
 31
0.0
  0
LINE
  5
1CB44
  8
1CENTER
 10
17753.80341189825
 20
7135.5
 30
0.0
 11
17753.80341189825
 21
7166.891906743187
 31
0.0
  0
LINE
  5
1CB45
  8
01
 10
17741.30341189825
 20
7179.254777375114
 30
0.0
 11
17741.30341189825
 21
7149.164777375114
 31
0.0
  0
LINE
  5
1CB46
  8
01
 10
17766.30341189825
 20
7179.254777375114
 30
0.0
 11
17766.30341189825
 21
7149.164777375114
 31
0.0
  0
LINE
  5
1CB47
  8
01
 10
17741.30341189825
 20
7179.254777375114
 30
0.0
 11
17766.30341189825
 21
7179.254777375114
 31
0.0
  0
LINE
  5
1CB48
  8
01
 10
17743.80341189825
 20
7184.254777375114
 30
0.0
 11
17654.80341189825
 21
7184.254777375114
 31
0.0
  0
LINE
  5
1CB49
  8
01
 10
17743.80341189825
 20
7184.254777375114
 30
0.0
 11
17743.80341189825
 21
7179.254777375114
 31
0.0
  0
LINE
  5
1CB4A
  8
01
 10
17763.80341189825
 20
7184.164777375116
 30
0.0
 11
17763.80341189825
 21
7179.254777375114
 31
0.0
  0
LINE
  5
1CB4B
  8
01
 10
17741.30341189825
 20
7149.164777375114
 30
0.0
 11
17766.30341189825
 21
7149.164777375114
 31
0.0
  0
LINE
  5
1CB4C
  8
01
 10
17653.80341189825
 20
7218.074777375117
 30
0.0
 11
17653.80341189825
 21
7185.254777375114
 31
0.0
  0
LINE
  5
1CB4D
  8
01
 10
17654.80341189825
 20
7184.254777375114
 30
0.0
 11
17653.80341189825
 21
7185.254777375114
 31
0.0
  0
LINE
  5
1CB4E
  8
01
 10
17654.80341189825
 20
7219.074777375117
 30
0.0
 11
17653.80341189825
 21
7218.074777375117
 31
0.0
  0
LINE
  5
1CB4F
  8
01
 10
17654.80341189825
 20
7219.074777375117
 30
0.0
 11
17654.80341189825
 21
7184.254777375114
 31
0.0
  0
LINE
  5
1CB50
  8
1DIM
 10
17643.52978356192
 20
7149.164777375114
 30
0.0
 11
19698.52978356192
 21
7149.164777375114
 31
0.0
  0
LINE
  5
1CB51
  8
1DIM
 10
17643.52978356192
 20
7141.164777375114
 30
0.0
 11
19698.52978356192
 21
7141.164777375114
 31
0.0
  0
LINE
  5
1CB52
  8
01
 10
17654.80341189825
 20
7071.25477737511
 30
0.0
 11
19652.80341189825
 21
7071.25477737511
 31
0.0
  0
LINE
  5
1CB54
  8
01
 10
17741.30341189825
 20
7111.074777375114
 30
0.0
 11
17741.30341189825
 21
7141.164777375114
 31
0.0
  0
LINE
  5
1CB55
  8
01
 10
17766.30341189825
 20
7111.074777375114
 30
0.0
 11
17766.30341189825
 21
7141.164777375114
 31
0.0
  0
LINE
  5
1CB56
  8
01
 10
17741.30341189825
 20
7111.074777375114
 30
0.0
 11
17766.30341189825
 21
7111.074777375114
 31
0.0
  0
LINE
  5
1CB57
  8
01
 10
17743.80341189825
 20
7106.074777375114
 30
0.0
 11
17654.80341189825
 21
7106.074777375114
 31
0.0
  0
LINE
  5
1CB58
  8
01
 10
17743.80341189825
 20
7106.074777375114
 30
0.0
 11
17743.80341189825
 21
7111.074777375114
 31
0.0
  0
LINE
  5
1CB59
  8
01
 10
17763.80341189825
 20
7106.25477737511
 30
0.0
 11
17763.80341189825
 21
7111.074777375114
 31
0.0
  0
LINE
  5
1CB5A
  8
01
 10
17741.30341189825
 20
7141.164777375114
 30
0.0
 11
17766.30341189825
 21
7141.164777375114
 31
0.0
  0
LINE
  5
1CB5B
  8
01
 10
17653.80341189825
 20
7072.25477737511
 30
0.0
 11
17653.80341189825
 21
7105.074777375114
 31
0.0
  0
LINE
  5
1CB5C
  8
01
 10
17654.80341189825
 20
7106.074777375114
 30
0.0
 11
17653.80341189825
 21
7105.074777375114
 31
0.0
  0
LINE
  5
1CB5D
  8
01
 10
17654.80341189825
 20
7071.25477737511
 30
0.0
 11
17653.80341189825
 21
7072.25477737511
 31
0.0
  0
LINE
  5
1CB5E
  8
01
 10
17654.80341189825
 20
7071.25477737511
 30
0.0
 11
17654.80341189825
 21
7106.074777375114
 31
0.0
  0
LINE
  5
1CB63
  8
1CENTER
 10
17747.05341189824
 20
7157.164777375139
 30
0.0
 11
17760.55341189825
 21
7157.164777375139
 31
0.0
  0
CIRCLE
  5
1CB64
  8
01
  6
CONTINUOUS
 10
17753.80341189823
 20
7157.164777375139
 30
0.0
 40
4.0
  0
ARC
  5
1CB65
  8
01
  6
CONTINUOUS
 10
17755.30341189823
 20
7158.664777375139
 30
0.0
 40
1.0
 50
180.0
 51
270.0
  0
ARC
  5
1CB66
  8
01
  6
CONTINUOUS
 10
17752.30341189823
 20
7155.664777375139
 30
0.0
 40
1.0
 50
0.0
 51
90.0
  0
ARC
  5
1CB67
  8
01
  6
CONTINUOUS
 10
17755.30341189823
 20
7155.664777375139
 30
0.0
 40
1.0
 50
90.0
 51
180.0
  0
ARC
  5
1CB68
  8
01
  6
CONTINUOUS
 10
17752.30341189823
 20
7158.664777375139
 30
0.0
 40
1.0
 50
270.0
 51
0.0
  0
LINE
  5
1CB69
  8
01
  6
CONTINUOUS
 10
17756.05341189823
 20
7156.664777375139
 30
0.0
 11
17756.05341189823
 21
7157.664777375139
 31
0.0
  0
LINE
  5
1CB6A
  8
01
  6
CONTINUOUS
 10
17754.30341189823
 20
7158.664777375139
 30
0.0
 11
17754.30341189824
 21
7159.414777375139
 31
0.0
  0
LINE
  5
1CB6B
  8
01
  6
CONTINUOUS
 10
17754.30341189824
 20
7159.414777375139
 30
0.0
 11
17753.30341189824
 21
7159.414777375139
 31
0.0
  0
LINE
  5
1CB6C
  8
01
  6
CONTINUOUS
 10
17751.55341189823
 20
7157.664777375139
 30
0.0
 11
17751.55341189823
 21
7156.664777375139
 31
0.0
  0
LINE
  5
1CB6D
  8
01
  6
CONTINUOUS
 10
17751.55341189823
 20
7156.664777375139
 30
0.0
 11
17752.30341189823
 21
7156.664777375139
 31
0.0
  0
LINE
  5
1CB6E
  8
01
  6
CONTINUOUS
 10
17753.30341189823
 20
7154.914777375139
 30
0.0
 11
17754.30341189823
 21
7154.914777375139
 31
0.0
  0
LINE
  5
1CB6F
  8
01
  6
CONTINUOUS
 10
17754.30341189823
 20
7154.914777375139
 30
0.0
 11
17754.30341189823
 21
7155.664777375139
 31
0.0
  0
LINE
  5
1CB70
  8
01
  6
CONTINUOUS
 10
17755.30341189823
 20
7156.664777375139
 30
0.0
 11
17756.05341189823
 21
7156.664777375139
 31
0.0
  0
LINE
  5
1CB71
  8
01
  6
CONTINUOUS
 10
17756.05341189823
 20
7157.664777375139
 30
0.0
 11
17755.30341189823
 21
7157.664777375139
 31
0.0
  0
LINE
  5
1CB72
  8
01
  6
CONTINUOUS
 10
17753.30341189823
 20
7155.664777375139
 30
0.0
 11
17753.30341189823
 21
7154.914777375139
 31
0.0
  0
LINE
  5
1CB73
  8
01
  6
CONTINUOUS
 10
17753.30341189824
 20
7159.414777375139
 30
0.0
 11
17753.30341189823
 21
7158.664777375139
 31
0.0
  0
LINE
  5
1CB74
  8
01
  6
CONTINUOUS
 10
17752.30341189823
 20
7157.664777375139
 30
0.0
 11
17751.55341189823
 21
7157.664777375139
 31
0.0
  0
LINE
  5
1CC1A
  8
01
 10
18341.30341189825
 20
7179.164777375116
 30
0.0
 11
18341.30341189825
 21
7149.074777375115
 31
0.0
  0
LINE
  5
1CC1B
  8
01
 10
18366.30341189825
 20
7179.164777375116
 30
0.0
 11
18366.30341189825
 21
7149.074777375115
 31
0.0
  0
LINE
  5
1CC1C
  8
01
 10
18341.30341189825
 20
7179.164777375116
 30
0.0
 11
18366.30341189825
 21
7179.164777375116
 31
0.0
  0
LINE
  5
1CC1D
  8
01
 10
18343.80341189825
 20
7184.074777375117
 30
0.0
 11
18343.80341189825
 21
7179.164777375116
 31
0.0
  0
LINE
  5
1CC1E
  8
01
 10
18363.80341189825
 20
7184.074777375117
 30
0.0
 11
18363.80341189825
 21
7179.164777375116
 31
0.0
  0
LINE
  5
1CC1F
  8
01
 10
18341.30341189825
 20
7110.984777375115
 30
0.0
 11
18341.30341189825
 21
7141.074777375115
 31
0.0
  0
LINE
  5
1CC20
  8
01
 10
18366.30341189825
 20
7110.984777375115
 30
0.0
 11
18366.30341189825
 21
7141.074777375115
 31
0.0
  0
LINE
  5
1CC21
  8
01
 10
18341.30341189825
 20
7110.984777375115
 30
0.0
 11
18366.30341189825
 21
7110.984777375115
 31
0.0
  0
LINE
  5
1CC22
  8
01
 10
18343.80341189825
 20
7106.074777375114
 30
0.0
 11
18343.80341189825
 21
7110.984777375115
 31
0.0
  0
LINE
  5
1CC23
  8
01
 10
18363.80341189825
 20
7106.074777375114
 30
0.0
 11
18363.80341189825
 21
7110.984777375115
 31
0.0
  0
LINE
  5
1CC24
  8
01
 10
18341.30341189825
 20
7141.074777375115
 30
0.0
 11
18366.30341189825
 21
7141.074777375115
 31
0.0
  0
CIRCLE
  5
1CC26
  8
01
  6
CONTINUOUS
 10
18353.80341189823
 20
7157.074777375141
 30
0.0
 40
4.0
  0
ARC
  5
1CC27
  8
01
  6
CONTINUOUS
 10
18355.30341189823
 20
7158.574777375141
 30
0.0
 40
1.0
 50
180.0
 51
270.0
  0
ARC
  5
1CC28
  8
01
  6
CONTINUOUS
 10
18352.30341189823
 20
7155.574777375141
 30
0.0
 40
1.0
 50
0.0
 51
90.0
  0
ARC
  5
1CC29
  8
01
  6
CONTINUOUS
 10
18355.30341189823
 20
7155.574777375141
 30
0.0
 40
1.0
 50
90.0
 51
180.0
  0
ARC
  5
1CC2A
  8
01
  6
CONTINUOUS
 10
18352.30341189823
 20
7158.574777375141
 30
0.0
 40
1.0
 50
270.0
 51
0.0
  0
LINE
  5
1CC2B
  8
01
  6
CONTINUOUS
 10
18356.05341189823
 20
7156.574777375141
 30
0.0
 11
18356.05341189823
 21
7157.574777375141
 31
0.0
  0
LINE
  5
1CC2C
  8
01
  6
CONTINUOUS
 10
18354.30341189823
 20
7158.574777375141
 30
0.0
 11
18354.30341189824
 21
7159.324777375141
 31
0.0
  0
LINE
  5
1CC2D
  8
01
  6
CONTINUOUS
 10
18354.30341189824
 20
7159.324777375141
 30
0.0
 11
18353.30341189824
 21
7159.324777375141
 31
0.0
  0
LINE
  5
1CC2E
  8
01
  6
CONTINUOUS
 10
18351.55341189823
 20
7157.574777375141
 30
0.0
 11
18351.55341189823
 21
7156.574777375141
 31
0.0
  0
LINE
  5
1CC2F
  8
01
  6
CONTINUOUS
 10
18351.55341189823
 20
7156.574777375141
 30
0.0
 11
18352.30341189823
 21
7156.574777375141
 31
0.0
  0
LINE
  5
1CC30
  8
01
  6
CONTINUOUS
 10
18353.30341189823
 20
7154.824777375141
 30
0.0
 11
18354.30341189823
 21
7154.824777375141
 31
0.0
  0
LINE
  5
1CC31
  8
01
  6
CONTINUOUS
 10
18354.30341189823
 20
7154.824777375141
 30
0.0
 11
18354.30341189823
 21
7155.574777375141
 31
0.0
  0
LINE
  5
1CC32
  8
01
  6
CONTINUOUS
 10
18355.30341189823
 20
7156.574777375141
 30
0.0
 11
18356.05341189823
 21
7156.574777375141
 31
0.0
  0
LINE
  5
1CC33
  8
01
  6
CONTINUOUS
 10
18356.05341189823
 20
7157.574777375141
 30
0.0
 11
18355.30341189823
 21
7157.574777375141
 31
0.0
  0
LINE
  5
1CC34
  8
01
  6
CONTINUOUS
 10
18353.30341189823
 20
7155.574777375141
 30
0.0
 11
18353.30341189823
 21
7154.824777375141
 31
0.0
  0
LINE
  5
1CC35
  8
01
  6
CONTINUOUS
 10
18353.30341189824
 20
7159.324777375141
 30
0.0
 11
18353.30341189823
 21
7158.574777375141
 31
0.0
  0
LINE
  5
1CC36
  8
01
  6
CONTINUOUS
 10
18352.30341189823
 20
7157.574777375141
 30
0.0
 11
18351.55341189823
 21
7157.574777375141
 31
0.0
  0
LINE
  5
1CC39
  8
01
 10
19566.30341189825
 20
7179.254777375114
 30
0.0
 11
19566.30341189825
 21
7149.164777375114
 31
0.0
  0
LINE
  5
1CC3A
  8
01
 10
19541.30341189825
 20
7179.254777375114
 30
0.0
 11
19541.30341189825
 21
7149.164777375114
 31
0.0
  0
LINE
  5
1CC3B
  8
01
 10
19566.30341189825
 20
7179.254777375114
 30
0.0
 11
19541.30341189825
 21
7179.254777375114
 31
0.0
  0
LINE
  5
1CC3C
  8
01
 10
19563.67290260492
 20
7184.254777375114
 30
0.0
 11
19652.80341189825
 21
7184.254777375114
 31
0.0
  0
LINE
  5
1CC3D
  8
01
 10
19563.80341189825
 20
7184.164777375116
 30
0.0
 11
19563.80341189825
 21
7179.254777375114
 31
0.0
  0
LINE
  5
1CC3E
  8
01
 10
19543.80341189825
 20
7184.164777375116
 30
0.0
 11
19543.80341189825
 21
7179.254777375114
 31
0.0
  0
LINE
  5
1CC3F
  8
01
 10
19566.30341189825
 20
7149.164777375114
 30
0.0
 11
19541.30341189825
 21
7149.164777375114
 31
0.0
  0
LINE
  5
1CC40
  8
01
 10
19653.80341189825
 20
7218.074777375117
 30
0.0
 11
19653.80341189825
 21
7185.254777375114
 31
0.0
  0
LINE
  5
1CC41
  8
01
 10
19652.80341189825
 20
7184.254777375114
 30
0.0
 11
19653.80341189825
 21
7185.254777375114
 31
0.0
  0
LINE
  5
1CC42
  8
01
 10
19652.80341189825
 20
7219.074777375117
 30
0.0
 11
19653.80341189825
 21
7218.074777375117
 31
0.0
  0
LINE
  5
1CC43
  8
01
 10
19652.80341189825
 20
7219.074777375117
 30
0.0
 11
19652.80341189825
 21
7184.254777375114
 31
0.0
  0
LINE
  5
1CC44
  8
1DIM
 10
19664.07704023458
 20
7149.164777375114
 30
0.0
 11
17609.07704023458
 21
7149.164777375114
 31
0.0
  0
LINE
  5
1CC45
  8
1DIM
 10
19664.07704023458
 20
7141.164777375114
 30
0.0
 11
17609.07704023458
 21
7141.164777375114
 31
0.0
  0
LINE
  5
1CC47
  8
01
 10
19566.30341189825
 20
7111.074777375114
 30
0.0
 11
19566.30341189825
 21
7141.164777375114
 31
0.0
  0
LINE
  5
1CC48
  8
01
 10
19541.30341189825
 20
7111.074777375114
 30
0.0
 11
19541.30341189825
 21
7141.164777375114
 31
0.0
  0
LINE
  5
1CC49
  8
01
 10
19566.30341189825
 20
7111.074777375114
 30
0.0
 11
19541.30341189825
 21
7111.074777375114
 31
0.0
  0
LINE
  5
1CC4A
  8
01
 10
19563.67290260492
 20
7106.074777375114
 30
0.0
 11
19652.80341189825
 21
7106.074777375114
 31
0.0
  0
LINE
  5
1CC4B
  8
01
 10
19563.80341189825
 20
7106.164777375112
 30
0.0
 11
19563.80341189825
 21
7111.074777375114
 31
0.0
  0
LINE
  5
1CC4C
  8
01
 10
19543.80341189825
 20
7106.164777375112
 30
0.0
 11
19543.80341189825
 21
7111.074777375114
 31
0.0
  0
LINE
  5
1CC4D
  8
01
 10
19566.30341189825
 20
7141.164777375114
 30
0.0
 11
19541.30341189825
 21
7141.164777375114
 31
0.0
  0
LINE
  5
1CC4E
  8
01
 10
19653.80341189825
 20
7072.25477737511
 30
0.0
 11
19653.80341189825
 21
7105.074777375114
 31
0.0
  0
LINE
  5
1CC4F
  8
01
 10
19652.80341189825
 20
7106.074777375114
 30
0.0
 11
19653.80341189825
 21
7105.074777375114
 31
0.0
  0
LINE
  5
1CC50
  8
01
 10
19652.80341189825
 20
7071.25477737511
 30
0.0
 11
19653.80341189825
 21
7072.25477737511
 31
0.0
  0
LINE
  5
1CC51
  8
01
 10
19652.80341189825
 20
7071.25477737511
 30
0.0
 11
19652.80341189825
 21
7106.074777375114
 31
0.0
  0
CIRCLE
  5
1CC53
  8
01
  6
CONTINUOUS
 10
19553.80341189826
 20
7157.164777375139
 30
0.0
 40
4.0
  0
ARC
  5
1CC54
  8
01
  6
CONTINUOUS
 10
19552.30341189826
 20
7158.664777375139
 30
0.0
 40
1.0
 50
270.0
 51
0.0
  0
ARC
  5
1CC55
  8
01
  6
CONTINUOUS
 10
19555.30341189826
 20
7155.664777375139
 30
0.0
 40
1.0
 50
90.0
 51
180.0
  0
ARC
  5
1CC56
  8
01
  6
CONTINUOUS
 10
19552.30341189826
 20
7155.664777375139
 30
0.0
 40
1.0
 50
0.0
 51
90.0
  0
ARC
  5
1CC57
  8
01
  6
CONTINUOUS
 10
19555.30341189826
 20
7158.664777375139
 30
0.0
 40
1.0
 50
180.0
 51
270.0
  0
LINE
  5
1CC58
  8
01
  6
CONTINUOUS
 10
19551.55341189826
 20
7156.664777375139
 30
0.0
 11
19551.55341189826
 21
7157.664777375139
 31
0.0
  0
LINE
  5
1CC59
  8
01
  6
CONTINUOUS
 10
19553.30341189826
 20
7158.664777375139
 30
0.0
 11
19553.30341189826
 21
7159.414777375139
 31
0.0
  0
LINE
  5
1CC5A
  8
01
  6
CONTINUOUS
 10
19553.30341189826
 20
7159.414777375139
 30
0.0
 11
19554.30341189826
 21
7159.414777375139
 31
0.0
  0
LINE
  5
1CC5B
  8
01
  6
CONTINUOUS
 10
19556.05341189826
 20
7157.664777375139
 30
0.0
 11
19556.05341189826
 21
7156.664777375139
 31
0.0
  0
LINE
  5
1CC5C
  8
01
  6
CONTINUOUS
 10
19556.05341189826
 20
7156.664777375139
 30
0.0
 11
19555.30341189826
 21
7156.664777375139
 31
0.0
  0
LINE
  5
1CC5D
  8
01
  6
CONTINUOUS
 10
19554.30341189826
 20
7154.914777375139
 30
0.0
 11
19553.30341189826
 21
7154.914777375139
 31
0.0
  0
LINE
  5
1CC5E
  8
01
  6
CONTINUOUS
 10
19553.30341189826
 20
7154.914777375139
 30
0.0
 11
19553.30341189826
 21
7155.664777375139
 31
0.0
  0
LINE
  5
1CC5F
  8
01
  6
CONTINUOUS
 10
19552.30341189826
 20
7156.664777375139
 30
0.0
 11
19551.55341189826
 21
7156.664777375139
 31
0.0
  0
LINE
  5
1CC60
  8
01
  6
CONTINUOUS
 10
19551.55341189826
 20
7157.664777375139
 30
0.0
 11
19552.30341189826
 21
7157.664777375139
 31
0.0
  0
LINE
  5
1CC61
  8
01
  6
CONTINUOUS
 10
19554.30341189826
 20
7155.664777375139
 30
0.0
 11
19554.30341189826
 21
7154.914777375139
 31
0.0
  0
LINE
  5
1CC62
  8
01
  6
CONTINUOUS
 10
19554.30341189826
 20
7159.414777375139
 30
0.0
 11
19554.30341189826
 21
7158.664777375139
 31
0.0
  0
LINE
  5
1CC63
  8
01
  6
CONTINUOUS
 10
19555.30341189826
 20
7157.664777375139
 30
0.0
 11
19556.05341189826
 21
7157.664777375139
 31
0.0
  0
LINE
  5
1CC9A
  8
01
 10
18343.80341189825
 20
7184.074777375117
 30
0.0
 11
17763.80341189825
 21
7184.164777375116
 31
0.0
  0
LINE
  5
1CCD0
  8
01
 10
18343.80341189825
 20
7106.164777375112
 30
0.0
 11
17763.80341189825
 21
7106.25477737511
 31
0.0
  0
LINE
  5
1CCD2
  8
01
 10
18966.30341189825
 20
7179.164777375116
 30
0.0
 11
18966.30341189825
 21
7149.074777375115
 31
0.0
  0
LINE
  5
1CCD3
  8
01
 10
18941.30341189825
 20
7179.164777375116
 30
0.0
 11
18941.30341189825
 21
7149.074777375115
 31
0.0
  0
LINE
  5
1CCD4
  8
01
 10
18966.30341189825
 20
7179.164777375116
 30
0.0
 11
18941.30341189825
 21
7179.164777375116
 31
0.0
  0
LINE
  5
1CCD5
  8
01
 10
18963.80341189825
 20
7184.074777375117
 30
0.0
 11
18963.80341189825
 21
7179.164777375116
 31
0.0
  0
LINE
  5
1CCD6
  8
01
 10
18943.80341189825
 20
7184.074777375117
 30
0.0
 11
18943.80341189825
 21
7179.164777375116
 31
0.0
  0
LINE
  5
1CCD7
  8
01
 10
18966.30341189825
 20
7110.984777375115
 30
0.0
 11
18966.30341189825
 21
7141.074777375115
 31
0.0
  0
LINE
  5
1CCD8
  8
01
 10
18941.30341189825
 20
7110.984777375115
 30
0.0
 11
18941.30341189825
 21
7141.074777375115
 31
0.0
  0
LINE
  5
1CCD9
  8
01
 10
18966.30341189825
 20
7110.984777375115
 30
0.0
 11
18941.30341189825
 21
7110.984777375115
 31
0.0
  0
LINE
  5
1CCDA
  8
01
 10
18963.80341189825
 20
7106.074777375114
 30
0.0
 11
18963.80341189825
 21
7110.984777375115
 31
0.0
  0
LINE
  5
1CCDB
  8
01
 10
18943.80341189825
 20
7106.074777375114
 30
0.0
 11
18943.80341189825
 21
7110.984777375115
 31
0.0
  0
CIRCLE
  5
1CCDD
  8
01
  6
CONTINUOUS
 10
18953.80341189826
 20
7157.074777375141
 30
0.0
 40
4.0
  0
ARC
  5
1CCDE
  8
01
  6
CONTINUOUS
 10
18952.30341189826
 20
7158.574777375141
 30
0.0
 40
1.0
 50
270.0
 51
0.0
  0
ARC
  5
1CCDF
  8
01
  6
CONTINUOUS
 10
18955.30341189826
 20
7155.574777375141
 30
0.0
 40
1.0
 50
90.0
 51
180.0
  0
ARC
  5
1CCE0
  8
01
  6
CONTINUOUS
 10
18952.30341189826
 20
7155.574777375141
 30
0.0
 40
1.0
 50
0.0
 51
90.0
  0
ARC
  5
1CCE1
  8
01
  6
CONTINUOUS
 10
18955.30341189826
 20
7158.574777375141
 30
0.0
 40
1.0
 50
180.0
 51
270.0
  0
LINE
  5
1CCE2
  8
01
  6
CONTINUOUS
 10
18951.55341189826
 20
7156.574777375141
 30
0.0
 11
18951.55341189826
 21
7157.574777375141
 31
0.0
  0
LINE
  5
1CCE3
  8
01
  6
CONTINUOUS
 10
18953.30341189826
 20
7158.574777375141
 30
0.0
 11
18953.30341189826
 21
7159.324777375141
 31
0.0
  0
LINE
  5
1CCE4
  8
01
  6
CONTINUOUS
 10
18953.30341189826
 20
7159.324777375141
 30
0.0
 11
18954.30341189826
 21
7159.324777375141
 31
0.0
  0
LINE
  5
1CCE5
  8
01
  6
CONTINUOUS
 10
18956.05341189826
 20
7157.574777375141
 30
0.0
 11
18956.05341189826
 21
7156.574777375141
 31
0.0
  0
LINE
  5
1CCE6
  8
01
  6
CONTINUOUS
 10
18956.05341189826
 20
7156.574777375141
 30
0.0
 11
18955.30341189826
 21
7156.574777375141
 31
0.0
  0
LINE
  5
1CCE7
  8
01
  6
CONTINUOUS
 10
18954.30341189826
 20
7154.824777375141
 30
0.0
 11
18953.30341189826
 21
7154.824777375141
 31
0.0
  0
LINE
  5
1CCE8
  8
01
  6
CONTINUOUS
 10
18953.30341189826
 20
7154.824777375141
 30
0.0
 11
18953.30341189826
 21
7155.574777375141
 31
0.0
  0
LINE
  5
1CCE9
  8
01
  6
CONTINUOUS
 10
18952.30341189826
 20
7156.574777375141
 30
0.0
 11
18951.55341189826
 21
7156.574777375141
 31
0.0
  0
LINE
  5
1CCEA
  8
01
  6
CONTINUOUS
 10
18951.55341189826
 20
7157.574777375141
 30
0.0
 11
18952.30341189826
 21
7157.574777375141
 31
0.0
  0
LINE
  5
1CCEB
  8
01
  6
CONTINUOUS
 10
18954.30341189826
 20
7155.574777375141
 30
0.0
 11
18954.30341189826
 21
7154.824777375141
 31
0.0
  0
LINE
  5
1CCEC
  8
01
  6
CONTINUOUS
 10
18954.30341189826
 20
7159.324777375141
 30
0.0
 11
18954.30341189826
 21
7158.574777375141
 31
0.0
  0
LINE
  5
1CCED
  8
01
  6
CONTINUOUS
 10
18955.30341189826
 20
7157.574777375141
 30
0.0
 11
18956.05341189826
 21
7157.574777375141
 31
0.0
  0
LINE
  5
1CCEE
  8
01
 10
18963.80341189825
 20
7184.074777375117
 30
0.0
 11
19543.80341189825
 21
7184.164777375116
 31
0.0
  0
LINE
  5
1CCEF
  8
01
 10
18963.80341189825
 20
7106.164777375112
 30
0.0
 11
19543.80341189825
 21
7106.25477737511
 31
0.0
  0
LINE
  5
1CD26
  8
01
 10
18943.80341189825
 20
7183.984777375119
 30
0.0
 11
18363.80341189825
 21
7184.074777375117
 31
0.0
  0
LINE
  5
1CD27
  8
01
 10
18943.80341189825
 20
7106.074777375114
 30
0.0
 11
18363.80341189825
 21
7106.164777375112
 31
0.0
  0
ARC
  5
1CD5C
  8
01
 10
17753.80341189825
 20
7169.893370758771
 30
0.0
 40
17.49999999999807
 50
55.15009542094911
 51
124.8499045790509
  0
ARC
  5
1CD5D
  8
01
 10
17753.80341189825
 20
7120.616183991453
 30
0.0
 40
17.49999999999807
 50
235.1500954209491
 51
304.8499045790509
  0
ARC
  5
1CD93
  8
01
 10
18353.80341189825
 20
7169.713370758775
 30
0.0
 40
17.49999999999807
 50
55.15009542094911
 51
124.8499045790509
  0
ARC
  5
1CD94
  8
01
 10
18353.80341189825
 20
7120.436183991456
 30
0.0
 40
17.49999999999807
 50
235.1500954209491
 51
304.8499045790509
  0
ARC
  5
1CDCA
  8
01
 10
18953.80341189825
 20
7169.713370758775
 30
0.0
 40
17.49999999999807
 50
55.15009542094911
 51
124.8499045790509
  0
ARC
  5
1CDCB
  8
01
 10
18953.80341189825
 20
7120.436183991456
 30
0.0
 40
17.49999999999807
 50
235.1500954209491
 51
304.8499045790509
  0
ARC
  5
1CE01
  8
01
 10
19553.80341189825
 20
7169.803370758773
 30
0.0
 40
17.49999999999807
 50
55.15009542094911
 51
124.8499045790509
  0
ARC
  5
1CE02
  8
01
 10
19553.80341189825
 20
7120.526183991455
 30
0.0
 40
17.49999999999807
 50
235.1500954209491
 51
304.8499045790509
  0
LINE
  5
1CE39
  8
1CENTER
 10
19672.41023569474
 20
7088.664777375112
 30
0.0
 11
17640.0
 21
7088.664777375112
 31
0.0
  0
LINE
  5
1CE70
  8
1CENTER
 10
19672.41023569474
 20
7201.664777375116
 30
0.0
 11
17640.0
 21
7201.664777375116
 31
0.0
  0
LINE
  5
1CEA8
  8
1CENTER
 10
18353.80341189824
 20
7135.410000000002
 30
0.0
 11
18353.80341189824
 21
7166.801906743189
 31
0.0
  0
LINE
  5
1CEA9
  8
1CENTER
 10
18347.05341189823
 20
7157.074777375141
 30
0.0
 11
18360.55341189824
 21
7157.074777375141
 31
0.0
  0
LINE
  5
1CF53
  8
1CENTER
 10
18953.80341189827
 20
7135.410000000002
 30
0.0
 11
18953.80341189827
 21
7166.801906743189
 31
0.0
  0
LINE
  5
1CF54
  8
1CENTER
 10
18947.05341189826
 20
7157.074777375141
 30
0.0
 11
18960.55341189827
 21
7157.074777375141
 31
0.0
  0
LINE
  5
1CF8C
  8
1CENTER
 10
19553.80341189826
 20
7135.5
 30
0.0
 11
19553.80341189826
 21
7166.891906743187
 31
0.0
  0
LINE
  5
1CF8D
  8
1CENTER
 10
19547.05341189826
 20
7157.164777375139
 30
0.0
 11
19560.55341189826
 21
7157.164777375139
 31
0.0
  0
LINE
  5
1CFC4
  8
1CENTER
 10
17753.80341189825
 20
7072.968824003518
 30
0.0
 11
17753.80341189825
 21
7104.360730746705
 31
0.0
  0
LINE
  5
1D605
  8
01
 10
17654.80341189825
 20
6989.999999999999
 30
0.0
 11
19652.80341189825
 21
6989.999999999999
 31
0.0
  0
LINE
  5
1D606
  8
01
 10
17653.80341189825
 20
6990.999999999999
 30
0.0
 11
17653.80341189825
 21
7023.820000000002
 31
0.0
  0
LINE
  5
1D607
  8
01
 10
17654.80341189825
 20
7024.820000000002
 30
0.0
 11
17653.80341189825
 21
7023.820000000002
 31
0.0
  0
LINE
  5
1D608
  8
01
 10
17654.80341189825
 20
6989.999999999999
 30
0.0
 11
17653.80341189825
 21
6990.999999999999
 31
0.0
  0
LINE
  5
1D609
  8
01
 10
17654.80341189825
 20
6989.999999999999
 30
0.0
 11
17654.80341189825
 21
7024.820000000002
 31
0.0
  0
LINE
  5
1D60A
  8
01
 10
19563.67290260492
 20
7024.820000000002
 30
0.0
 11
19652.80341189825
 21
7024.820000000002
 31
0.0
  0
LINE
  5
1D60B
  8
01
 10
19653.80341189825
 20
6990.999999999999
 30
0.0
 11
19653.80341189825
 21
7023.820000000002
 31
0.0
  0
LINE
  5
1D60C
  8
01
 10
19652.80341189825
 20
7024.820000000002
 30
0.0
 11
19653.80341189825
 21
7023.820000000002
 31
0.0
  0
LINE
  5
1D60D
  8
01
 10
19652.80341189825
 20
6989.999999999999
 30
0.0
 11
19653.80341189825
 21
6990.999999999999
 31
0.0
  0
LINE
  5
1D60E
  8
01
 10
19652.80341189825
 20
6989.999999999999
 30
0.0
 11
19652.80341189825
 21
7024.820000000002
 31
0.0
  0
LINE
  5
1D60F
  8
1CENTER
 10
19672.41023569474
 20
7007.410000000001
 30
0.0
 11
17640.0
 21
7007.410000000001
 31
0.0
  0
LINE
  5
1D610
  8
1CENTER
 10
17753.80341189825
 20
6991.714046628407
 30
0.0
 11
17753.80341189825
 21
7023.105953371594
 31
0.0
  0
LINE
  5
1D611
  8
01
 10
17654.80341189825
 20
7024.820000000002
 30
0.0
 11
19652.80341189825
 21
7024.820000000002
 31
0.0
  0
LINE
  5
1D648
  8
1CENTER
 10
18353.80341189825
 20
6991.714046628407
 30
0.0
 11
18353.80341189825
 21
7023.105953371594
 31
0.0
  0
LINE
  5
1D783
  8
1CENTER
 10
19553.80341189825
 20
6991.714046628407
 30
0.0
 11
19553.80341189825
 21
7023.105953371594
 31
0.0
  0
LINE
  5
1D784
  8
1CENTER
 10
18953.80341189825
 20
6991.714046628407
 30
0.0
 11
18953.80341189825
 21
7023.105953371594
 31
0.0
  0
LINE
  5
1D8E5
  8
1CENTER
 10
16723.43570298218
 20
6500.200535507728
 30
0.0
 11
16723.43570298218
 21
6457.496324957386
 31
0.0
  0
LINE
  5
1D99A
  8
1DIM
 10
16735.93570298218
 20
6583.278614816338
 30
0.0
 11
16765.21466339696
 21
6583.278614816338
 31
0.0
1001
ACAD
1000
DSTYLE
1002
{
1070
   340
1005
10
1070
    70
1070
     0
1070
    69
1070
     0
1070
     3
1000
(\U+00CF\U+0081\U+00F5<>)
1070
    40
1040
1.0
1070
    75
1070
     1
1070
    76
1070
     1
1002
}
  0
LINE
  5
1D99B
  8
1DIM
 10
16712.93570298218
 20
6583.278614816338
 30
0.0
 11
16733.93570298218
 21
6583.278614816338
 31
0.0
1001
ACAD
1000
DSTYLE
1002
{
1070
   340
1005
10
1070
    70
1070
     0
1070
    69
1070
     0
1070
     3
1000
(\U+00CF\U+0081\U+00F5<>)
1070
    40
1040
1.0
1070
    75
1070
     1
1070
    76
1070
     1
1002
}
  0
LINE
  5
1D99F
  8
1DIM
 10
16785.92987772829
 20
6601.164777375114
 30
0.0
 11
16850.51396362234
 21
6601.164777375114
 31
0.0
1001
ACAD
1000
DSTYLE
1002
{
1070
   340
1005
10
1070
    70
1070
     0
1070
    69
1070
     0
1002
}
  0
LINE
  5
1D9A0
  8
1DIM
 10
16822.43570298218
 20
6531.256347142553
 30
0.0
 11
16850.51396362234
 21
6531.256347142553
 31
0.0
1001
ACAD
1000
DSTYLE
1002
{
1070
   340
1005
10
1070
    70
1070
     0
1070
    69
1070
     0
1002
}
  0
LINE
  5
1D9A1
  8
1DIM
 10
16849.51396362234
 20
6599.164777375114
 30
0.0
 11
16849.51396362234
 21
6533.256347142553
 31
0.0
1001
ACAD
1000
DSTYLE
1002
{
1070
   340
1005
10
1070
    70
1070
     0
1070
    69
1070
     0
1002
}
  0
TEXT
  5
1D9A5
  8
1DIM
  6
CONTINUOUS
 10
16956.93168606362
 20
6511.600127585977
 30
0.0
 40
3.5
  1
Material：Gum
  0
TEXT
  5
1D9A6
  8
1DIM
  6
CONTINUOUS
 10
16956.93168606362
 20
6505.766794252644
 30
0.0
 40
3.5
  1
Finish：Black
  0
LINE
  5
1D9A8
  8
1DIM
 10
16946.64749188651
 20
6488.14609843363
 30
0.0
 11
16954.89835273029
 21
6505.066794252644
 31
0.0
  0
LINE
  5
1D9A9
  8
1DIM
 10
16954.89835273029
 20
6505.066794252644
 30
0.0
 11
16992.29835273029
 21
6505.066794252644
 31
0.0
  0
LINE
  5
1D9AA
  8
1DIM1
 10
17753.80341189825
 20
7007.410000000001
 30
0.0
 11
17753.80341189825
 21
6901.91
 31
0.0
1001
ACAD
1000
DSTYLE
1002
{
1070
    45
1040
0.5
1070
    40
1040
10.0
1002
}
  0
LINE
  5
1D9AB
  8
1DIM1
 10
18353.80341189825
 20
7007.410000000001
 30
0.0
 11
18353.80341189825
 21
6901.91
 31
0.0
1001
ACAD
1000
DSTYLE
1002
{
1070
    45
1040
0.5
1070
    40
1040
10.0
1002
}
  0
LINE
  5
1D9AC
  8
1DIM1
 10
17773.80341189825
 20
6911.91
 30
0.0
 11
18333.80341189825
 21
6911.91
 31
0.0
1001
ACAD
1000
DSTYLE
1002
{
1070
    45
1040
0.5
1070
    40
1040
10.0
1002
}
  0
LINE
  5
1D9B0
  8
1DIM1
 10
19553.80341189825
 20
7007.410000000001
 30
0.0
 11
19553.80341189825
 21
6901.910000000001
 31
0.0
1001
ACAD
1000
DSTYLE
1002
{
1070
    45
1040
0.5
1070
    40
1040
10.0
1002
}
  0
LINE
  5
1D9B1
  8
1DIM1
 10
18953.80341189825
 20
7007.410000000001
 30
0.0
 11
18953.80341189825
 21
6901.910000000001
 31
0.0
1001
ACAD
1000
DSTYLE
1002
{
1070
    45
1040
0.5
1070
    40
1040
10.0
1002
}
  0
LINE
  5
1D9B2
  8
1DIM1
 10
19533.80341189825
 20
6911.910000000001
 30
0.0
 11
18973.80341189825
 21
6911.910000000001
 31
0.0
1001
ACAD
1000
DSTYLE
1002
{
1070
    45
1040
0.5
1070
    40
1040
10.0
1002
}
  0
LINE
  5
1D9B6
  8
1DIM1
 10
18953.80341189825
 20
7007.410000000001
 30
0.0
 11
18953.80341189825
 21
6901.910000000001
 31
0.0
1001
ACAD
1000
DSTYLE
1002
{
1070
    45
1040
0.5
1070
    40
1040
10.0
1002
}
  0
LINE
  5
1D9B7
  8
1DIM1
 10
18353.80341189825
 20
7007.410000000001
 30
0.0
 11
18353.80341189825
 21
6901.910000000001
 31
0.0
1001
ACAD
1000
DSTYLE
1002
{
1070
    45
1040
0.5
1070
    40
1040
10.0
1002
}
  0
LINE
  5
1D9B8
  8
1DIM1
 10
18933.80341189825
 20
6911.910000000001
 30
0.0
 11
18373.80341189825
 21
6911.910000000001
 31
0.0
1001
ACAD
1000
DSTYLE
1002
{
1070
    45
1040
0.5
1070
    40
1040
10.0
1002
}
  0
LINE
  5
1D9BC
  8
1DIM1
 10
17653.80341189825
 20
7007.410000000001
 30
0.0
 11
17653.80341189825
 21
6826.910000000001
 31
0.0
1001
ACAD
1000
DSTYLE
1002
{
1070
    45
1040
0.5
1070
    40
1040
10.0
1002
}
  0
LINE
  5
1D9BD
  8
1DIM1
 10
19653.80341189825
 20
7007.410000000001
 30
0.0
 11
19653.80341189825
 21
6826.910000000001
 31
0.0
1001
ACAD
1000
DSTYLE
1002
{
1070
    45
1040
0.5
1070
    40
1040
10.0
1002
}
  0
LINE
  5
1D9BE
  8
1DIM1
 10
17673.80341189825
 20
6836.910000000001
 30
0.0
 11
19633.80341189825
 21
6836.910000000001
 31
0.0
1001
ACAD
1000
DSTYLE
1002
{
1070
    45
1040
0.5
1070
    40
1040
10.0
1002
}
  0
TEXT
  5
1D9C2
  8
1DIM
  6
CONTINUOUS
 10
16823.66666666667
 20
6452.533333333333
 30
0.0
 40
3.5
  1
Wooden Door t40～50mm Hole Size φ10
  0
TEXT
  5
1D9C3
  8
1DIM
  6
CONTINUOUS
 10
16833.0
 20
6446.7
 30
0.0
 40
3.5
  1
Glass Door t8～12mm Hole Size φ16
  0
LINE
  5
1D9C5
  8
1DIM
 10
16944.78952639806
 20
6457.573836503594
 30
0.0
 11
16937.1
 21
6446.0
 31
0.0
  0
LINE
  5
1D9C6
  8
1DIM
 10
16937.1
 20
6446.0
 30
0.0
 11
16824.0
 21
6446.0
 31
0.0
  0
LINE
  5
1D9C7
  8
0
  6
BYBLOCK
 10
16712.93570298218
 20
6582.742716816338
 30
0.0
 11
16710.93570298218
 21
6583.278614816338
 31
0.0
  0
LINE
  5
1D9C8
  8
0
  6
BYBLOCK
 10
16710.93570298218
 20
6583.278614816338
 30
0.0
 11
16712.93570298218
 21
6583.814512816338
 31
0.0
  0
LINE
  5
1D9C9
  8
0
  6
BYBLOCK
 10
16710.93570298218
 20
6583.278614816338
 30
0.0
 11
16712.93570298218
 21
6583.278614816338
 31
0.0
  0
LINE
  5
1D9CA
  8
0
  6
BYBLOCK
 10
16733.93570298218
 20
6583.814512816338
 30
0.0
 11
16735.93570298218
 21
6583.278614816338
 31
0.0
  0
LINE
  5
1D9CB
  8
0
  6
BYBLOCK
 10
16735.93570298218
 20
6583.278614816338
 30
0.0
 11
16733.93570298218
 21
6582.742716816338
 31
0.0
  0
LINE
  5
1D9CC
  8
0
  6
BYBLOCK
 10
16735.93570298218
 20
6583.278614816338
 30
0.0
 11
16733.93570298218
 21
6583.278614816338
 31
0.0
  0
TEXT
  5
1D9CD
  8
1DIM
  6
CONTINUOUS
 10
16755.18133006362
 20
6583.978614816338
 30
0.0
 40
3.5
  1
\U+2205
1001
ACAD
1000
DSTYLE
1002
{
1070
   340
1005
10
1070
    70
1070
     0
1070
    69
1070
     0
1070
     3
1000
(\U+00CF\U+0081\U+00F5<>)
1070
    40
1040
1.0
1070
    75
1070
     1
1070
    76
1070
     1
1002
}
  0
TEXT
  5
1D9CE
  8
1DIM
  6
CONTINUOUS
 10
16758.34799673029
 20
6583.978614816338
 30
0.0
 40
3.5
  1
2
1001
ACAD
1000
DSTYLE
1002
{
1070
   340
1005
10
1070
    70
1070
     0
1070
    69
1070
     0
1070
     3
1000
(\U+00CF\U+0081\U+00F5<>)
1070
    40
1040
1.0
1070
    75
1070
     1
1070
    76
1070
     1
1002
}
  0
TEXT
  5
1D9CF
  8
1DIM
  6
CONTINUOUS
 10
16761.68133006362
 20
6583.978614816338
 30
0.0
 40
3.5
  1
5
1001
ACAD
1000
DSTYLE
1002
{
1070
   340
1005
10
1070
    70
1070
     0
1070
    69
1070
     0
1070
     3
1000
(\U+00CF\U+0081\U+00F5<>)
1070
    40
1040
1.0
1070
    75
1070
     1
1070
    76
1070
     1
1002
}
  0
LINE
  5
1D9D0
  8
0
  6
BYBLOCK
 10
16848.97806562234
 20
6599.164777375114
 30
0.0
 11
16849.51396362234
 21
6601.164777375114
 31
0.0
  0
LINE
  5
1D9D1
  8
0
  6
BYBLOCK
 10
16849.51396362234
 20
6601.164777375114
 30
0.0
 11
16850.04986162233
 21
6599.164777375114
 31
0.0
  0
LINE
  5
1D9D2
  8
0
  6
BYBLOCK
 10
16849.51396362234
 20
6601.164777375114
 30
0.0
 11
16849.51396362234
 21
6599.164777375114
 31
0.0
  0
LINE
  5
1D9D3
  8
0
  6
BYBLOCK
 10
16850.04986162233
 20
6533.256347142553
 30
0.0
 11
16849.51396362234
 21
6531.256347142553
 31
0.0
  0
LINE
  5
1D9D4
  8
0
  6
BYBLOCK
 10
16849.51396362234
 20
6531.256347142553
 30
0.0
 11
16848.97806562234
 21
6533.256347142553
 31
0.0
  0
LINE
  5
1D9D5
  8
0
  6
BYBLOCK
 10
16849.51396362234
 20
6531.256347142553
 30
0.0
 11
16849.51396362234
 21
6533.256347142553
 31
0.0
  0
TEXT
  5
1D9D6
  8
1DIM
  6
CONTINUOUS
 10
16848.81396362233
 20
6559.127228925498
 30
0.0
 40
3.5
  1
69.91
 50
90.0
1001
ACAD
1000
DSTYLE
1002
{
1070
   340
1005
10
1070
    70
1070
     0
1070
    69
1070
     0
1002
}
  0
LINE
  5
1D9D7
  8
0
  6
BYBLOCK
 10
16947.12917528332
 20
6487.911220227654
 30
0.0
 11
16945.7709138587
 21
6486.348430232557
 31
0.0
  0
LINE
  5
1D9D8
  8
0
  6
BYBLOCK
 10
16945.7709138587
 20
6486.348430232557
 30
0.0
 11
16946.16580848971
 21
6488.380976639605
 31
0.0
  0
LINE
  5
1D9D9
  8
0
  6
BYBLOCK
 10
16945.7709138587
 20
6486.348430232557
 30
0.0
 11
16946.64749188651
 21
6488.14609843363
 31
0.0
  0
LINE
  5
1D9DA
  8
0
  6
BYBLOCK
 10
17773.80341189825
 20
6906.55102
 30
0.0
 11
17753.80341189825
 21
6911.91
 31
0.0
  0
LINE
  5
1D9DB
  8
0
  6
BYBLOCK
 10
17753.80341189825
 20
6911.91
 30
0.0
 11
17773.80341189825
 21
6917.26898
 31
0.0
  0
LINE
  5
1D9DC
  8
0
  6
BYBLOCK
 10
17753.80341189825
 20
6911.91
 30
0.0
 11
17773.80341189825
 21
6911.91
 31
0.0
  0
LINE
  5
1D9DD
  8
0
  6
BYBLOCK
 10
18333.80341189825
 20
6917.26898
 30
0.0
 11
18353.80341189825
 21
6911.91
 31
0.0
  0
LINE
  5
1D9DE
  8
0
  6
BYBLOCK
 10
18353.80341189825
 20
6911.91
 30
0.0
 11
18333.80341189825
 21
6906.55102
 31
0.0
  0
LINE
  5
1D9DF
  8
0
  6
BYBLOCK
 10
18353.80341189825
 20
6911.91
 30
0.0
 11
18333.80341189825
 21
6911.91
 31
0.0
  0
TEXT
  5
1D9E0
  8
1DIM1
  6
CONTINUOUS
 10
18002.97007856491
 20
6918.91
 30
0.0
 40
35.0
  1
600
1001
ACAD
1000
DSTYLE
1002
{
1070
    45
1040
0.5
1070
    40
1040
10.0
1002
}
  0
LINE
  5
1D9E1
  8
0
  6
BYBLOCK
 10
19533.80341189825
 20
6917.268980000001
 30
0.0
 11
19553.80341189825
 21
6911.910000000001
 31
0.0
  0
LINE
  5
1D9E2
  8
0
  6
BYBLOCK
 10
19553.80341189825
 20
6911.910000000001
 30
0.0
 11
19533.80341189825
 21
6906.551020000001
 31
0.0
  0
LINE
  5
1D9E3
  8
0
  6
BYBLOCK
 10
19553.80341189825
 20
6911.910000000001
 30
0.0
 11
19533.80341189825
 21
6911.910000000001
 31
0.0
  0
LINE
  5
1D9E4
  8
0
  6
BYBLOCK
 10
18973.80341189825
 20
6906.551020000001
 30
0.0
 11
18953.80341189825
 21
6911.910000000001
 31
0.0
  0
LINE
  5
1D9E5
  8
0
  6
BYBLOCK
 10
18953.80341189825
 20
6911.910000000001
 30
0.0
 11
18973.80341189825
 21
6917.268980000001
 31
0.0
  0
LINE
  5
1D9E6
  8
0
  6
BYBLOCK
 10
18953.80341189825
 20
6911.910000000001
 30
0.0
 11
18973.80341189825
 21
6911.910000000001
 31
0.0
  0
TEXT
  5
1D9E7
  8
1DIM1
  6
CONTINUOUS
 10
19202.97007856491
 20
6918.910000000001
 30
0.0
 40
35.0
  1
600
1001
ACAD
1000
DSTYLE
1002
{
1070
    45
1040
0.5
1070
    40
1040
10.0
1002
}
  0
LINE
  5
1D9E8
  8
0
  6
BYBLOCK
 10
18933.80341189825
 20
6917.268980000001
 30
0.0
 11
18953.80341189825
 21
6911.910000000001
 31
0.0
  0
LINE
  5
1D9E9
  8
0
  6
BYBLOCK
 10
18953.80341189825
 20
6911.910000000001
 30
0.0
 11
18933.80341189825
 21
6906.551020000001
 31
0.0
  0
LINE
  5
1D9EA
  8
0
  6
BYBLOCK
 10
18953.80341189825
 20
6911.910000000001
 30
0.0
 11
18933.80341189825
 21
6911.910000000001
 31
0.0
  0
LINE
  5
1D9EB
  8
0
  6
BYBLOCK
 10
18373.80341189825
 20
6906.551020000001
 30
0.0
 11
18353.80341189825
 21
6911.910000000001
 31
0.0
  0
LINE
  5
1D9EC
  8
0
  6
BYBLOCK
 10
18353.80341189825
 20
6911.910000000001
 30
0.0
 11
18373.80341189825
 21
6917.268980000001
 31
0.0
  0
LINE
  5
1D9ED
  8
0
  6
BYBLOCK
 10
18353.80341189825
 20
6911.910000000001
 30
0.0
 11
18373.80341189825
 21
6911.910000000001
 31
0.0
  0
TEXT
  5
1D9EE
  8
1DIM1
  6
CONTINUOUS
 10
18602.97007856491
 20
6918.910000000001
 30
0.0
 40
35.0
  1
600
1001
ACAD
1000
DSTYLE
1002
{
1070
    45
1040
0.5
1070
    40
1040
10.0
1002
}
  0
LINE
  5
1D9EF
  8
0
  6
BYBLOCK
 10
17673.80341189825
 20
6831.551020000001
 30
0.0
 11
17653.80341189825
 21
6836.910000000001
 31
0.0
  0
LINE
  5
1D9F0
  8
0
  6
BYBLOCK
 10
17653.80341189825
 20
6836.910000000001
 30
0.0
 11
17673.80341189825
 21
6842.268980000001
 31
0.0
  0
LINE
  5
1D9F1
  8
0
  6
BYBLOCK
 10
17653.80341189825
 20
6836.910000000001
 30
0.0
 11
17673.80341189825
 21
6836.910000000001
 31
0.0
  0
LINE
  5
1D9F2
  8
0
  6
BYBLOCK
 10
19633.80341189825
 20
6842.268980000001
 30
0.0
 11
19653.80341189825
 21
6836.910000000001
 31
0.0
  0
LINE
  5
1D9F3
  8
0
  6
BYBLOCK
 10
19653.80341189825
 20
6836.910000000001
 30
0.0
 11
19633.80341189825
 21
6831.551020000001
 31
0.0
  0
LINE
  5
1D9F4
  8
0
  6
BYBLOCK
 10
19653.80341189825
 20
6836.910000000001
 30
0.0
 11
19633.80341189825
 21
6836.910000000001
 31
0.0
  0
TEXT
  5
1D9F5
  8
1DIM1
  6
CONTINUOUS
 10
18587.13674523158
 20
6843.910000000001
 30
0.0
 40
35.0
  1
2000
1001
ACAD
1000
DSTYLE
1002
{
1070
    45
1040
0.5
1070
    40
1040
10.0
1002
}
  0
LINE
  5
1D9F6
  8
0
  6
BYBLOCK
 10
16944.34316357667
 20
6457.870394926305
 30
0.0
 11
16945.89629829388
 21
6459.239686427998
 31
0.0
  0
LINE
  5
1D9F7
  8
0
  6
BYBLOCK
 10
16945.89629829388
 20
6459.239686427998
 30
0.0
 11
16945.23588921946
 21
6457.277278080883
 31
0.0
  0
LINE
  5
1D9F8
  8
0
  6
BYBLOCK
 10
16945.89629829388
 20
6459.239686427998
 30
0.0
 11
16944.78952639806
 21
6457.573836503594
 31
0.0
  0
VIEWPORT
  5
F74B
 67
     1
  8
0
 10
0.0
 20
0.0
 30
0.0
 40
626.8029850746268
 41
297.0
 68
     1
 69
     1
1001
ACAD
1000
MVIEW
1002
{
1070
    16
1010
0.0
1020
0.0
1030
0.0
1010
0.0
1020
0.0
1030
1.0
1040
0.0
1040
297.0
1040
-4.300000000000011
1040
12.7999999999999
1040
50.0
1040
0.0
1040
0.0
1070
    16
1070
   100
1070
     0
1070
     3
1070
     0
1070
     0
1070
     0
1070
     0
1040
0.0
1040
0.0
1040
0.0
1040
10.0
1040
10.0
1040
10.0
1040
10.0
1070
     0
1002
{
1002
}
1002
}
  0
ENDSEC
  0
EOF
