  0
SECTION
  2
HEADER
  9
$ACADVER
  1
AC1009
  9
$DWGCODEPAGE
  3
ansi_1252
  9
$INSBASE
 10
0.0
 20
0.0
 30
0.0
  9
$EXTMIN
 10
3195.15109815081
 20
-776.0612688333848
 30
0.0
  9
$EXTMAX
 10
3689.786025505103
 20
-544.1038837233076
 30
0.0
  9
$LIMMIN
 10
0.0
 20
0.0
  9
$LIMMAX
 10
420.0
 20
297.0
  9
$ORTHOMODE
 70
     0
  9
$REGENMODE
 70
     1
  9
$FILLMODE
 70
     1
  9
$QTEXTMODE
 70
     0
  9
$MIRRTEXT
 70
     0
  9
$DRAGMODE
 70
     2
  9
$LTSCALE
 40
0.5
  9
$OSMODE
 70
   951
  9
$ATTMODE
 70
     1
  9
$TEXTSIZE
 40
4.0
  9
$TRACEWID
 40
1.0
  9
$TEXTSTYLE
  7
STANDARD
  9
$CLAYER
  8
1TEXT
  9
$CELTYPE
  6
BYLAYER
  9
$CECOLOR
 62
   256
  9
$DIMSCALE
 40
1.0
  9
$DIMASZ
 40
2.0
  9
$DIMEXO
 40
0.0
  9
$DIMDLI
 40
7.0
  9
$DIMRND
 40
0.0
  9
$DIMDLE
 40
0.0
  9
$DIMEXE
 40
1.0
  9
$DIMTP
 40
0.0
  9
$DIMTM
 40
0.0
  9
$DIMTXT
 40
3.5
  9
$DIMCEN
 40
0.0
  9
$DIMTSZ
 40
0.0
  9
$DIMTOL
 70
     0
  9
$DIMLIM
 70
     0
  9
$DIMTIH
 70
     0
  9
$DIMTOH
 70
     0
  9
$DIMSE1
 70
     0
  9
$DIMSE2
 70
     0
  9
$DIMTAD
 70
     1
  9
$DIMZIN
 70
     8
  9
$DIMBLK
  1

  9
$DIMASO
 70
     1
  9
$DIMSHO
 70
     1
  9
$DIMPOST
  1
 
  9
$DIMAPOST
  1

  9
$DIMALT
 70
     0
  9
$DIMALTD
 70
     2
  9
$DIMALTF
 40
25.4
  9
$DIMLFAC
 40
1.0
  9
$DIMTOFL
 70
     1
  9
$DIMTVP
 40
0.0
  9
$DIMTIX
 70
     0
  9
$DIMSOXD
 70
     0
  9
$DIMSAH
 70
     1
  9
$DIMBLK1
  1
OPEN30
  9
$DIMBLK2
  1
OPEN30
  9
$DIMSTYLE
  2
NEWX10
  9
$DIMCLRD
 70
   256
  9
$DIMCLRE
 70
   256
  9
$DIMCLRT
 70
   201
  9
$DIMTFAC
 40
0.7
  9
$DIMGAP
 40
0.7
  9
$LUNITS
 70
     2
  9
$LUPREC
 70
     4
  9
$SKETCHINC
 40
1.0
  9
$FILLETRAD
 40
0.0
  9
$AUNITS
 70
     0
  9
$AUPREC
 70
     2
  9
$MENU
  1
acad
  9
$ELEVATION
 40
0.0
  9
$PELEVATION
 40
0.0
  9
$THICKNESS
 40
0.0
  9
$LIMCHECK
 70
     0
  9
$CHAMFERA
 40
1.0
  9
$CHAMFERB
 40
1.0
  9
$SKPOLY
 70
     0
  9
$TDCREATE
 40
2453033.690996817
  9
$TDUPDATE
 40
2460717.421543148
  9
$TDINDWG
 40
3.0663871528
  9
$TDUSRTIMER
 40
3.0663871644
  9
$USRTIMER
 70
     1
  9
$ANGBASE
 50
0.0
  9
$ANGDIR
 70
     0
  9
$PDMODE
 70
     0
  9
$PDSIZE
 40
0.0
  9
$PLINEWID
 40
0.0
  9
$COORDS
 70
     1
  9
$SPLFRAME
 70
     0
  9
$SPLINETYPE
 70
     6
  9
$SPLINESEGS
 70
     8
  9
$ATTDIA
 70
     0
  9
$ATTREQ
 70
     1
  9
$HANDLING
 70
     1
  9
$HANDSEED
  5
24CAE
  9
$SURFTAB1
 70
     6
  9
$SURFTAB2
 70
     6
  9
$SURFTYPE
 70
     6
  9
$SURFU
 70
     6
  9
$SURFV
 70
     6
  9
$UCSNAME
  2

  9
$UCSORG
 10
0.0
 20
0.0
 30
0.0
  9
$UCSXDIR
 10
1.0
 20
0.0
 30
0.0
  9
$UCSYDIR
 10
0.0
 20
1.0
 30
0.0
  9
$PUCSNAME
  2

  9
$PUCSORG
 10
0.0
 20
0.0
 30
0.0
  9
$PUCSXDIR
 10
1.0
 20
0.0
 30
0.0
  9
$PUCSYDIR
 10
0.0
 20
1.0
 30
0.0
  9
$USERI1
 70
     0
  9
$USERI2
 70
     0
  9
$USERI3
 70
     0
  9
$USERI4
 70
     0
  9
$USERI5
 70
     0
  9
$USERR1
 40
0.0
  9
$USERR2
 40
0.0
  9
$USERR3
 40
0.0
  9
$USERR4
 40
0.0
  9
$USERR5
 40
0.0
  9
$WORLDVIEW
 70
     1
  9
$SHADEDGE
 70
     3
  9
$SHADEDIF
 70
    70
  9
$TILEMODE
 70
     1
  9
$MAXACTVP
 70
    48
  9
$PLIMCHECK
 70
     0
  9
$PEXTMIN
 10
1.000000000000000E+20
 20
1.000000000000000E+20
 30
1.000000000000000E+20
  9
$PEXTMAX
 10
-1.000000000000000E+20
 20
-1.000000000000000E+20
 30
-1.000000000000000E+20
  9
$PLIMMIN
 10
0.0
 20
0.0
  9
$PLIMMAX
 10
420.0
 20
297.0
  9
$UNITMODE
 70
     0
  9
$VISRETAIN
 70
     1
  9
$PLINEGEN
 70
     0
  9
$PSLTSCALE
 70
     1
  0
ENDSEC
  0
SECTION
  2
TABLES
  0
TABLE
  2
VPORT
 70
     1
  0
VPORT
  2
*ACTIVE
 70
     0
 10
0.0
 20
0.0
 11
1.0
 21
1.0
 12
3442.468561827956
 22
-660.0825762783462
 13
0.0
 23
0.0
 14
10.0
 24
10.0
 15
10.0
 25
10.0
 16
0.0
 26
0.0
 36
1.0
 17
0.0
 27
0.0
 37
0.0
 40
249.0489819076619
 41
2.144495412844037
 42
50.0
 43
0.0
 44
0.0
 50
0.0
 51
0.0
 71
    16
 72
   100
 73
     1
 74
     1
 75
     0
 76
     0
 77
     0
 78
     0
  0
ENDTAB
  0
TABLE
  2
LTYPE
 70
    18
  0
LTYPE
  2
CONTINUOUS
 70
     0
  3
Solid line
 72
    65
 73
     0
 40
0.0
  0
LTYPE
  2
CENTER2
 70
     0
  3
Center (.5x) ___ _ ___ _ ___ _ ___ _ ___ _ ___
 72
    65
 73
     4
 40
28.575
 49
19.05
 49
-3.175
 49
3.175
 49
-3.175
  0
LTYPE
  2
PHANTOM2
 70
     0
  3
Phantom (.5x) ___ _ _ ___ _ _ ___ _ _ ___ _ _
 72
    65
 73
     6
 40
31.75
 49
15.875
 49
-3.175
 49
3.175
 49
-3.175
 49
3.175
 49
-3.175
  0
ENDTAB
  0
TABLE
  2
LAYER
 70
    40
  0
LAYER
  2
0
 70
     0
 62
     7
  6
CONTINUOUS
  0
LAYER
  2
1CENTER
 70
     0
 62
     7
  6
CENTER2
  0
LAYER
  2
1TEXT
 70
     0
 62
     7
  6
CONTINUOUS
  0
LAYER
  2
1DIM
 70
     0
 62
     7
  6
CONTINUOUS
  0
LAYER
  2
1PHANTOM
 70
     0
 62
     7
  6
PHANTOM2
  0
LAYER
  2
01
 70
     0
 62
     1
  6
CONTINUOUS
  0
ENDTAB
  0
TABLE
  2
STYLE
 70
    26
  0
STYLE
  2
STANDARD
 70
     0
 40
0.0
 41
1.0
 50
0.0
 71
     0
 42
4.0
  3
txt.shx
  4
extfont.shx
  0
STYLE
  2
STANDARD06
 70
     0
 40
0.0
 41
0.6
 50
0.0
 71
     0
 42
4.0
  3
romans.shx
  4
extfont2.shx
  0
ENDTAB
  0
TABLE
  2
VIEW
 70
     0
  0
ENDTAB
  0
TABLE
  2
UCS
 70
     0
  0
ENDTAB
  0
TABLE
  2
APPID
 70
    28
  0
APPID
  2
ACAD
 70
     0
  0
APPID
  2
DRAWINGVARIABLESXDATA
 70
     0
  0
APPID
  2
CONTENTTABDATA
 70
     0
  0
APPID
  2
CONTENTCURRENTTAB
 70
     0
  0
APPID
  2
CONTENTBLOCKDESCRIPTION
 70
     0
  0
APPID
  2
CONTENTBLOCKICON
 70
     0
  0
APPID
  2
CONTENTLONGBLOCKNAME
 70
     0
  0
APPID
  2
ACAD_PSEXT
 70
     0
  0
APPID
  2
ACAD_DSTYLE_DIMTEXT_FILL
 70
     0
  0
APPID
  2
ACAD_MLEADERVER
 70
     0
  0
APPID
  2
ACAD_DSTYLE_DIMRADIAL_EXTE
 70
     0
  0
APPID
  2
ACADANNOTATIVE
 70
     0
  0
APPID
  2
ACAD_EXEMPT_FROM_CAD_STAND
 70
     0
  0
APPID
  2
ACDBBLOCKREPETAG
 70
     0
  0
APPID
  2
ACAD_OBJECT_CHANGE_GUID
 70
     0
  0
APPID
  2
ACLAYERTOOLS
 70
     0
  0
APPID
  2
ACAD_NAV_VCDISPLAY
 70
     0
  0
APPID
  2
ACADSTRINGINFO
 70
     0
  0
APPID
  2
GRADIENTCOLOR1ACI
 70
     0
  0
APPID
  2
GRADIENTCOLOR2ACI
 70
     0
  0
APPID
  2
ACADANNOMONITORALERTICONDI
 70
     0
  0
APPID
  2
ACAD_DSTYLE_DIMJOGGED_JOGA
 70
     0
  0
APPID
  2
ACAD_DSTYLE_DIM_LINETYPE
 70
     0
  0
APPID
  2
ACAD_DSTYLE_DIM_EXT1_LINET
 70
     0
  0
APPID
  2
ACAD_DSTYLE_DIM_EXT2_LINET
 70
     0
  0
APPID
  2
AECBASE
 70
     0
  0
APPID
  2
AEC_2DSECTION_XDATA
 70
     0
  0
APPID
  2
AEC_MASSGROUP_XDADA
 70
     0
  0
ENDTAB
  0
TABLE
  2
DIMSTYLE
 70
     3
  0
DIMSTYLE
  2
NEWX10
 70
     0
  3
 
  4

  5

  6
OPEN30
  7
OPEN30
 40
1.0
 41
2.0
 42
0.0
 43
7.0
 44
1.0
 45
0.0
 46
0.0
 47
0.0
 48
0.0
140
3.5
141
0.0
142
0.0
143
25.4
144
1.0
145
0.0
146
0.7
147
0.7
 71
     0
 72
     0
 73
     0
 74
     0
 75
     0
 76
     0
 77
     1
 78
     8
170
     0
171
     2
172
     1
173
     1
174
     0
175
     0
176
   256
177
   256
178
   201
  0
DIMSTYLE
  2
ISO-25
 70
     0
  3

  4

  5

  6

  7

 40
1.0
 41
20.0
 42
3.0
 43
3.75
 44
2.0
 45
0.0
 46
0.0
 47
0.0
 48
0.0
140
30.0
141
5.0
142
0.0
143
0.03937
144
1.0
145
0.0
146
1.0
147
8.0
 71
     0
 72
     0
 73
     0
 74
     0
 75
     0
 76
     0
 77
     1
 78
     8
170
     0
171
     3
172
     1
173
     0
174
     0
175
     0
176
     1
177
     1
178
     1
  0
ENDTAB
  0
ENDSEC
  0
SECTION
  2
BLOCKS
  0
BLOCK
  8
0
  2
$MODEL_SPACE
 70
     0
 10
0.0
 20
0.0
 30
0.0
  3
$MODEL_SPACE
  1

  0
ENDBLK
  5
1A
  8
0
  0
BLOCK
 67
     1
  8
0
  2
$PAPER_SPACE
 70
     0
 10
0.0
 20
0.0
 30
0.0
  3
$PAPER_SPACE
  1

  0
ENDBLK
  5
17
 67
     1
  8
0
  0
BLOCK
  8
0
  2
_OPEN30
 70
     0
 10
0.0
 20
0.0
 30
0.0
  3
_OPEN30
  1

  0
LINE
  5
44
  8
0
  6
BYBLOCK
 62
     0
 10
-1.0
 20
0.26794919
 30
0.0
 11
0.0
 21
0.0
 31
0.0
  0
LINE
  5
45
  8
0
  6
BYBLOCK
 62
     0
 10
0.0
 20
0.0
 30
0.0
 11
-1.0
 21
-0.26794919
 31
0.0
  0
LINE
  5
46
  8
0
  6
BYBLOCK
 62
     0
 10
0.0
 20
0.0
 30
0.0
 11
-1.0
 21
0.0
 31
0.0
  0
ENDBLK
  5
47
  8
0
  0
BLOCK
  8
0
  2
A3WAKUKAWAJUN2017_HYOUDAI_
 70
     0
 10
0.0
 20
0.0
 30
0.0
  3
A3WAKUKAWAJUN2017_HYOUDAI_
  1

  0
LINE
  5
1FC48
  8
0
 10
13.26299999998673
 20
-0.0001000000000317
 30
0.0
 11
9.236999999990758
 21
8.999899999990987
 31
0.0
1001
ACAD
1000
ASC_BOUNDS
1002
{
1070
    19
1005
1FC89
1002
}
  0
LINE
  5
1FC49
  8
0
 10
5.657999999994331
 20
0.9999999999989768
 30
0.0
 11
9.236999999990758
 21
8.999999999991019
 31
0.0
1001
ACAD
1000
ASC_BOUNDS
1002
{
1070
    19
1005
1FC89
1002
}
  0
LINE
  5
1FC4A
  8
0
 10
18.59199999998134
 20
-0.2368999999997641
 30
0.0
 11
16.46099999998353
 21
5.432899999994561
 31
0.0
1001
ACAD
1000
ASC_BOUNDS
1002
{
1070
    19
1005
1FC8A
1002
}
  0
LINE
  5
1FC4B
  8
0
 10
18.59199999998134
 20
-0.2368999999997641
 30
0.0
 11
22.38199999997767
 21
8.763099999991255
 31
0.0
1001
ACAD
1000
ASC_BOUNDS
1002
{
1070
    19
1005
1FC8A
1002
}
  0
LINE
  5
1FC4C
  8
0
 10
14.32899999998563
 20
-0.2368999999997641
 30
0.0
 11
16.46099999998353
 21
5.432899999994561
 31
0.0
1001
ACAD
1000
ASC_BOUNDS
1002
{
1070
    19
1005
1FC8A
1002
}
  0
LINE
  5
1FC4D
  8
0
 10
14.32899999998563
 20
-0.2368999999997641
 30
0.0
 11
10.53899999998941
 21
8.763099999991255
 31
0.0
1001
ACAD
1000
ASC_BOUNDS
1002
{
1070
    19
1005
1FC8A
1002
}
  0
LINE
  5
1FC4E
  8
0
 10
19.53899999998043
 20
-0.0001000000000317
 30
0.0
 11
23.56599999997638
 21
8.999899999990987
 31
0.0
1001
ACAD
1000
ASC_BOUNDS
1002
{
1070
    19
1005
1FC8B
1002
}
  0
LINE
  5
1FC4F
  8
0
 10
26.97358892824991
 20
1.383099999991202
 30
0.0
 11
23.56599999997638
 21
8.999899999990987
 31
0.0
1001
ACAD
1000
ASC_BOUNDS
1002
{
1070
    19
1005
1FC8B
1002
}
  0
LINE
  5
1FC50
  8
0
 10
5.657999999994331
 20
0.9999999999989768
 30
0.0
 11
3.181999999996833
 21
4.668599999995308
 31
0.0
1001
ACAD
1000
ASC_BOUNDS
1002
{
1070
    19
1005
1FC89
1002
}
  0
LINE
  5
1FC51
  8
0
 10
4.617999999995391
 20
-0.0001000000000317
 30
0.0
 11
1.420999999998571
 21
4.736799999995242
 31
0.0
1001
ACAD
1000
ASC_BOUNDS
1002
{
1070
    19
1005
1FC89
1002
}
  0
LINE
  5
1FC52
  8
0
 10
1.420999999998571
 20
8.763099999991255
 30
0.0
 11
1.420999999998571
 21
0.0
 31
0.0
1001
ACAD
1000
ASC_BOUNDS
1002
{
1070
    19
1005
1FC8E
1002
}
  0
LINE
  5
1FC53
  8
0
 10
0.0
 20
8.763099999991255
 30
0.0
 11
0.0
 21
0.0
 31
0.0
1001
ACAD
1000
ASC_BOUNDS
1002
{
1070
    19
1005
1FC8E
1002
}
  0
LINE
  5
1FC54
  8
0
 10
6.766999999993232
 20
-0.0001000000000317
 30
0.0
 11
7.826999999992154
 21
2.368399999997621
 31
0.0
1001
ACAD
1000
ASC_BOUNDS
1002
{
1070
    19
1005
1FC89
1002
}
  0
LINE
  5
1FC55
  8
0
 10
0.0
 20
0.0
 30
0.0
 11
1.420999999998571
 21
0.0
 31
0.0
1001
ACAD
1000
ASC_BOUNDS
1002
{
1070
    19
1005
1FC8E
1002
}
  0
LINE
  5
1FC56
  8
0
 10
4.617999999995391
 20
0.0
 30
0.0
 11
6.766999999993232
 21
0.0
 31
0.0
1001
ACAD
1000
ASC_BOUNDS
1002
{
1070
    19
1005
1FC89
1002
}
  0
LINE
  5
1FC57
  8
0
 10
11.70599999998831
 20
-0.0001000000000317
 30
0.0
 11
10.64699999998936
 21
2.368399999997621
 31
0.0
1001
ACAD
1000
ASC_BOUNDS
1002
{
1070
    19
1005
1FC89
1002
}
  0
LINE
  5
1FC58
  8
0
 10
7.826999999992154
 20
2.368399999997621
 30
0.0
 11
10.64699999998936
 21
2.368399999997621
 31
0.0
1001
ACAD
1000
ASC_BOUNDS
1002
{
1070
    19
1005
1FC89
1002
}
  0
LINE
  5
1FC59
  8
0
 10
11.70599999998831
 20
0.0
 30
0.0
 11
13.26299999998673
 21
0.0
 31
0.0
1001
ACAD
1000
ASC_BOUNDS
1002
{
1070
    19
1005
1FC89
1002
}
  0
LINE
  5
1FC5A
  8
0
 10
22.15599999997789
 20
2.368399999997621
 30
0.0
 11
24.97599999997499
 21
2.368399999997621
 31
0.0
1001
ACAD
1000
ASC_BOUNDS
1002
{
1070
    19
1005
1FC8B
1002
}
  0
LINE
  5
1FC5B
  8
0
 10
19.53899999998043
 20
0.0
 30
0.0
 11
21.09599999997886
 21
0.0
 31
0.0
1001
ACAD
1000
ASC_BOUNDS
1002
{
1070
    19
1005
1FC8B
1002
}
  0
LINE
  5
1FC5C
  8
0
 10
21.09599999997886
 20
-0.0001000000000317
 30
0.0
 11
22.15599999997789
 21
2.368399999997621
 31
0.0
1001
ACAD
1000
ASC_BOUNDS
1002
{
1070
    19
1005
1FC8B
1002
}
  0
LINE
  5
1FC5D
  8
0
 10
26.02015566812236
 20
0.0330999999912365
 30
0.0
 11
24.97599999997499
 21
2.368399999997621
 31
0.0
1001
ACAD
1000
ASC_BOUNDS
1002
{
1070
    19
1005
1FC8B
1002
}
  0
LINE
  5
1FC5E
  8
0
 10
14.32399999998563
 20
3.315799999996671
 30
0.0
 11
16.46099999998353
 21
8.999899999990987
 31
0.0
1001
ACAD
1000
ASC_BOUNDS
1002
{
1070
    19
1005
1FC8A
1002
}
  0
LINE
  5
1FC5F
  8
0
 10
6.432999999993513
 20
8.763099999991255
 30
0.0
 11
3.181999999996833
 21
4.668599999995308
 31
0.0
1001
ACAD
1000
ASC_BOUNDS
1002
{
1070
    19
1005
1FC89
1002
}
  0
LINE
  5
1FC60
  8
0
 10
4.617999999995391
 20
8.763099999991255
 30
0.0
 11
1.420999999998571
 21
4.736799999995242
 31
0.0
1001
ACAD
1000
ASC_BOUNDS
1002
{
1070
    19
1005
1FC89
1002
}
  0
LINE
  5
1FC61
  8
0
 10
0.0
 20
8.763099999991255
 30
0.0
 11
1.420999999998571
 21
8.763099999991255
 31
0.0
1001
ACAD
1000
ASC_BOUNDS
1002
{
1070
    19
1005
1FC8E
1002
}
  0
LINE
  5
1FC62
  8
0
 10
4.617999999995391
 20
8.763099999991255
 30
0.0
 11
6.432999999993513
 21
8.763099999991255
 31
0.0
1001
ACAD
1000
ASC_BOUNDS
1002
{
1070
    19
1005
1FC89
1002
}
  0
LINE
  5
1FC63
  8
0
 10
14.32399999998563
 20
3.315799999996671
 30
0.0
 11
12.02999999998792
 21
8.763099999991255
 31
0.0
1001
ACAD
1000
ASC_BOUNDS
1002
{
1070
    19
1005
1FC8A
1002
}
  0
LINE
  5
1FC64
  8
0
 10
10.06399999998996
 20
3.670999999996297
 30
0.0
 11
9.236999999990758
 21
5.5200999999945
 31
0.0
1001
ACAD
1000
ASC_BOUNDS
1002
{
1070
    19
1005
1FC89
1002
}
  0
LINE
  5
1FC65
  8
0
 10
8.409999999991555
 20
3.670999999996297
 30
0.0
 11
9.236999999990758
 21
5.5200999999945
 31
0.0
1001
ACAD
1000
ASC_BOUNDS
1002
{
1070
    19
1005
1FC89
1002
}
  0
LINE
  5
1FC66
  8
0
 10
8.409999999991555
 20
3.670999999996297
 30
0.0
 11
10.06399999998996
 21
3.670999999996297
 31
0.0
1001
ACAD
1000
ASC_BOUNDS
1002
{
1070
    19
1005
1FC89
1002
}
  0
LINE
  5
1FC67
  8
0
 10
10.53899999998941
 20
8.763099999991255
 30
0.0
 11
12.02999999998792
 21
8.763099999991255
 31
0.0
1001
ACAD
1000
ASC_BOUNDS
1002
{
1070
    19
1005
1FC8A
1002
}
  0
LINE
  5
1FC68
  8
0
 10
22.7389999999773
 20
3.670999999996297
 30
0.0
 11
23.56599999997638
 21
5.5200999999945
 31
0.0
1001
ACAD
1000
ASC_BOUNDS
1002
{
1070
    19
1005
1FC8B
1002
}
  0
LINE
  5
1FC69
  8
0
 10
22.7389999999773
 20
3.670999999996297
 30
0.0
 11
24.39299999997559
 21
3.670999999996297
 31
0.0
1001
ACAD
1000
ASC_BOUNDS
1002
{
1070
    19
1005
1FC8B
1002
}
  0
LINE
  5
1FC6A
  8
0
 10
18.59799999998143
 20
3.315799999996671
 30
0.0
 11
20.89099999997916
 21
8.763099999991255
 31
0.0
1001
ACAD
1000
ASC_BOUNDS
1002
{
1070
    19
1005
1FC8A
1002
}
  0
LINE
  5
1FC6B
  8
0
 10
18.59799999998143
 20
3.315799999996671
 30
0.0
 11
16.46099999998353
 21
8.999899999990987
 31
0.0
1001
ACAD
1000
ASC_BOUNDS
1002
{
1070
    19
1005
1FC8A
1002
}
  0
LINE
  5
1FC6C
  8
0
 10
20.89099999997916
 20
8.763099999991255
 30
0.0
 11
22.38199999997767
 21
8.763099999991255
 31
0.0
1001
ACAD
1000
ASC_BOUNDS
1002
{
1070
    19
1005
1FC8A
1002
}
  0
LINE
  5
1FC6D
  8
0
 10
24.39299999997559
 20
3.670999999996297
 30
0.0
 11
23.56599999997638
 21
5.5200999999945
 31
0.0
1001
ACAD
1000
ASC_BOUNDS
1002
{
1070
    19
1005
1FC8B
1002
}
  0
LINE
  5
1FC6E
  8
0
 10
44.99999999995498
 20
-0.2368999999997641
 30
0.0
 11
40.02599999995994
 21
5.341799999994635
 31
0.0
1001
ACAD
1000
ASC_BOUNDS
1002
{
1070
    19
1005
1FC8D
1002
}
  0
LINE
  5
1FC6F
  8
0
 10
40.02599999995994
 20
5.341799999994635
 30
0.0
 11
40.02599999995994
 21
0.0
 31
0.0
1001
ACAD
1000
ASC_BOUNDS
1002
{
1070
    19
1005
1FC8D
1002
}
  0
LINE
  5
1FC70
  8
0
 10
38.60499999996136
 20
8.999999999991019
 30
0.0
 11
38.60499999996136
 21
0.0
 31
0.0
1001
ACAD
1000
ASC_BOUNDS
1002
{
1070
    19
1005
1FC8D
1002
}
  0
LINE
  5
1FC71
  8
0
 10
44.99999999995498
 20
8.763099999991255
 30
0.0
 11
44.99999999995498
 21
-0.2368999999997641
 31
0.0
1001
ACAD
1000
ASC_BOUNDS
1002
{
1070
    19
1005
1FC8D
1002
}
  0
LINE
  5
1FC72
  8
0
 10
38.60499999996136
 20
0.0
 30
0.0
 11
40.02599999995994
 21
0.0
 31
0.0
1001
ACAD
1000
ASC_BOUNDS
1002
{
1070
    19
1005
1FC8D
1002
}
  0
LINE
  5
1FC73
  8
0
 10
43.57899999995641
 20
3.421199999996588
 30
0.0
 11
38.60499999996136
 21
8.999899999990987
 31
0.0
1001
ACAD
1000
ASC_BOUNDS
1002
{
1070
    19
1005
1FC8D
1002
}
  0
LINE
  5
1FC74
  8
0
 10
43.57899999995641
 20
8.763099999991255
 30
0.0
 11
43.57899999995641
 21
3.421199999996588
 31
0.0
1001
ACAD
1000
ASC_BOUNDS
1002
{
1070
    19
1005
1FC8D
1002
}
  0
LINE
  5
1FC75
  8
0
 10
43.57899999995641
 20
8.763099999991255
 30
0.0
 11
44.99999999995498
 21
8.763099999991255
 31
0.0
1001
ACAD
1000
ASC_BOUNDS
1002
{
1070
    19
1005
1FC8D
1002
}
  0
LINE
  5
1FC76
  8
0
 10
37.67199999996831
 20
8.763099999991255
 30
0.0
 11
36.23199999996837
 21
8.763099999991255
 31
0.0
  0
LINE
  5
1FC77
  8
0
 10
31.64199999996833
 20
8.763099999991255
 30
0.0
 11
31.64199999996833
 21
2.481619422925121
 31
0.0
  0
LINE
  5
1FC78
  8
0
 10
37.67199999996831
 20
8.763099999991255
 30
0.0
 11
37.67199999996831
 21
2.481619422925121
 31
0.0
  0
LINE
  5
1FC79
  8
0
 10
36.23199999996837
 20
8.763099999991255
 30
0.0
 11
36.23199999996837
 21
2.481619422925064
 31
0.0
  0
LINE
  5
1FC7A
  8
0
 10
33.08199999996839
 20
8.763099999991255
 30
0.0
 11
33.08199999996839
 21
2.481619422925121
 31
0.0
  0
ARC
  5
1FC7B
  8
0
 10
34.65699999996832
 20
3.183099999991214
 30
0.0
 40
3.420000000000007
 50
240.0000000000255
 51
299.9999999999766
  0
ARC
  5
1FC7C
  8
0
 10
34.65699999996832
 20
3.183099999991214
 30
0.0
 40
1.97999999999999
 50
240.000000000026
 51
299.9999999999703
  0
LINE
  5
1FC7D
  8
0
 10
33.08199999996828
 20
8.763099999991255
 30
0.0
 11
31.64199999996833
 21
8.763099999991255
 31
0.0
  0
ARC
  5
1FC7E
  8
0
 10
35.06199999996829
 20
2.481619422925064
 30
0.0
 40
1.17
 50
299.9999999999699
 51
0.0
  0
ARC
  5
1FC7F
  8
0
 10
34.25199999996835
 20
2.481619422925121
 30
0.0
 40
1.17
 50
180.0
 51
240.0000000000238
  0
ARC
  5
1FC80
  8
0
 10
35.06199999996841
 20
2.481619422925121
 30
0.0
 40
2.61
 50
299.9999999999756
 51
0.0
  0
ARC
  5
1FC81
  8
0
 10
34.25199999996835
 20
2.481619422925121
 30
0.0
 40
2.61
 50
180.0
 51
240.0000000000244
  0
LINE
  5
1FC82
  8
0
 10
29.30199999996933
 20
8.763099999991255
 30
0.0
 11
30.74199999996927
 21
8.763099999991255
 31
0.0
1001
ACAD
1000
ASC_BOUNDS
1002
{
1070
    19
1005
1FC8B
1002
}
  0
LINE
  5
1FC83
  8
0
 10
30.74199999996927
 20
8.763099999991255
 30
0.0
 11
30.74199999996927
 21
2.373099999991211
 31
0.0
1001
ACAD
1000
ASC_BOUNDS
1002
{
1070
    19
1005
1FC8B
1002
}
  0
LINE
  5
1FC84
  8
0
 10
26.02015566812236
 20
0.0330999999912365
 30
0.0
 11
28.40199999996923
 21
0.0330999999912365
 31
0.0
1001
ACAD
1000
ASC_BOUNDS
1002
{
1070
    19
1005
1FC8B
1002
}
  0
LINE
  5
1FC85
  8
0
 10
29.30199999996933
 20
8.763099999991255
 30
0.0
 11
29.30199999996933
 21
2.283099999991236
 31
0.0
1001
ACAD
1000
ASC_BOUNDS
1002
{
1070
    19
1005
1FC8B
1002
}
  0
LINE
  5
1FC86
  8
0
 10
26.97358892824991
 20
1.383099999991202
 30
0.0
 11
28.40199999996923
 21
1.383099999991202
 31
0.0
1001
ACAD
1000
ASC_BOUNDS
1002
{
1070
    19
1005
1FC8B
1002
}
  0
ARC
  5
1FC87
  8
0
 10
28.40199999996923
 20
2.283099999991236
 30
0.0
 40
0.9
 50
270.0
 51
0.0
1001
ACAD
1000
ASC_BOUNDS
1002
{
1070
    19
1005
1FC8B
1002
}
  0
ARC
  5
1FC88
  8
0
 10
28.40199999996923
 20
2.373099999991211
 30
0.0
 40
2.34
 50
270.0
 51
0.0
1001
ACAD
1000
ASC_BOUNDS
1002
{
1070
    19
1005
1FC8B
1002
}
  0
INSERT
  5
1FC89
  8
0
  2
*X159
 10
0.0
 20
0.0
 30
0.0
1001
ACAD
1000
HATCH
1002
{
1070
    19
1000
ANSI37
1040
0.15
1040
0.0
1000
ASC_BOUNDS
1070
     2
1070
     2
1070
    12
1005
1FC48
1005
1FC49
1005
1FC50
1005
1FC5F
1005
1FC62
1005
1FC60
1005
1FC51
1005
1FC56
1005
1FC54
1005
1FC58
1005
1FC57
1005
1FC59
1070
     2
1070
     3
1005
1FC64
1005
1FC66
1005
1FC65
1000
ASC_SEEDPOINT
1011
3.614004224891801
1021
2.996669441146025
1031
0.0
1021
2.996669441146025
1031
0.0
1000
R14_HATCH_DATA
1000
1FC89
1011
1.0
1021
0.0
1031
0.0
1021
0.0
1031
0.0
1011
0.0
1021
1.0
1031
0.0
1021
1.0
1031
0.0
1011
0.0
1021
0.0
1031
1.0
1021
0.0
1031
1.0
1040
0.0
1010
0.0
1020
0.0
1030
1.0
1000
ANSI37
1070
     0
1070
     1
1071
        2
1071
        7
1070
     0
1070
     1
1071
       17
1040
13.26299999998673
1040
-0.0001000000000317
1040
9.236999999990758
1040
8.999899999990987
1040
9.236999999990758
1040
8.999999999991019
1040
5.657999999994331
1040
0.9999999999989768
1040
3.181999999996833
1040
4.668599999995308
1040
6.432999999993513
1040
8.763099999991255
1040
4.617999999995391
1040
8.763099999991255
1040
1.420999999998571
1040
4.736799999995242
1040
4.617999999995391
1040
-0.0001000000000317
1040
4.617999999995391
1040
0.0
1040
6.766999999993232
1040
0.0
1040
6.766999999993232
1040
-0.0001000000000317
1040
7.826999999992154
1040
2.368399999997621
1040
10.64699999998936
1040
2.368399999997621
1040
11.70599999998831
1040
-0.0001000000000317
1040
11.70599999998831
1040
0.0
1040
13.26299999998673
1040
0.0
1071
       12
1005
1FC48
1005
1FC49
1005
1FC50
1005
1FC5F
1005
1FC62
1005
1FC60
1005
1FC51
1005
1FC56
1005
1FC54
1005
1FC58
1005
1FC57
1005
1FC59
1071
       22
1070
     0
1070
     1
1071
        3
1040
9.236999999990758
1040
5.5200999999945
1040
10.06399999998996
1040
3.670999999996297
1040
8.409999999991555
1040
3.670999999996297
1071
        3
1005
1FC64
1005
1FC66
1005
1FC65
1070
     0
1070
     1
1040
0.0
1040
0.15
1070
     0
1070
     2
1040
0.7853981633974483
1040
49.29960901727088
1040
-10.17736998311392
1040
-0.3367596045400932
1040
0.3367596045400932
1070
     0
1040
2.356194490192345
1040
49.29960901727088
1040
-10.17736998311392
1040
-0.3367596045400932
1040
-0.3367596045400932
1070
     0
1040
0.0110235143455945
1071
        2
1040
3.614004224891801
1040
2.996669441146025
1040
0.0
1040
3.614004224891801
1040
2.996669441146025
1040
0.0
1002
}
  0
INSERT
  5
1FC8A
  8
0
  2
*X160
 10
0.0
 20
0.0
 30
0.0
1001
ACAD
1000
HATCH
1002
{
1070
    19
1000
ANSI37
1040
0.15
1040
0.0
1000
ASC_BOUNDS
1070
     1
1070
     2
1070
    10
1005
1FC4A
1005
1FC4B
1005
1FC6C
1005
1FC6A
1005
1FC6B
1005
1FC5E
1005
1FC63
1005
1FC67
1005
1FC4D
1005
1FC4C
1000
ASC_SEEDPOINT
1011
14.73245321214324
1021
2.798246178283421
1031
0.0
1021
2.798246178283421
1031
0.0
1000
R14_HATCH_DATA
1000
1FC8A
1011
1.0
1021
0.0
1031
0.0
1021
0.0
1031
0.0
1011
0.0
1021
1.0
1031
0.0
1021
1.0
1031
0.0
1011
0.0
1021
0.0
1031
1.0
1021
0.0
1031
1.0
1040
0.0
1010
0.0
1020
0.0
1030
1.0
1000
ANSI37
1070
     0
1070
     1
1071
        1
1071
        7
1070
     0
1070
     1
1071
       10
1040
16.46099999998353
1040
5.432899999994561
1040
18.59199999998134
1040
-0.2368999999997641
1040
22.38199999997767
1040
8.763099999991255
1040
20.89099999997916
1040
8.763099999991255
1040
18.59799999998143
1040
3.315799999996671
1040
16.46099999998353
1040
8.999899999990987
1040
14.32399999998563
1040
3.315799999996671
1040
12.02999999998792
1040
8.763099999991255
1040
10.53899999998941
1040
8.763099999991255
1040
14.32899999998563
1040
-0.2368999999997641
1071
       10
1005
1FC4A
1005
1FC4B
1005
1FC6C
1005
1FC6A
1005
1FC6B
1005
1FC5E
1005
1FC63
1005
1FC67
1005
1FC4D
1005
1FC4C
1070
     0
1070
     1
1040
0.0
1040
0.15
1070
     0
1070
     2
1040
0.7853981633974483
1040
49.29960901727088
1040
-10.17736998311392
1040
-0.3367596045400932
1040
0.3367596045400932
1070
     0
1040
2.356194490192345
1040
49.29960901727088
1040
-10.17736998311392
1040
-0.3367596045400932
1040
-0.3367596045400932
1070
     0
1040
0.0110235143455945
1071
        1
1040
14.73245321214324
1040
2.798246178283421
1040
0.0
1002
}
  0
INSERT
  5
1FC8B
  8
0
  2
*X161
 10
0.0
 20
0.0
 30
0.0
1001
ACAD
1000
HATCH
1002
{
1070
    19
1000
ANSI37
1040
0.15
1040
0.0
1000
ASC_BOUNDS
1070
     2
1070
     2
1070
    13
1005
1FC4E
1005
1FC5B
1005
1FC5C
1005
1FC5A
1005
1FC5D
1005
1FC84
1005
1FC88
1005
1FC83
1005
1FC82
1005
1FC85
1005
1FC87
1005
1FC86
1005
1FC4F
1070
     2
1070
     3
1005
1FC68
1005
1FC6D
1005
1FC69
1000
ASC_SEEDPOINT
1011
21.97929957367762
1021
3.294304244259308
1031
0.0
1021
3.294304244259308
1031
0.0
1000
R14_HATCH_DATA
1000
1FC8B
1011
1.0
1021
0.0
1031
0.0
1021
0.0
1031
0.0
1011
0.0
1021
1.0
1031
0.0
1021
1.0
1031
0.0
1011
0.0
1021
0.0
1031
1.0
1021
0.0
1031
1.0
1040
0.0
1010
0.0
1020
0.0
1030
1.0
1000
ANSI37
1070
     0
1070
     1
1071
        2
1071
        7
1070
     1
1070
     1
1071
       15
1040
23.56599999997638
1040
8.999899999990987
1040
0.0
1040
19.53899999998043
1040
-0.0001000000000317
1040
0.0
1040
19.53899999998043
1040
0.0
1040
0.0
1040
21.09599999997886
1040
0.0
1040
0.0
1040
21.09599999997886
1040
-0.0001000000000317
1040
0.0
1040
22.15599999997789
1040
2.368399999997621
1040
0.0
1040
24.97599999997499
1040
2.368399999997621
1040
0.0
1040
26.02015566812236
1040
0.0330999999912365
1040
0.0
1040
28.40199999996923
1040
0.0330999999912365
1040
0.414213562373095
1040
30.74199999996923
1040
2.373099999991211
1040
0.0
1040
30.74199999996927
1040
8.763099999991255
1040
0.0
1040
29.30199999996933
1040
8.763099999991255
1040
0.0
1040
29.30199999996933
1040
2.283099999991236
1040
-0.414213562373095
1040
28.40199999996923
1040
1.383099999991237
1040
0.0
1040
26.97358892824991
1040
1.383099999991202
1040
0.0
1071
       13
1005
1FC4E
1005
1FC5B
1005
1FC5C
1005
1FC5A
1005
1FC5D
1005
1FC84
1005
1FC88
1005
1FC83
1005
1FC82
1005
1FC85
1005
1FC87
1005
1FC86
1005
1FC4F
1071
       22
1070
     0
1070
     1
1071
        3
1040
22.7389999999773
1040
3.670999999996297
1040
23.56599999997638
1040
5.5200999999945
1040
24.39299999997559
1040
3.670999999996297
1071
        3
1005
1FC68
1005
1FC6D
1005
1FC69
1070
     0
1070
     1
1040
0.0
1040
0.15
1070
     0
1070
     2
1040
0.7853981633974483
1040
49.29960901727088
1040
-10.17736998311392
1040
-0.3367596045400932
1040
0.3367596045400932
1070
     0
1040
2.356194490192345
1040
49.29960901727088
1040
-10.17736998311392
1040
-0.3367596045400932
1040
-0.3367596045400932
1070
     0
1040
0.0110235143455945
1071
        2
1040
21.97929957367762
1040
3.294304244259308
1040
0.0
1040
21.97929957367762
1040
3.294304244259308
1040
0.0
1002
}
  0
INSERT
  5
1FC8C
  8
0
  2
*X162
 10
0.0
 20
0.0
 30
0.0
1001
ACAD
1000
HATCH
1002
{
1070
    19
1000
ANSI37
1040
0.15
1040
0.0
1000
R14_HATCH_DATA
1000
1FC8C
1011
1.0
1021
0.0
1031
0.0
1021
0.0
1031
0.0
1011
0.0
1021
1.0
1031
0.0
1021
1.0
1031
0.0
1011
0.0
1021
0.0
1031
1.0
1021
0.0
1031
1.0
1040
0.0
1010
0.0
1020
0.0
1030
1.0
1000
ANSI37
1070
     0
1070
     1
1071
        1
1071
        7
1070
     1
1070
     1
1071
       12
1040
31.64199999996833
1040
2.481619422925121
1040
0.2679491924310942
1040
32.94699999997067
1040
0.2212931190493919
1040
0.2679491924301353
1040
36.36699999995983
1040
0.2212931190459813
1040
0.2679491924321411
1040
37.67199999996831
1040
2.481619422928361
1040
0.0
1040
37.67199999996831
1040
8.763099999991255
1040
0.0
1040
36.23199999996837
1040
8.763099999991255
1040
0.0
1040
36.23199999996837
1040
2.481619422925064
1040
-0.2679491924310291
1040
35.64699999996708
1040
1.468369700498386
1040
-0.267949192430519
1040
33.66699999997093
1040
1.468369700497703
1040
-0.267949192431809
1040
33.08199999996839
1040
2.481619422926997
1040
0.0
1040
33.08199999996839
1040
8.763099999991255
1040
0.0
1040
31.64199999996833
1040
8.763099999991255
1040
0.0
1071
        0
1070
     0
1070
     1
1040
0.0
1040
0.15
1070
     0
1070
     2
1040
0.7853981633974483
1040
49.29960901727088
1040
-10.17736998311392
1040
-0.3367596045400932
1040
0.3367596045400932
1070
     0
1040
2.356194490192345
1040
49.29960901727088
1040
-10.17736998311392
1040
-0.3367596045400932
1040
-0.3367596045400932
1070
     0
1040
0.0110235143455945
1071
        1
1040
32.30357378967278
1040
3.988785755459219
1040
0.0
1002
}
  0
INSERT
  5
1FC8D
  8
0
  2
*X163
 10
0.0
 20
0.0
 30
0.0
1001
ACAD
1000
HATCH
1002
{
1070
    19
1000
ANSI37
1040
0.15
1040
0.0
1000
ASC_BOUNDS
1070
     1
1070
     2
1070
     8
1005
1FC6E
1005
1FC71
1005
1FC75
1005
1FC74
1005
1FC73
1005
1FC70
1005
1FC72
1005
1FC6F
1000
ASC_SEEDPOINT
1011
39.74896370716704
1021
4.484843821435049
1031
0.0
1021
4.484843821435049
1031
0.0
1000
R14_HATCH_DATA
1000
1FC8D
1011
1.0
1021
0.0
1031
0.0
1021
0.0
1031
0.0
1011
0.0
1021
1.0
1031
0.0
1021
1.0
1031
0.0
1011
0.0
1021
0.0
1031
1.0
1021
0.0
1031
1.0
1040
0.0
1010
0.0
1020
0.0
1030
1.0
1000
ANSI37
1070
     0
1070
     1
1071
        1
1071
        7
1070
     0
1070
     1
1071
        9
1040
40.02599999995994
1040
5.341799999994635
1040
44.99999999995498
1040
-0.2368999999997641
1040
44.99999999995498
1040
8.763099999991255
1040
43.57899999995641
1040
8.763099999991255
1040
43.57899999995641
1040
3.421199999996588
1040
38.60499999996136
1040
8.999899999990987
1040
38.60499999996136
1040
8.999999999991019
1040
38.60499999996136
1040
0.0
1040
40.02599999995994
1040
0.0
1071
        8
1005
1FC6E
1005
1FC71
1005
1FC75
1005
1FC74
1005
1FC73
1005
1FC70
1005
1FC72
1005
1FC6F
1070
     0
1070
     1
1040
0.0
1040
0.15
1070
     0
1070
     2
1040
0.7853981633974483
1040
49.29960901727088
1040
-10.17736998311392
1040
-0.3367596045400932
1040
0.3367596045400932
1070
     0
1040
2.356194490192345
1040
49.29960901727088
1040
-10.17736998311392
1040
-0.3367596045400932
1040
-0.3367596045400932
1070
     0
1040
0.0110235143455945
1071
        1
1040
39.74896370716704
1040
4.484843821435049
1040
0.0
1002
}
  0
INSERT
  5
1FC8E
  8
0
  2
*X164
 10
0.0
 20
0.0
 30
0.0
1001
ACAD
1000
HATCH
1002
{
1070
    19
1000
ANSI37
1040
0.15
1040
0.0
1000
ASC_BOUNDS
1070
     1
1070
     2
1070
     4
1005
1FC52
1005
1FC61
1005
1FC53
1005
1FC55
1000
ASC_SEEDPOINT
1011
1.079051535452663
1021
4.148538732891836
1031
0.0
1021
4.148538732891836
1031
0.0
1000
R14_HATCH_DATA
1000
1FC8E
1011
1.0
1021
0.0
1031
0.0
1021
0.0
1031
0.0
1011
0.0
1021
1.0
1031
0.0
1021
1.0
1031
0.0
1011
0.0
1021
0.0
1031
1.0
1021
0.0
1031
1.0
1040
0.0
1010
0.0
1020
0.0
1030
1.0
1000
ANSI37
1070
     0
1070
     1
1071
        1
1071
        7
1070
     0
1070
     1
1071
        4
1040
1.420999999998571
1040
0.0
1040
1.420999999998571
1040
8.763099999991255
1040
0.0
1040
8.763099999991255
1040
0.0
1040
0.0
1071
        4
1005
1FC52
1005
1FC61
1005
1FC53
1005
1FC55
1070
     0
1070
     1
1040
0.0
1040
0.15
1070
     0
1070
     2
1040
0.7853981633974483
1040
49.29960901727088
1040
-10.17736998311392
1040
-0.3367596045400932
1040
0.3367596045400932
1070
     0
1040
2.356194490192345
1040
49.29960901727088
1040
-10.17736998311392
1040
-0.3367596045400932
1040
-0.3367596045400932
1070
     0
1040
0.0053004257112761
1071
        1
1040
1.079051535452663
1040
4.148538732891836
1040
0.0
1002
}
  0
ENDBLK
  5
20346
  8
0
  0
BLOCK
  8
0
  2
NO3CIRCLE
 70
     2
 10
0.0
 20
0.0
 30
0.0
  3
NO3CIRCLE
  1

  0
CIRCLE
  5
233FE
  8
0
  6
BYBLOCK
 62
     0
 10
0.0
 20
0.0
 30
0.0
 40
4.2
  0
ATTDEF
  5
233FF
  8
1TEXT
 10
-3.428571428571428
 20
-2.0
 30
0.0
 40
4.0
  1
000
 41
0.6
  7
STANDARD06
 72
     4
 11
0.0
 21
0.0
 31
0.0
  3
NO3
  2
NO3
 70
     0
  0
ENDBLK
  5
236F9
  8
0
  0
BLOCK
  8
0
  2
*X159
 70
     1
 10
0.0
 20
0.0
 30
0.0
  3
*X159
  1

  0
LINE
  5
24B15
  8
0
  6
CONTINUOUS
 10
3.418023043697893
 20
7.251849696850613
 30
0.0
 11
4.929273346838536
 21
8.763099999991255
 31
0.0
  0
LINE
  5
24B16
  8
0
  6
CONTINUOUS
 10
1.483656411257782
 20
4.643963855330318
 30
0.0
 11
5.60279255591872
 21
8.763099999991255
 31
0.0
  0
LINE
  5
24B17
  8
0
  6
CONTINUOUS
 10
1.755053947328235
 20
4.241842182320584
 30
0.0
 11
6.276311764998907
 21
8.763099999991255
 31
0.0
  0
LINE
  5
24B18
  8
0
  6
CONTINUOUS
 10
2.026451483398688
 20
3.839720509310849
 30
0.0
 11
4.441040904851878
 21
6.254309930764039
 31
0.0
  0
LINE
  5
24B19
  8
0
  6
CONTINUOUS
 10
2.297849019469139
 20
3.437598836301114
 30
0.0
 11
3.321765168359338
 21
4.461514985191313
 31
0.0
  0
LINE
  5
24B1A
  8
0
  6
CONTINUOUS
 10
2.569246555539591
 20
3.03547716329138
 30
0.0
 11
3.593163397972743
 21
4.059394005724531
 31
0.0
  0
LINE
  5
24B1B
  8
0
  6
CONTINUOUS
 10
2.840644091610043
 20
2.633355490281646
 30
0.0
 11
3.864561627586149
 21
3.657273026257751
 31
0.0
  0
LINE
  5
24B1C
  8
0
  6
CONTINUOUS
 10
3.112041627680496
 20
2.231233817271911
 30
0.0
 11
4.135959857199554
 21
3.25515204679097
 31
0.0
  0
LINE
  5
24B1D
  8
0
  6
CONTINUOUS
 10
3.383439163750948
 20
1.829112144262177
 30
0.0
 11
4.40735808681296
 21
2.853031067324189
 31
0.0
  0
LINE
  5
24B1E
  8
0
  6
CONTINUOUS
 10
3.654836699821399
 20
1.426990471252442
 30
0.0
 11
4.678756316426365
 21
2.450910087857407
 31
0.0
  0
LINE
  5
24B1F
  8
0
  6
CONTINUOUS
 10
3.926234235891853
 20
1.024868798242709
 30
0.0
 11
4.95015454603977
 21
2.048789108390626
 31
0.0
  0
LINE
  5
24B20
  8
0
  6
CONTINUOUS
 10
4.197631771962304
 20
0.6227471252329737
 30
0.0
 11
5.221552775653176
 21
1.646668128923846
 31
0.0
  0
LINE
  5
24B21
  8
0
  6
CONTINUOUS
 10
8.715877546767851
 20
7.835069736359266
 30
0.0
 11
9.435953450375058
 21
8.555145639966472
 31
0.0
  0
LINE
  5
24B22
  8
0
  6
CONTINUOUS
 10
8.170620868422267
 20
6.616293848933497
 30
0.0
 11
9.644120833743461
 21
8.08979381425469
 31
0.0
  0
LINE
  5
24B23
  8
0
  6
CONTINUOUS
 10
7.625364190076684
 20
5.397517961507727
 30
0.0
 11
9.852288217111864
 21
7.624441988542907
 31
0.0
  0
LINE
  5
24B24
  8
0
  6
CONTINUOUS
 10
7.080107511731101
 20
4.178742074081957
 30
0.0
 11
10.06045560048027
 21
7.159090162831124
 31
0.0
  0
LINE
  5
24B25
  8
0
  6
CONTINUOUS
 10
6.534850833385518
 20
2.959966186656187
 30
0.0
 11
10.26862298384867
 21
6.693738337119342
 31
0.0
  0
LINE
  5
24B26
  8
0
  6
CONTINUOUS
 10
4.469029308032756
 20
0.2206254522232385
 30
0.0
 11
5.492951005266582
 21
1.244547149457064
 31
0.0
  0
LINE
  5
24B27
  8
0
  6
CONTINUOUS
 10
5.989594155039935
 20
1.741190299230417
 30
0.0
 11
8.806950407233131
 21
4.558546551423613
 31
0.0
  0
LINE
  5
24B28
  8
0
  6
CONTINUOUS
 10
9.401251593263643
 20
5.152847737454126
 30
0.0
 11
10.47679036721708
 21
6.228386511407559
 31
0.0
  0
LINE
  5
24B29
  8
0
  6
CONTINUOUS
 10
4.921837203428691
 20
-0.0000858614610131
 30
0.0
 11
8.592923064886001
 21
3.670999999996297
 31
0.0
  0
LINE
  5
24B2A
  8
0
  6
CONTINUOUS
 10
9.609390446785305
 20
4.6874673818956
 30
0.0
 11
10.68495775058548
 21
5.763034685695775
 31
0.0
  0
LINE
  5
24B2B
  8
0
  6
CONTINUOUS
 10
5.595387755019432
 20
-0.0000545189504582
 30
0.0
 11
7.716137258923768
 21
2.120694984953879
 31
0.0
  0
LINE
  5
24B2C
  8
0
  6
CONTINUOUS
 10
6.268938306610172
 20
-0.000023176439905
 30
0.0
 11
7.170485805526503
 21
0.9015243224764267
 31
0.0
  0
LINE
  5
24B2D
  8
0
  6
CONTINUOUS
 10
7.963842273967511
 20
2.368399999997621
 30
0.0
 11
9.266442273966188
 21
3.670999999996297
 31
0.0
  0
LINE
  5
24B2E
  8
0
  6
CONTINUOUS
 10
8.637361483047696
 20
2.368399999997621
 30
0.0
 11
9.939961483046375
 21
3.670999999996297
 31
0.0
  0
LINE
  5
24B2F
  8
0
  6
CONTINUOUS
 10
9.817529300306965
 20
4.222087026337075
 30
0.0
 11
10.89312513395388
 21
5.297682859983993
 31
0.0
  0
LINE
  5
24B30
  8
0
  6
CONTINUOUS
 10
10.02566815382863
 20
3.756706670778549
 30
0.0
 11
11.10129251732229
 21
4.832331034272211
 31
0.0
  0
LINE
  5
24B31
  8
0
  6
CONTINUOUS
 10
9.310880692127883
 20
2.368399999997621
 30
0.0
 11
11.30945990069069
 21
4.366979208560428
 31
0.0
  0
LINE
  5
24B32
  8
0
  6
CONTINUOUS
 10
9.98439990120807
 20
2.36839999999762
 30
0.0
 11
11.5176272840591
 21
3.901627382848645
 31
0.0
  0
LINE
  5
24B33
  8
0
  6
CONTINUOUS
 10
10.65037369446246
 20
2.36085458417182
 30
0.0
 11
11.7257946674275
 21
3.436275557136862
 31
0.0
  0
LINE
  5
24B34
  8
0
  6
CONTINUOUS
 10
10.85847197087848
 20
1.895433651507656
 30
0.0
 11
11.9339620507959
 21
2.97092373142508
 31
0.0
  0
LINE
  5
24B35
  8
0
  6
CONTINUOUS
 10
11.0665702472945
 20
1.430012718843491
 30
0.0
 11
12.14212943416431
 21
2.505571905713296
 31
0.0
  0
LINE
  5
24B36
  8
0
  6
CONTINUOUS
 10
11.27466852371052
 20
0.9645917861793256
 30
0.0
 11
12.35029681753271
 21
2.040220080001513
 31
0.0
  0
LINE
  5
24B37
  8
0
  6
CONTINUOUS
 10
11.48276680012654
 20
0.4991708535151611
 30
0.0
 11
12.55846420090111
 21
1.57486825428973
 31
0.0
  0
LINE
  5
24B38
  8
0
  6
CONTINUOUS
 10
11.69086507654257
 20
0.0337499208509957
 30
0.0
 11
12.76663158426952
 21
1.109516428577947
 31
0.0
  0
LINE
  5
24B39
  8
0
  6
CONTINUOUS
 10
12.33057447873954
 20
-0.0000598860322123
 30
0.0
 11
12.97479896763792
 21
0.6441646028661663
 31
0.0
  0
LINE
  5
24B3A
  8
0
  6
CONTINUOUS
 10
13.00413694809395
 20
-0.0000166257579952
 30
0.0
 11
13.18296635100632
 21
0.1788127771543824
 31
0.0
  0
LINE
  5
24B3B
  8
0
  6
CONTINUOUS
 10
4.772852165289667
 20
-0.000092794222212
 30
0.0
 11
4.296495091028902
 21
0.4762642800385528
 31
0.0
  0
LINE
  5
24B3C
  8
0
  6
CONTINUOUS
 10
5.446340034776103
 20
-0.0000614546284616
 30
0.0
 11
2.898195908335625
 21
2.548082671812017
 31
0.0
  0
LINE
  5
24B3D
  8
0
  6
CONTINUOUS
 10
6.119827904262539
 20
-0.0000301150347113
 30
0.0
 11
1.499896725642348
 21
4.61990106358548
 31
0.0
  0
LINE
  5
24B3E
  8
0
  6
CONTINUOUS
 10
6.775136745476159
 20
0.0181802528318542
 30
0.0
 11
5.699826040202669
 21
1.093490958105344
 31
0.0
  0
LINE
  5
24B3F
  8
0
  6
CONTINUOUS
 10
6.983376846288489
 20
0.4834593610997118
 30
0.0
 11
5.908008617934405
 21
1.558827589453796
 31
0.0
  0
LINE
  5
24B40
  8
0
  6
CONTINUOUS
 10
5.377063484962296
 20
1.416253513345719
 30
0.0
 11
1.702276957014131
 21
5.091040041293883
 31
0.0
  0
LINE
  5
24B41
  8
0
  6
CONTINUOUS
 10
3.978745891735324
 20
3.488090315652877
 30
0.0
 11
2.000373521109399
 21
5.466462686278803
 31
0.0
  0
LINE
  5
24B42
  8
0
  6
CONTINUOUS
 10
7.191616947100819
 20
0.948738469367568
 30
0.0
 11
6.11619119566614
 21
2.024164220802247
 31
0.0
  0
LINE
  5
24B43
  8
0
  6
CONTINUOUS
 10
7.399857047913149
 20
1.414017577635424
 30
0.0
 11
6.324373773397875
 21
2.489500852150698
 31
0.0
  0
LINE
  5
24B44
  8
0
  6
CONTINUOUS
 10
7.608097148725479
 20
1.879296685903281
 30
0.0
 11
6.53255635112961
 21
2.95483748349915
 31
0.0
  0
LINE
  5
24B45
  8
0
  6
CONTINUOUS
 10
7.816337249537808
 20
2.344575794171138
 30
0.0
 11
6.740738928861345
 21
3.420174114847601
 31
0.0
  0
LINE
  5
24B46
  8
0
  6
CONTINUOUS
 10
3.310241080789734
 20
4.830114335678653
 30
0.0
 11
2.298470085204666
 21
5.84188533126372
 31
0.0
  0
LINE
  5
24B47
  8
0
  6
CONTINUOUS
 10
3.60832983563551
 20
5.205544789913063
 30
0.0
 11
2.596566649299935
 21
6.217307976248638
 31
0.0
  0
LINE
  5
24B48
  8
0
  6
CONTINUOUS
 10
3.906418590481286
 20
5.580975244147473
 30
0.0
 11
2.894663213395203
 21
6.592730621233557
 31
0.0
  0
LINE
  5
24B49
  8
0
  6
CONTINUOUS
 10
4.204507345327062
 20
5.956405698381884
 30
0.0
 11
3.192759777490472
 21
6.968153266218474
 31
0.0
  0
LINE
  5
24B4A
  8
0
  6
CONTINUOUS
 10
8.466032252791512
 20
2.368399999997621
 30
0.0
 11
6.948921506593081
 21
3.885510746196053
 31
0.0
  0
LINE
  5
24B4B
  8
0
  6
CONTINUOUS
 10
9.139551461871699
 20
2.36839999999762
 30
0.0
 11
7.157104084324816
 21
4.350847377544504
 31
0.0
  0
LINE
  5
24B4C
  8
0
  6
CONTINUOUS
 10
4.502596100172839
 20
6.331836152616295
 30
0.0
 11
3.49085634158574
 21
7.343575911203393
 31
0.0
  0
LINE
  5
24B4D
  8
0
  6
CONTINUOUS
 10
4.800684855018615
 20
6.707266606850705
 30
0.0
 11
3.788952905681008
 21
7.718998556188312
 31
0.0
  0
LINE
  5
24B4E
  8
0
  6
CONTINUOUS
 10
12.18154012887317
 20
-0.0000694579236642
 30
0.0
 11
11.32140332908496
 21
0.8600673418645499
 31
0.0
  0
LINE
  5
24B4F
  8
0
  6
CONTINUOUS
 10
12.85501608323566
 20
-0.0000262032059659
 30
0.0
 11
10.77672456435345
 21
2.078265315676246
 31
0.0
  0
LINE
  5
24B50
  8
0
  6
CONTINUOUS
 10
9.813070670951886
 20
2.36839999999762
 30
0.0
 11
8.51047067095321
 21
3.670999999996297
 31
0.0
  0
LINE
  5
24B51
  8
0
  6
CONTINUOUS
 10
10.48658988003207
 20
2.36839999999762
 30
0.0
 11
9.183989880033396
 21
3.670999999996297
 31
0.0
  0
LINE
  5
24B52
  8
0
  6
CONTINUOUS
 10
8.441048632286794
 20
3.740422038662712
 30
0.0
 11
7.365286662056551
 21
4.816184008892956
 31
0.0
  0
LINE
  5
24B53
  8
0
  6
CONTINUOUS
 10
8.649187485808454
 20
4.205802394221237
 30
0.0
 11
7.573469239788285
 21
5.281520640241407
 31
0.0
  0
LINE
  5
24B54
  8
0
  6
CONTINUOUS
 10
5.098773609864391
 20
7.082697061085115
 30
0.0
 11
4.087049469776277
 21
8.09442120117323
 31
0.0
  0
LINE
  5
24B55
  8
0
  6
CONTINUOUS
 10
5.396862364710167
 20
7.458127515319526
 30
0.0
 11
4.385146033871544
 21
8.469843846158149
 31
0.0
  0
LINE
  5
24B56
  8
0
  6
CONTINUOUS
 10
13.04801363231285
 20
0.4804954567970334
 30
0.0
 11
9.85750908911358
 21
3.670999999996297
 31
0.0
  0
LINE
  5
24B57
  8
0
  6
CONTINUOUS
 10
8.857326339330116
 20
4.671182749779763
 30
0.0
 11
7.781651817520021
 21
5.746857271589858
 31
0.0
  0
LINE
  5
24B58
  8
0
  6
CONTINUOUS
 10
5.694951119555943
 20
7.833557969553937
 30
0.0
 11
4.765409089118624
 21
8.763099999991255
 31
0.0
  0
LINE
  5
24B59
  8
0
  6
CONTINUOUS
 10
12.50286117236978
 20
1.699167125820288
 30
0.0
 11
9.68611877250287
 21
4.515909525687196
 31
0.0
  0
LINE
  5
24B5A
  8
0
  6
CONTINUOUS
 10
9.065465192851777
 20
5.136563105338288
 30
0.0
 11
7.989834395251757
 21
6.21219390293831
 31
0.0
  0
LINE
  5
24B5B
  8
0
  6
CONTINUOUS
 10
5.993039874401719
 20
8.208988423788346
 30
0.0
 11
5.43892829819881
 21
8.763099999991255
 31
0.0
  0
LINE
  5
24B5C
  8
0
  6
CONTINUOUS
 10
11.95770871242671
 20
2.917838794843543
 30
0.0
 11
8.19801697298349
 21
6.677530534286761
 31
0.0
  0
LINE
  5
24B5D
  8
0
  6
CONTINUOUS
 10
6.291128629247495
 20
8.584418878022756
 30
0.0
 11
6.112447507278997
 21
8.763099999991255
 31
0.0
  0
LINE
  5
24B5E
  8
0
  6
CONTINUOUS
 10
11.41255625248364
 20
4.136510463866797
 30
0.0
 11
8.406199550715227
 21
7.142867165635211
 31
0.0
  0
LINE
  5
24B5F
  8
0
  6
CONTINUOUS
 10
10.86740379254057
 20
5.355182132890051
 30
0.0
 11
8.614382128446962
 21
7.608203796983664
 31
0.0
  0
LINE
  5
24B60
  8
0
  6
CONTINUOUS
 10
10.3222513325975
 20
6.573853801913305
 30
0.0
 11
8.822564706178696
 21
8.073540428332114
 31
0.0
  0
LINE
  5
24B61
  8
0
  6
CONTINUOUS
 10
9.777098872654436
 20
7.792525470936562
 30
0.0
 11
9.030747283910433
 21
8.538877059680566
 31
0.0
  0
ENDBLK
  5
24CA3
  8
0
  0
BLOCK
  8
0
  2
*X160
 70
     1
 10
0.0
 20
0.0
 30
0.0
  3
*X160
  1

  0
LINE
  5
24B63
  8
0
  6
CONTINUOUS
 10
10.67292308101235
 20
8.445076852443387
 30
0.0
 11
10.99094622856022
 21
8.763099999991255
 31
0.0
  0
LINE
  5
24B64
  8
0
  6
CONTINUOUS
 10
10.87250383178748
 20
7.971138394138331
 30
0.0
 11
11.6644654376404
 21
8.763099999991255
 31
0.0
  0
LINE
  5
24B65
  8
0
  6
CONTINUOUS
 10
11.07208458256261
 20
7.497199935833273
 30
0.0
 11
12.12126590876355
 21
8.546381262034211
 31
0.0
  0
LINE
  5
24B66
  8
0
  6
CONTINUOUS
 10
11.27166533333774
 20
7.023261477528216
 30
0.0
 11
12.32085164573666
 21
8.072447789927136
 31
0.0
  0
LINE
  5
24B67
  8
0
  6
CONTINUOUS
 10
11.47124608411287
 20
6.549323019223158
 30
0.0
 11
12.52043738270977
 21
7.59851431782006
 31
0.0
  0
LINE
  5
24B68
  8
0
  6
CONTINUOUS
 10
11.670826834888
 20
6.075384560918101
 30
0.0
 11
12.72002311968288
 21
7.124580845712984
 31
0.0
  0
LINE
  5
24B69
  8
0
  6
CONTINUOUS
 10
11.87040758566313
 20
5.601446102613043
 30
0.0
 11
12.91960885665599
 21
6.650647373605907
 31
0.0
  0
LINE
  5
24B6A
  8
0
  6
CONTINUOUS
 10
12.06998833643825
 20
5.127507644307986
 30
0.0
 11
13.1191945936291
 21
6.176713901498832
 31
0.0
  0
LINE
  5
24B6B
  8
0
  6
CONTINUOUS
 10
12.26956908721338
 20
4.65356918600293
 30
0.0
 11
13.31878033060221
 21
5.702780429391757
 31
0.0
  0
LINE
  5
24B6C
  8
0
  6
CONTINUOUS
 10
12.46914983798851
 20
4.179630727697873
 30
0.0
 11
13.51836606757532
 21
5.228846957284683
 31
0.0
  0
LINE
  5
24B6D
  8
0
  6
CONTINUOUS
 10
12.66873058876364
 20
3.705692269392816
 30
0.0
 11
13.71795180454843
 21
4.754913485177607
 31
0.0
  0
LINE
  5
24B6E
  8
0
  6
CONTINUOUS
 10
12.86831133953877
 20
3.231753811087759
 30
0.0
 11
13.91753754152154
 21
4.280980013070531
 31
0.0
  0
LINE
  5
24B6F
  8
0
  6
CONTINUOUS
 10
13.0678920903139
 20
2.757815352782702
 30
0.0
 11
14.11712327849465
 21
3.807046540963456
 31
0.0
  0
LINE
  5
24B70
  8
0
  6
CONTINUOUS
 10
13.26747284108903
 20
2.283876894477644
 30
0.0
 11
14.31670901546777
 21
3.333113068856379
 31
0.0
  0
LINE
  5
24B71
  8
0
  6
CONTINUOUS
 10
16.36767838827179
 20
8.751678487061342
 30
0.0
 11
16.50332410898388
 21
8.887324207773432
 31
0.0
  0
LINE
  5
24B72
  8
0
  6
CONTINUOUS
 10
15.96190732182191
 20
7.67238821153127
 30
0.0
 11
16.68735328004734
 21
8.397834169756699
 31
0.0
  0
LINE
  5
24B73
  8
0
  6
CONTINUOUS
 10
15.55613625537202
 20
6.593097936001196
 30
0.0
 11
16.87138245111079
 21
7.908344131739965
 31
0.0
  0
LINE
  5
24B74
  8
0
  6
CONTINUOUS
 10
15.15036518892213
 20
5.513807660471122
 30
0.0
 11
17.05541162217424
 21
7.418854093723231
 31
0.0
  0
LINE
  5
24B75
  8
0
  6
CONTINUOUS
 10
14.74459412247225
 20
4.434517384941048
 30
0.0
 11
17.2394407932377
 21
6.929364055706499
 31
0.0
  0
LINE
  5
24B76
  8
0
  6
CONTINUOUS
 10
14.33882305602236
 20
3.355227109410975
 30
0.0
 11
17.42346996430115
 21
6.439874017689766
 31
0.0
  0
LINE
  5
24B77
  8
0
  6
CONTINUOUS
 10
13.46705359186416
 20
1.809938436172586
 30
0.0
 11
16.0819338255367
 21
4.424818669845129
 31
0.0
  0
LINE
  5
24B78
  8
0
  6
CONTINUOUS
 10
16.63283254238972
 20
4.975717386698149
 30
0.0
 11
17.60749913536461
 21
5.950383979673033
 31
0.0
  0
LINE
  5
24B79
  8
0
  6
CONTINUOUS
 10
13.66663434263929
 20
1.335999977867529
 30
0.0
 11
15.67604797733754
 21
3.345413612565779
 31
0.0
  0
LINE
  5
24B7A
  8
0
  6
CONTINUOUS
 10
13.86621509341442
 20
0.8620615195624723
 30
0.0
 11
15.27016212913838
 21
2.26600855528643
 31
0.0
  0
LINE
  5
24B7B
  8
0
  6
CONTINUOUS
 10
16.81682257348267
 20
4.486188208710908
 30
0.0
 11
17.79152830642806
 21
5.460893941656299
 31
0.0
  0
LINE
  5
24B7C
  8
0
  6
CONTINUOUS
 10
17.00081260457561
 20
3.996659030723667
 30
0.0
 11
17.97555747749151
 21
4.971403903639565
 31
0.0
  0
LINE
  5
24B7D
  8
0
  6
CONTINUOUS
 10
20.74362343514722
 20
8.412989070375462
 30
0.0
 11
21.09373436476302
 21
8.763099999991256
 31
0.0
  0
LINE
  5
24B7E
  8
0
  6
CONTINUOUS
 10
20.25401257174777
 20
7.249858997895826
 30
0.0
 11
21.7672535738432
 21
8.763099999991255
 31
0.0
  0
LINE
  5
24B7F
  8
0
  6
CONTINUOUS
 10
14.06579584418955
 20
0.3881230612574149
 30
0.0
 11
14.86427628093921
 21
1.186603498007082
 31
0.0
  0
LINE
  5
24B80
  8
0
  6
CONTINUOUS
 10
14.26537659496467
 20
-0.0858153970476412
 30
0.0
 11
14.45839043274005
 21
0.1071984407277329
 31
0.0
  0
LINE
  5
24B81
  8
0
  6
CONTINUOUS
 10
17.18480263566856
 20
3.507129852736426
 30
0.0
 11
18.15958664855496
 21
4.481913865622833
 31
0.0
  0
LINE
  5
24B82
  8
0
  6
CONTINUOUS
 10
17.3687926667615
 20
3.017600674749186
 30
0.0
 11
18.34361581961842
 21
3.9924238276061
 31
0.0
  0
LINE
  5
24B83
  8
0
  6
CONTINUOUS
 10
19.76440170834832
 20
6.086728925416191
 30
0.0
 11
22.33924590259489
 21
8.661573119662755
 31
0.0
  0
LINE
  5
24B84
  8
0
  6
CONTINUOUS
 10
19.27479084494887
 20
4.923598852936555
 30
0.0
 11
21.84929622842713
 21
7.498104236414807
 31
0.0
  0
LINE
  5
24B85
  8
0
  6
CONTINUOUS
 10
17.55278269785445
 20
2.528071496761945
 30
0.0
 11
18.52764499068187
 21
3.502933789589366
 31
0.0
  0
LINE
  5
24B86
  8
0
  6
CONTINUOUS
 10
18.78517998154942
 20
3.760468780456919
 30
0.0
 11
21.35934655425936
 21
6.33463535316686
 31
0.0
  0
LINE
  5
24B87
  8
0
  6
CONTINUOUS
 10
17.73677272894739
 20
2.038542318774704
 30
0.0
 11
20.8693968800916
 21
5.171166469918914
 31
0.0
  0
LINE
  5
24B88
  8
0
  6
CONTINUOUS
 10
17.92076276004034
 20
1.549013140787464
 30
0.0
 11
20.37944720592384
 21
4.007697586670968
 31
0.0
  0
LINE
  5
24B89
  8
0
  6
CONTINUOUS
 10
18.10475279113329
 20
1.059483962800223
 30
0.0
 11
19.88949753175608
 21
2.84422870342302
 31
0.0
  0
LINE
  5
24B8A
  8
0
  6
CONTINUOUS
 10
18.28874282222623
 20
0.5699547848129822
 30
0.0
 11
19.39954785758832
 21
1.680759820175074
 31
0.0
  0
LINE
  5
24B8B
  8
0
  6
CONTINUOUS
 10
18.47273285331918
 20
0.0804256068257416
 30
0.0
 11
18.90959818342056
 21
0.517290936927127
 31
0.0
  0
LINE
  5
24B8C
  8
0
  6
CONTINUOUS
 10
14.3590401358224
 20
-0.1570118376323384
 30
0.0
 11
14.24903296539946
 21
-0.0470046672093929
 31
0.0
  0
LINE
  5
24B8D
  8
0
  6
CONTINUOUS
 10
14.54309291258661
 20
0.332454594683643
 30
0.0
 11
13.75908329123172
 21
1.116464216038529
 31
0.0
  0
LINE
  5
24B8E
  8
0
  6
CONTINUOUS
 10
14.72714568935081
 20
0.8219210269996244
 30
0.0
 11
13.26913361706399
 21
2.27993309928645
 31
0.0
  0
LINE
  5
24B8F
  8
0
  6
CONTINUOUS
 10
14.91119846611502
 20
1.311387459315606
 30
0.0
 11
12.77918394289625
 21
3.443401982534371
 31
0.0
  0
LINE
  5
24B90
  8
0
  6
CONTINUOUS
 10
15.09525124287922
 20
1.800853891631587
 30
0.0
 11
12.28923426872852
 21
4.606870865782293
 31
0.0
  0
LINE
  5
24B91
  8
0
  6
CONTINUOUS
 10
15.27930401964343
 20
2.290320323947569
 30
0.0
 11
11.79928459456078
 21
5.770339749030213
 31
0.0
  0
LINE
  5
24B92
  8
0
  6
CONTINUOUS
 10
15.46335679640763
 20
2.77978675626355
 30
0.0
 11
14.48885470994921
 21
3.754288842721972
 31
0.0
  0
LINE
  5
24B93
  8
0
  6
CONTINUOUS
 10
13.88507249233704
 20
4.358071060334137
 30
0.0
 11
11.30933492039305
 21
6.933808632278135
 31
0.0
  0
LINE
  5
24B94
  8
0
  6
CONTINUOUS
 10
18.75840522805855
 20
0.1582575336928151
 30
0.0
 11
18.25383727664818
 21
0.6628254851031863
 31
0.0
  0
LINE
  5
24B95
  8
0
  6
CONTINUOUS
 10
15.64740957317184
 20
3.269253188579531
 30
0.0
 11
14.67288388101266
 21
4.243778880738705
 31
0.0
  0
LINE
  5
24B96
  8
0
  6
CONTINUOUS
 10
13.39509276772158
 20
5.521569994029786
 30
0.0
 11
10.81938524622531
 21
8.097277515526056
 31
0.0
  0
LINE
  5
24B97
  8
0
  6
CONTINUOUS
 10
18.95798597883369
 20
0.6321959919978686
 30
0.0
 11
17.84825644852853
 21
1.741925522303024
 31
0.0
  0
LINE
  5
24B98
  8
0
  6
CONTINUOUS
 10
19.15756672960882
 20
1.106134450302922
 30
0.0
 11
17.44267562040888
 21
2.821025559502861
 31
0.0
  0
LINE
  5
24B99
  8
0
  6
CONTINUOUS
 10
15.83146234993604
 20
3.758719620895513
 30
0.0
 11
14.85691305207612
 21
4.733268918755439
 31
0.0
  0
LINE
  5
24B9A
  8
0
  6
CONTINUOUS
 10
16.01551512670025
 20
4.248186053211494
 30
0.0
 11
15.04094222313957
 21
5.222758956772172
 31
0.0
  0
LINE
  5
24B9B
  8
0
  6
CONTINUOUS
 10
12.90511304310612
 20
6.685068927725435
 30
0.0
 11
10.8270819708403
 21
8.763099999991255
 31
0.0
  0
LINE
  5
24B9C
  8
0
  6
CONTINUOUS
 10
12.41513331849066
 20
7.848567861421083
 30
0.0
 11
11.50060117992049
 21
8.763099999991255
 31
0.0
  0
LINE
  5
24B9D
  8
0
  6
CONTINUOUS
 10
19.35714748038395
 20
1.580072908607975
 30
0.0
 11
17.03709479228923
 21
3.900125596702697
 31
0.0
  0
LINE
  5
24B9E
  8
0
  6
CONTINUOUS
 10
19.55672823115909
 20
2.054011366913028
 30
0.0
 11
16.63151396416958
 21
4.979225633902534
 31
0.0
  0
LINE
  5
24B9F
  8
0
  6
CONTINUOUS
 10
16.19956790346445
 20
4.737652485527476
 30
0.0
 11
15.22497139420302
 21
5.712248994788904
 31
0.0
  0
LINE
  5
24BA0
  8
0
  6
CONTINUOUS
 10
16.38362068022866
 20
5.227118917843457
 30
0.0
 11
15.40900056526648
 21
6.201739032805637
 31
0.0
  0
LINE
  5
24BA1
  8
0
  6
CONTINUOUS
 10
19.75630898193422
 20
2.527949825218081
 30
0.0
 11
18.70774536448286
 21
3.576513442669441
 31
0.0
  0
LINE
  5
24BA2
  8
0
  6
CONTINUOUS
 10
19.95588973270936
 20
3.001888283523134
 30
0.0
 11
18.90726987211446
 21
4.050508144118028
 31
0.0
  0
LINE
  5
24BA3
  8
0
  6
CONTINUOUS
 10
20.15547048348449
 20
3.475826741828186
 30
0.0
 11
19.10679437974606
 21
4.524502845566614
 31
0.0
  0
LINE
  5
24BA4
  8
0
  6
CONTINUOUS
 10
20.35505123425962
 20
3.94976520013324
 30
0.0
 11
19.30631888737766
 21
4.998497547015201
 31
0.0
  0
LINE
  5
24BA5
  8
0
  6
CONTINUOUS
 10
20.55463198503475
 20
4.423703658438292
 30
0.0
 11
19.50584339500926
 21
5.472492248463787
 31
0.0
  0
LINE
  5
24BA6
  8
0
  6
CONTINUOUS
 10
18.37481191085755
 20
3.909446896294752
 30
0.0
 11
15.59302973632993
 21
6.691229070822371
 31
0.0
  0
LINE
  5
24BA7
  8
0
  6
CONTINUOUS
 10
17.96904084440766
 20
4.988737171824825
 30
0.0
 11
15.77705890739338
 21
7.180719108839104
 31
0.0
  0
LINE
  5
24BA8
  8
0
  6
CONTINUOUS
 10
17.56326977795777
 20
6.068027447354899
 30
0.0
 11
15.96108807845684
 21
7.670209146855838
 31
0.0
  0
LINE
  5
24BA9
  8
0
  6
CONTINUOUS
 10
17.15749871150789
 20
7.147317722884972
 30
0.0
 11
16.14511724952029
 21
8.15969918487257
 31
0.0
  0
LINE
  5
24BAA
  8
0
  6
CONTINUOUS
 10
16.751727645058
 20
8.226607998415046
 30
0.0
 11
16.32914642058374
 21
8.649189222889303
 31
0.0
  0
LINE
  5
24BAB
  8
0
  6
CONTINUOUS
 10
20.75421273580989
 20
4.897642116743345
 30
0.0
 11
19.70536790264086
 21
5.946486949912374
 31
0.0
  0
LINE
  5
24BAC
  8
0
  6
CONTINUOUS
 10
20.95379348658502
 20
5.371580575048398
 30
0.0
 11
19.90489241027246
 21
6.42048165136096
 31
0.0
  0
LINE
  5
24BAD
  8
0
  6
CONTINUOUS
 10
21.15337423736015
 20
5.845519033353452
 30
0.0
 11
20.10441691790406
 21
6.894476352809547
 31
0.0
  0
LINE
  5
24BAE
  8
0
  6
CONTINUOUS
 10
21.35295498813529
 20
6.319457491658505
 30
0.0
 11
20.30394142553566
 21
7.368471054258134
 31
0.0
  0
LINE
  5
24BAF
  8
0
  6
CONTINUOUS
 10
21.55253573891042
 20
6.793395949963558
 30
0.0
 11
20.50346593316726
 21
7.842465755706721
 31
0.0
  0
LINE
  5
24BB0
  8
0
  6
CONTINUOUS
 10
21.75211648968556
 20
7.267334408268612
 30
0.0
 11
20.70299044079886
 21
8.316460457155308
 31
0.0
  0
LINE
  5
24BB1
  8
0
  6
CONTINUOUS
 10
21.95169724046069
 20
7.741272866573663
 30
0.0
 11
20.9298701070431
 21
8.763099999991256
 31
0.0
  0
LINE
  5
24BB2
  8
0
  6
CONTINUOUS
 10
22.15127799123582
 20
8.215211324878716
 30
0.0
 11
21.60338931612328
 21
8.763099999991256
 31
0.0
  0
LINE
  5
24BB3
  8
0
  6
CONTINUOUS
 10
22.35085874201096
 20
8.689149783183769
 30
0.0
 11
22.27690852520347
 21
8.763099999991255
 31
0.0
  0
ENDBLK
  5
24CA5
  8
0
  0
BLOCK
  8
0
  2
*X161
 70
     1
 10
0.0
 20
0.0
 30
0.0
  3
*X161
  1

  0
LINE
  5
24BB5
  8
0
  6
CONTINUOUS
 10
23.19462913593892
 20
8.169917934846424
 30
0.0
 11
23.70775465517246
 21
8.683043454079957
 31
0.0
  0
LINE
  5
24BB6
  8
0
  6
CONTINUOUS
 10
22.64923161835078
 20
6.951001208178088
 30
0.0
 11
23.9159364069932
 21
8.217705996820516
 31
0.0
  0
LINE
  5
24BB7
  8
0
  6
CONTINUOUS
 10
22.10383410076263
 20
5.732084481509751
 30
0.0
 11
24.12411815881395
 21
7.752368539561078
 31
0.0
  0
LINE
  5
24BB8
  8
0
  6
CONTINUOUS
 10
21.55843658317447
 20
4.513167754841414
 30
0.0
 11
24.3322999106347
 21
7.287031082301639
 31
0.0
  0
LINE
  5
24BB9
  8
0
  6
CONTINUOUS
 10
21.01303906558632
 20
3.294251028173077
 30
0.0
 11
24.54048166245544
 21
6.821693625042199
 31
0.0
  0
LINE
  5
24BBA
  8
0
  6
CONTINUOUS
 10
20.46764154799817
 20
2.075334301504738
 30
0.0
 11
23.28571549467848
 21
4.89340824818505
 31
0.0
  0
LINE
  5
24BBB
  8
0
  6
CONTINUOUS
 10
19.92224403041002
 20
0.8564175748364002
 30
0.0
 11
22.74075865492779
 21
3.674932199354171
 31
0.0
  0
LINE
  5
24BBC
  8
0
  6
CONTINUOUS
 10
23.67305085490148
 20
5.280743608408048
 30
0.0
 11
24.74866341427619
 21
6.356356167782759
 31
0.0
  0
LINE
  5
24BBD
  8
0
  6
CONTINUOUS
 10
23.88118970842314
 20
4.815363252849522
 30
0.0
 11
24.95684516609694
 21
5.89101871052332
 31
0.0
  0
LINE
  5
24BBE
  8
0
  6
CONTINUOUS
 10
19.73925852647308
 20
-0.0000871381807288
 30
0.0
 11
23.4103456646501
 21
3.670999999996297
 31
0.0
  0
LINE
  5
24BBF
  8
0
  6
CONTINUOUS
 10
24.0893285619448
 20
4.349982897290997
 30
0.0
 11
25.16502691791769
 21
5.42568125326388
 31
0.0
  0
LINE
  5
24BC0
  8
0
  6
CONTINUOUS
 10
20.41282099582748
 20
-0.0000438779065108
 30
0.0
 11
21.64944178675636
 21
1.236576913022366
 31
0.0
  0
LINE
  5
24BC1
  8
0
  6
CONTINUOUS
 10
22.78126487373161
 20
2.36839999999762
 30
0.0
 11
24.08386487373029
 21
3.670999999996297
 31
0.0
  0
LINE
  5
24BC2
  8
0
  6
CONTINUOUS
 10
24.29746741546646
 20
3.884602541732471
 30
0.0
 11
25.37320866973843
 21
4.960343796004441
 31
0.0
  0
LINE
  5
24BC3
  8
0
  6
CONTINUOUS
 10
21.08638346518189
 20
-0.0000006176322938
 30
0.0
 11
21.10379033335899
 21
0.0174062505448083
 31
0.0
  0
LINE
  5
24BC4
  8
0
  6
CONTINUOUS
 10
23.4547840828118
 20
2.36839999999762
 30
0.0
 11
25.58139042155918
 21
4.495006338745002
 31
0.0
  0
LINE
  5
24BC5
  8
0
  6
CONTINUOUS
 10
29.30199999996933
 20
8.215615917155148
 30
0.0
 11
29.84948408280543
 21
8.763099999991255
 31
0.0
  0
LINE
  5
24BC6
  8
0
  6
CONTINUOUS
 10
24.12830329189199
 20
2.36839999999762
 30
0.0
 11
25.78957217337993
 21
4.029668881485562
 31
0.0
  0
LINE
  5
24BC7
  8
0
  6
CONTINUOUS
 10
29.30199999996933
 20
7.54209670807496
 30
0.0
 11
30.52300329188562
 21
8.763099999991255
 31
0.0
  0
LINE
  5
24BC8
  8
0
  6
CONTINUOUS
 10
24.80182250097217
 20
2.36839999999762
 30
0.0
 11
25.99775392520067
 21
3.564331424226122
 31
0.0
  0
LINE
  5
24BC9
  8
0
  6
CONTINUOUS
 10
29.30199999996933
 20
6.868577498994774
 30
0.0
 11
30.74199999996926
 21
8.308577498994712
 31
0.0
  0
LINE
  5
24BCA
  8
0
  6
CONTINUOUS
 10
25.13028238392013
 20
2.023340673865392
 30
0.0
 11
26.20593567702142
 21
3.098993966966683
 31
0.0
  0
LINE
  5
24BCB
  8
0
  6
CONTINUOUS
 10
25.33838066033617
 20
1.557919741201244
 30
0.0
 11
26.41411742884217
 21
2.633656509707244
 31
0.0
  0
LINE
  5
24BCC
  8
0
  6
CONTINUOUS
 10
25.54647893675221
 20
1.092498808537098
 30
0.0
 11
26.62229918066291
 21
2.168319052447804
 31
0.0
  0
LINE
  5
24BCD
  8
0
  6
CONTINUOUS
 10
25.75457721316825
 20
0.62707787587295
 30
0.0
 11
26.83048093248366
 21
1.702981595188365
 31
0.0
  0
LINE
  5
24BCE
  8
0
  6
CONTINUOUS
 10
29.30199999996933
 20
6.195058289914587
 30
0.0
 11
30.74199999996926
 21
7.635058289914522
 31
0.0
  0
LINE
  5
24BCF
  8
0
  6
CONTINUOUS
 10
29.30199999996933
 20
5.521539080834401
 30
0.0
 11
30.74199999996926
 21
6.961539080834331
 31
0.0
  0
LINE
  5
24BD0
  8
0
  6
CONTINUOUS
 10
29.30199999996933
 20
4.848019871754214
 30
0.0
 11
30.74199999996925
 21
6.288019871754143
 31
0.0
  0
LINE
  5
24BD1
  8
0
  6
CONTINUOUS
 10
29.30199999996933
 20
4.174500662674028
 30
0.0
 11
30.74199999996925
 21
5.614500662673953
 31
0.0
  0
LINE
  5
24BD2
  8
0
  6
CONTINUOUS
 10
25.96267548958429
 20
0.1616569432088024
 30
0.0
 11
27.18411854636669
 21
1.383099999991207
 31
0.0
  0
LINE
  5
24BD3
  8
0
  6
CONTINUOUS
 10
29.30199999996933
 20
3.500981453593841
 30
0.0
 11
30.74199999996925
 21
4.940981453593762
 31
0.0
  0
LINE
  5
24BD4
  8
0
  6
CONTINUOUS
 10
26.50763775544691
 20
0.0330999999912356
 30
0.0
 11
27.85763775544689
 21
1.383099999991223
 31
0.0
  0
LINE
  5
24BD5
  8
0
  6
CONTINUOUS
 10
29.30199999996933
 20
2.827462244513656
 30
0.0
 11
30.74199999996925
 21
4.267462244513574
 31
0.0
  0
LINE
  5
24BD6
  8
0
  6
CONTINUOUS
 10
27.18115696452709
 20
0.0330999999912356
 30
0.0
 11
28.55073879889363
 21
1.402681834357775
 31
0.0
  0
LINE
  5
24BD7
  8
0
  6
CONTINUOUS
 10
29.28241816560272
 20
2.134361201066866
 30
0.0
 11
30.74199999996924
 21
3.593943035433383
 31
0.0
  0
LINE
  5
24BD8
  8
0
  6
CONTINUOUS
 10
27.85467617360728
 20
0.0330999999912356
 30
0.0
 11
30.74199999996924
 21
2.920423826353195
 31
0.0
  0
LINE
  5
24BD9
  8
0
  6
CONTINUOUS
 10
28.53897559587887
 20
0.0438802131826428
 30
0.0
 11
30.73121978677781
 21
2.236124404081585
 31
0.0
  0
LINE
  5
24BDA
  8
0
  6
CONTINUOUS
 10
29.45140055588722
 20
0.2827859641107988
 30
0.0
 11
30.49231403584965
 21
1.323699444073236
 31
0.0
  0
LINE
  5
24BDB
  8
0
  6
CONTINUOUS
 10
19.59027867740337
 20
-0.0000967065718083
 30
0.0
 11
19.55485265190471
 21
0.035329318926844
 31
0.0
  0
LINE
  5
24BDC
  8
0
  6
CONTINUOUS
 10
20.26375463176586
 20
-0.0000534518541091
 30
0.0
 11
19.76305575737534
 21
0.5006454225364014
 31
0.0
  0
LINE
  5
24BDD
  8
0
  6
CONTINUOUS
 10
20.93723058612834
 20
-0.0000101971364099
 30
0.0
 11
19.97125886284597
 21
0.965961526145958
 31
0.0
  0
LINE
  5
24BDE
  8
0
  6
CONTINUOUS
 10
21.25514828313686
 20
0.355591314935257
 30
0.0
 11
20.1794619683166
 21
1.431277629755512
 31
0.0
  0
LINE
  5
24BDF
  8
0
  6
CONTINUOUS
 10
21.46338838394921
 20
0.8208704232030986
 30
0.0
 11
20.38766507378723
 21
1.896593733365069
 31
0.0
  0
LINE
  5
24BE0
  8
0
  6
CONTINUOUS
 10
21.67162848476155
 20
1.28614953147094
 30
0.0
 11
20.59586817925786
 21
2.361909836974626
 31
0.0
  0
LINE
  5
24BE1
  8
0
  6
CONTINUOUS
 10
21.8798685855739
 20
1.751428639738782
 30
0.0
 11
20.80407128472849
 21
2.827225940584183
 31
0.0
  0
LINE
  5
24BE2
  8
0
  6
CONTINUOUS
 10
22.08810868638624
 20
2.216707748006623
 30
0.0
 11
21.01227439019912
 21
3.292542044193739
 31
0.0
  0
LINE
  5
24BE3
  8
0
  6
CONTINUOUS
 10
22.60993564347543
 20
2.36839999999762
 30
0.0
 11
21.22047749566975
 21
3.757858147803296
 31
0.0
  0
LINE
  5
24BE4
  8
0
  6
CONTINUOUS
 10
23.28345485255561
 20
2.36839999999762
 30
0.0
 11
21.42868060114038
 21
4.223174251412853
 31
0.0
  0
LINE
  5
24BE5
  8
0
  6
CONTINUOUS
 10
26.29227406164219
 20
0.0330999999912356
 30
0.0
 11
25.80009199592872
 21
0.5252820657046957
 31
0.0
  0
LINE
  5
24BE6
  8
0
  6
CONTINUOUS
 10
23.9569740616358
 20
2.36839999999762
 30
0.0
 11
21.63688370661101
 21
4.688490355022409
 31
0.0
  0
LINE
  5
24BE7
  8
0
  6
CONTINUOUS
 10
26.96579327072237
 20
0.0330999999912356
 30
0.0
 11
25.2554132311971
 21
1.743480039516508
 31
0.0
  0
LINE
  5
24BE8
  8
0
  6
CONTINUOUS
 10
24.63049327071599
 20
2.36839999999762
 30
0.0
 11
23.32789327071731
 21
3.670999999996297
 31
0.0
  0
LINE
  5
24BE9
  8
0
  6
CONTINUOUS
 10
22.92098674744635
 20
4.077906523267254
 30
0.0
 11
21.84508681208164
 21
5.153806458631966
 31
0.0
  0
LINE
  5
24BEA
  8
0
  6
CONTINUOUS
 10
27.63931247980256
 20
0.0330999999912356
 30
0.0
 11
24.0014124797975
 21
3.670999999996297
 31
0.0
  0
LINE
  5
24BEB
  8
0
  6
CONTINUOUS
 10
23.129125600968
 20
4.5432868788258
 30
0.0
 11
22.05328991755227
 21
5.619122562241522
 31
0.0
  0
LINE
  5
24BEC
  8
0
  6
CONTINUOUS
 10
28.31283168888275
 20
0.0330999999912356
 30
0.0
 11
24.16488385994816
 21
4.181047828925828
 31
0.0
  0
LINE
  5
24BED
  8
0
  6
CONTINUOUS
 10
23.33726445448964
 20
5.008667234384345
 30
0.0
 11
22.2614930230229
 21
6.084438665851079
 31
0.0
  0
LINE
  5
24BEE
  8
0
  6
CONTINUOUS
 10
28.92085740005492
 20
0.0985934978992438
 30
0.0
 11
27.63635089796295
 21
1.383099999991217
 31
0.0
  0
LINE
  5
24BEF
  8
0
  6
CONTINUOUS
 10
26.43704649509776
 20
2.582404402856405
 30
0.0
 11
23.61992702019732
 21
5.399523877756844
 31
0.0
  0
LINE
  5
24BF0
  8
0
  6
CONTINUOUS
 10
23.54540330801128
 20
5.47404758994289
 30
0.0
 11
22.46969612849353
 21
6.549754769460635
 31
0.0
  0
LINE
  5
24BF1
  8
0
  6
CONTINUOUS
 10
29.42225615078443
 20
0.2707139562499279
 30
0.0
 11
28.30987010704312
 21
1.383099999991234
 31
0.0
  0
LINE
  5
24BF2
  8
0
  6
CONTINUOUS
 10
25.89179548232307
 20
3.801174624711282
 30
0.0
 11
22.67789923396416
 21
7.015070873070191
 31
0.0
  0
LINE
  5
24BF3
  8
0
  6
CONTINUOUS
 10
29.83624534690007
 20
0.5302439692144705
 30
0.0
 11
28.85811781497101
 21
1.508371501143527
 31
0.0
  0
LINE
  5
24BF4
  8
0
  6
CONTINUOUS
 10
25.34654446954838
 20
5.01994484656616
 30
0.0
 11
22.88610233943479
 21
7.480386976679748
 31
0.0
  0
LINE
  5
24BF5
  8
0
  6
CONTINUOUS
 10
30.17865975401872
 20
0.8613487711760022
 30
0.0
 11
29.18888744090175
 21
1.851121084292977
 31
0.0
  0
LINE
  5
24BF6
  8
0
  6
CONTINUOUS
 10
24.80129345677369
 20
6.238715068421037
 30
0.0
 11
23.09430544490542
 21
7.945703080289305
 31
0.0
  0
LINE
  5
24BF7
  8
0
  6
CONTINUOUS
 10
30.45496647202376
 20
1.258561262251155
 30
0.0
 11
29.30199999996933
 21
2.411527734305588
 31
0.0
  0
LINE
  5
24BF8
  8
0
  6
CONTINUOUS
 10
24.256042443999
 20
7.457485290275915
 30
0.0
 11
23.30250855037605
 21
8.411019183898862
 31
0.0
  0
LINE
  5
24BF9
  8
0
  6
CONTINUOUS
 10
30.64868582078271
 20
1.738361122572387
 30
0.0
 11
29.30199999996933
 21
3.085046943385775
 31
0.0
  0
LINE
  5
24BFA
  8
0
  6
CONTINUOUS
 10
23.71079143122431
 20
8.676255512130794
 30
0.0
 11
23.51071165584668
 21
8.876335287508416
 31
0.0
  0
LINE
  5
24BFB
  8
0
  6
CONTINUOUS
 10
30.73802122914428
 20
2.322544923291007
 30
0.0
 11
29.30199999996933
 21
3.758566152465961
 31
0.0
  0
LINE
  5
24BFC
  8
0
  6
CONTINUOUS
 10
30.74199999996924
 20
2.992085361546236
 30
0.0
 11
29.30199999996933
 21
4.432085361546148
 31
0.0
  0
LINE
  5
24BFD
  8
0
  6
CONTINUOUS
 10
30.74199999996924
 20
3.665604570626419
 30
0.0
 11
29.30199999996933
 21
5.105604570626333
 31
0.0
  0
LINE
  5
24BFE
  8
0
  6
CONTINUOUS
 10
30.74199999996925
 20
4.339123779706602
 30
0.0
 11
29.30199999996933
 21
5.77912377970652
 31
0.0
  0
LINE
  5
24BFF
  8
0
  6
CONTINUOUS
 10
30.74199999996925
 20
5.012642988786785
 30
0.0
 11
29.30199999996933
 21
6.452642988786707
 31
0.0
  0
LINE
  5
24C00
  8
0
  6
CONTINUOUS
 10
30.74199999996925
 20
5.68616219786697
 30
0.0
 11
29.30199999996933
 21
7.126162197866894
 31
0.0
  0
LINE
  5
24C01
  8
0
  6
CONTINUOUS
 10
30.74199999996925
 20
6.359681406947153
 30
0.0
 11
29.30199999996933
 21
7.799681406947081
 31
0.0
  0
LINE
  5
24C02
  8
0
  6
CONTINUOUS
 10
30.74199999996926
 20
7.033200616027337
 30
0.0
 11
29.30199999996933
 21
8.473200616027269
 31
0.0
  0
LINE
  5
24C03
  8
0
  6
CONTINUOUS
 10
30.74199999996926
 20
7.706719825107518
 30
0.0
 11
29.68561982508552
 21
8.763099999991255
 31
0.0
  0
LINE
  5
24C04
  8
0
  6
CONTINUOUS
 10
30.74199999996926
 20
8.380239034187703
 30
0.0
 11
30.35913903416571
 21
8.763099999991255
 31
0.0
  0
ENDBLK
  5
24CA7
  8
0
  0
BLOCK
  8
0
  2
*X162
 70
     1
 10
0.0
 20
0.0
 30
0.0
  3
*X162
  1

  0
LINE
  5
24C06
  8
0
  6
CONTINUOUS
 10
31.64199999996833
 20
8.535058289913598
 30
0.0
 11
31.87004171004599
 21
8.763099999991255
 31
0.0
  0
LINE
  5
24C07
  8
0
  6
CONTINUOUS
 10
31.64199999996833
 20
7.861539080833412
 30
0.0
 11
32.54356091912618
 21
8.763099999991255
 31
0.0
  0
LINE
  5
24C08
  8
0
  6
CONTINUOUS
 10
31.64199999996833
 20
7.188019871753226
 30
0.0
 11
33.08199999996839
 21
8.628019871753281
 31
0.0
  0
LINE
  5
24C09
  8
0
  6
CONTINUOUS
 10
31.64199999996833
 20
6.51450066267304
 30
0.0
 11
33.08199999996839
 21
7.954500662673095
 31
0.0
  0
LINE
  5
24C0A
  8
0
  6
CONTINUOUS
 10
31.64199999996833
 20
5.840981453592853
 30
0.0
 11
33.08199999996839
 21
7.280981453592908
 31
0.0
  0
LINE
  5
24C0B
  8
0
  6
CONTINUOUS
 10
31.64199999996833
 20
5.167462244512667
 30
0.0
 11
33.08199999996839
 21
6.607462244512721
 31
0.0
  0
LINE
  5
24C0C
  8
0
  6
CONTINUOUS
 10
31.64199999996833
 20
4.493943035432481
 30
0.0
 11
33.08199999996839
 21
5.933943035432535
 31
0.0
  0
LINE
  5
24C0D
  8
0
  6
CONTINUOUS
 10
31.64199999996833
 20
3.820423826352293
 30
0.0
 11
33.08199999996839
 21
5.260423826352348
 31
0.0
  0
LINE
  5
24C0E
  8
0
  6
CONTINUOUS
 10
31.64199999996833
 20
3.146904617272106
 30
0.0
 11
33.08199999996839
 21
4.586904617272161
 31
0.0
  0
LINE
  5
24C0F
  8
0
  6
CONTINUOUS
 10
36.23199999996837
 20
8.410423826352325
 30
0.0
 11
36.5846761736073
 21
8.763099999991255
 31
0.0
  0
LINE
  5
24C10
  8
0
  6
CONTINUOUS
 10
36.23199999996837
 20
7.73690461727214
 30
0.0
 11
37.25819538268748
 21
8.763099999991255
 31
0.0
  0
LINE
  5
24C11
  8
0
  6
CONTINUOUS
 10
31.64257403601376
 20
2.473959444237348
 30
0.0
 11
33.08199999996839
 21
3.913385408191974
 31
0.0
  0
LINE
  5
24C12
  8
0
  6
CONTINUOUS
 10
36.23199999996837
 20
7.063385408191953
 30
0.0
 11
37.67199999996831
 21
8.503385408191894
 31
0.0
  0
LINE
  5
24C13
  8
0
  6
CONTINUOUS
 10
31.72013636841932
 20
1.87800256756272
 30
0.0
 11
33.08199999996839
 21
3.239866199111788
 31
0.0
  0
LINE
  5
24C14
  8
0
  6
CONTINUOUS
 10
36.23199999996837
 20
6.389866199111767
 30
0.0
 11
37.67199999996831
 21
7.829866199111708
 31
0.0
  0
LINE
  5
24C15
  8
0
  6
CONTINUOUS
 10
31.89042734314753
 20
1.374774333210744
 30
0.0
 11
33.08199999996839
 21
2.566346990031601
 31
0.0
  0
LINE
  5
24C16
  8
0
  6
CONTINUOUS
 10
36.23199999996837
 20
5.71634699003158
 30
0.0
 11
37.67199999996831
 21
7.156346990031521
 31
0.0
  0
LINE
  5
24C17
  8
0
  6
CONTINUOUS
 10
32.14210568064475
 20
0.952933461627778
 30
0.0
 11
33.18745552475986
 21
1.998283305742888
 31
0.0
  0
LINE
  5
24C18
  8
0
  6
CONTINUOUS
 10
36.23199999996837
 20
5.042827780951393
 30
0.0
 11
37.67199999996831
 21
6.482827780951334
 31
0.0
  0
LINE
  5
24C19
  8
0
  6
CONTINUOUS
 10
32.45820639400955
 20
0.5955149659123915
 30
0.0
 11
33.47242681921943
 21
1.60973539112227
 31
0.0
  0
LINE
  5
24C1A
  8
0
  6
CONTINUOUS
 10
36.23199999996837
 20
4.369308571871207
 30
0.0
 11
37.67199999996831
 21
5.809308571871147
 31
0.0
  0
LINE
  5
24C1B
  8
0
  6
CONTINUOUS
 10
32.83432456621412
 20
0.2981139290367771
 30
0.0
 11
33.89722476612215
 21
1.361014128944803
 31
0.0
  0
LINE
  5
24C1C
  8
0
  6
CONTINUOUS
 10
36.23199999996837
 20
3.69578936279102
 30
0.0
 11
37.67199999996831
 21
5.135789362790962
 31
0.0
  0
LINE
  5
24C1D
  8
0
  6
CONTINUOUS
 10
33.2711633111245
 20
0.0614334648669672
 30
0.0
 11
34.43247338014423
 21
1.222743533886696
 31
0.0
  0
LINE
  5
24C1E
  8
0
  6
CONTINUOUS
 10
36.23199999996837
 20
3.022270153710834
 30
0.0
 11
37.67199999996831
 21
4.462270153710775
 31
0.0
  0
LINE
  5
24C1F
  8
0
  6
CONTINUOUS
 10
33.76515245874577
 20
-0.1180965965919523
 30
0.0
 11
35.1587445516215
 21
1.27549549628378
 31
0.0
  0
LINE
  5
24C20
  8
0
  6
CONTINUOUS
 10
36.21639478609585
 20
2.333145730758136
 30
0.0
 11
37.67199999996831
 21
3.788750944630588
 31
0.0
  0
LINE
  5
24C21
  8
0
  6
CONTINUOUS
 10
34.34060583368432
 20
-0.2161624307335863
 30
0.0
 11
37.67199999996831
 21
3.115231735550401
 31
0.0
  0
LINE
  5
24C22
  8
0
  6
CONTINUOUS
 10
35.01698193613905
 20
-0.2133055373590427
 30
0.0
 11
37.66876712070525
 21
2.438479647207154
 31
0.0
  0
LINE
  5
24C23
  8
0
  6
CONTINUOUS
 10
35.90743367693304
 20
0.0036269943547609
 30
0.0
 11
37.51723902192366
 21
1.613432339345381
 31
0.0
  0
LINE
  5
24C24
  8
0
  6
CONTINUOUS
 10
32.55309425579761
 20
0.5074718966376706
 30
0.0
 11
32.27784730925847
 21
0.7827188431768102
 31
0.0
  0
LINE
  5
24C25
  8
0
  6
CONTINUOUS
 10
33.87496468909684
 20
-0.1408793275813673
 30
0.0
 11
31.67993083278052
 21
2.054154528734943
 31
0.0
  0
LINE
  5
24C26
  8
0
  6
CONTINUOUS
 10
34.64362813207632
 20
-0.2360235614806649
 30
0.0
 11
31.64199999996833
 21
2.765604570627322
 31
0.0
  0
LINE
  5
24C27
  8
0
  6
CONTINUOUS
 10
35.25801106796118
 20
-0.1768872882853429
 30
0.0
 11
31.64199999996833
 21
3.439123779707508
 31
0.0
  0
LINE
  5
24C28
  8
0
  6
CONTINUOUS
 10
35.79065650332146
 20
-0.0360135145654361
 30
0.0
 11
34.54143210838231
 21
1.213210880373721
 31
0.0
  0
LINE
  5
24C29
  8
0
  6
CONTINUOUS
 10
33.08199999996839
 20
2.67264298878764
 30
0.0
 11
31.64199999996833
 21
4.112642988787695
 31
0.0
  0
LINE
  5
24C2A
  8
0
  6
CONTINUOUS
 10
36.25975597779143
 20
0.1684062200447833
 30
0.0
 11
35.15395110240023
 21
1.274211095435983
 31
0.0
  0
LINE
  5
24C2B
  8
0
  6
CONTINUOUS
 10
33.08199999996839
 20
3.346162197867826
 30
0.0
 11
31.64199999996833
 21
4.786162197867881
 31
0.0
  0
LINE
  5
24C2C
  8
0
  6
CONTINUOUS
 10
36.67226329638774
 20
0.4294181105286579
 30
0.0
 11
35.63766478748767
 21
1.464016619428737
 31
0.0
  0
LINE
  5
24C2D
  8
0
  6
CONTINUOUS
 10
33.08199999996839
 20
4.019681406948012
 30
0.0
 11
31.64199999996833
 21
5.459681406948068
 31
0.0
  0
LINE
  5
24C2E
  8
0
  6
CONTINUOUS
 10
37.01677749710036
 20
0.7584231188962329
 30
0.0
 11
35.99563422741351
 21
1.779566388583076
 31
0.0
  0
LINE
  5
24C2F
  8
0
  6
CONTINUOUS
 10
33.08199999996839
 20
4.693200616028199
 30
0.0
 11
31.64199999996833
 21
6.133200616028255
 31
0.0
  0
LINE
  5
24C30
  8
0
  6
CONTINUOUS
 10
37.29859977568887
 20
1.1501200493879
 30
0.0
 11
36.20680593341555
 21
2.241913891661226
 31
0.0
  0
LINE
  5
24C31
  8
0
  6
CONTINUOUS
 10
33.08199999996839
 20
5.366719825108386
 30
0.0
 11
31.64199999996833
 21
6.80671982510844
 31
0.0
  0
LINE
  5
24C32
  8
0
  6
CONTINUOUS
 10
37.5148623517228
 20
1.607376682434161
 30
0.0
 11
36.23199999996837
 21
2.890239034188594
 31
0.0
  0
LINE
  5
24C33
  8
0
  6
CONTINUOUS
 10
33.08199999996839
 20
6.040239034188573
 30
0.0
 11
31.64199999996833
 21
7.480239034188627
 31
0.0
  0
LINE
  5
24C34
  8
0
  6
CONTINUOUS
 10
37.64705163358367
 20
2.148706609653477
 30
0.0
 11
36.23199999996837
 21
3.56375824326878
 31
0.0
  0
LINE
  5
24C35
  8
0
  6
CONTINUOUS
 10
33.08199999996839
 20
6.713758243268758
 30
0.0
 11
31.64199999996833
 21
8.153758243268815
 31
0.0
  0
LINE
  5
24C36
  8
0
  6
CONTINUOUS
 10
37.67199999996831
 20
2.797277452349026
 30
0.0
 11
36.23199999996837
 21
4.237277452348967
 31
0.0
  0
LINE
  5
24C37
  8
0
  6
CONTINUOUS
 10
37.67199999996831
 20
3.470796661429213
 30
0.0
 11
36.23199999996837
 21
4.910796661429154
 31
0.0
  0
LINE
  5
24C38
  8
0
  6
CONTINUOUS
 10
37.67199999996831
 20
4.144315870509399
 30
0.0
 11
36.23199999996837
 21
5.58431587050934
 31
0.0
  0
LINE
  5
24C39
  8
0
  6
CONTINUOUS
 10
33.08199999996839
 20
7.387277452348945
 30
0.0
 11
31.70617745232608
 21
8.763099999991255
 31
0.0
  0
LINE
  5
24C3A
  8
0
  6
CONTINUOUS
 10
33.08199999996839
 20
8.060796661429132
 30
0.0
 11
32.37969666140626
 21
8.763099999991255
 31
0.0
  0
LINE
  5
24C3B
  8
0
  6
CONTINUOUS
 10
33.08199999996839
 20
8.734315870509318
 30
0.0
 11
33.05321587048645
 21
8.763099999991255
 31
0.0
  0
LINE
  5
24C3C
  8
0
  6
CONTINUOUS
 10
37.67199999996831
 20
4.817835079589585
 30
0.0
 11
36.23199999996837
 21
6.257835079589526
 31
0.0
  0
LINE
  5
24C3D
  8
0
  6
CONTINUOUS
 10
37.67199999996831
 20
5.491354288669771
 30
0.0
 11
36.23199999996837
 21
6.931354288669713
 31
0.0
  0
LINE
  5
24C3E
  8
0
  6
CONTINUOUS
 10
37.67199999996831
 20
6.164873497749958
 30
0.0
 11
36.23199999996837
 21
7.6048734977499
 31
0.0
  0
LINE
  5
24C3F
  8
0
  6
CONTINUOUS
 10
37.67199999996831
 20
6.838392706830144
 30
0.0
 11
36.23199999996837
 21
8.278392706830086
 31
0.0
  0
LINE
  5
24C40
  8
0
  6
CONTINUOUS
 10
37.67199999996831
 20
7.511911915910332
 30
0.0
 11
36.42081191588738
 21
8.763099999991255
 31
0.0
  0
LINE
  5
24C41
  8
0
  6
CONTINUOUS
 10
37.67199999996831
 20
8.185431124990519
 30
0.0
 11
37.09433112496757
 21
8.763099999991255
 31
0.0
  0
ENDBLK
  5
24CA9
  8
0
  0
BLOCK
  8
0
  2
*X163
 70
     1
 10
0.0
 20
0.0
 30
0.0
  3
*X163
  1

  0
LINE
  5
24C43
  8
0
  6
CONTINUOUS
 10
38.60499999996136
 20
8.762866199104765
 30
0.0
 11
38.71672554182345
 21
8.874591740966855
 31
0.0
  0
LINE
  5
24C44
  8
0
  6
CONTINUOUS
 10
38.60499999996136
 20
8.089346990024577
 30
0.0
 11
39.03418785440363
 21
8.518534844466847
 31
0.0
  0
LINE
  5
24C45
  8
0
  6
CONTINUOUS
 10
38.60499999996136
 20
7.41582778094439
 30
0.0
 11
39.35165016698382
 21
8.16247794796684
 31
0.0
  0
LINE
  5
24C46
  8
0
  6
CONTINUOUS
 10
38.60499999996136
 20
6.742308571864204
 30
0.0
 11
39.66911247956399
 21
7.806421051466834
 31
0.0
  0
LINE
  5
24C47
  8
0
  6
CONTINUOUS
 10
38.60499999996136
 20
6.068789362784018
 30
0.0
 11
39.98657479214418
 21
7.450364154966827
 31
0.0
  0
LINE
  5
24C48
  8
0
  6
CONTINUOUS
 10
38.60499999996136
 20
5.395270153703832
 30
0.0
 11
40.30403710472435
 21
7.09430725846682
 31
0.0
  0
LINE
  5
24C49
  8
0
  6
CONTINUOUS
 10
38.60499999996136
 20
4.721750944623645
 30
0.0
 11
40.62149941730453
 21
6.738250361966813
 31
0.0
  0
LINE
  5
24C4A
  8
0
  6
CONTINUOUS
 10
38.60499999996136
 20
4.048231735543458
 30
0.0
 11
40.93896172988471
 21
6.382193465466806
 31
0.0
  0
LINE
  5
24C4B
  8
0
  6
CONTINUOUS
 10
38.60499999996136
 20
3.374712526463272
 30
0.0
 11
40.02599999995994
 21
4.795712526461843
 31
0.0
  0
LINE
  5
24C4C
  8
0
  6
CONTINUOUS
 10
38.60499999996136
 20
2.701193317383085
 30
0.0
 11
40.02599999995994
 21
4.122193317381657
 31
0.0
  0
LINE
  5
24C4D
  8
0
  6
CONTINUOUS
 10
40.28339754687704
 20
5.053110073378947
 30
0.0
 11
41.25642404246489
 21
6.026136568966799
 31
0.0
  0
LINE
  5
24C4E
  8
0
  6
CONTINUOUS
 10
40.60085985945722
 20
4.697053176878939
 30
0.0
 11
41.57388635504507
 21
5.670079672466793
 31
0.0
  0
LINE
  5
24C4F
  8
0
  6
CONTINUOUS
 10
43.57899999995641
 20
8.348712526458318
 30
0.0
 11
43.99338747348935
 21
8.763099999991255
 31
0.0
  0
LINE
  5
24C50
  8
0
  6
CONTINUOUS
 10
43.57899999995641
 20
7.675193317378131
 30
0.0
 11
44.66690668256953
 21
8.763099999991255
 31
0.0
  0
LINE
  5
24C51
  8
0
  6
CONTINUOUS
 10
38.60499999996136
 20
2.027674108302898
 30
0.0
 11
40.02599999995994
 21
3.44867410830147
 31
0.0
  0
LINE
  5
24C52
  8
0
  6
CONTINUOUS
 10
38.60499999996136
 20
1.354154899222712
 30
0.0
 11
40.02599999995994
 21
2.775154899221284
 31
0.0
  0
LINE
  5
24C53
  8
0
  6
CONTINUOUS
 10
38.60499999996136
 20
0.6806356901425255
 30
0.0
 11
40.02599999995994
 21
2.101635690141098
 31
0.0
  0
LINE
  5
24C54
  8
0
  6
CONTINUOUS
 10
38.60499999996136
 20
0.0071164810623383
 30
0.0
 11
40.02599999995994
 21
1.428116481060911
 31
0.0
  0
LINE
  5
24C55
  8
0
  6
CONTINUOUS
 10
40.9183221720374
 20
4.340996280378933
 30
0.0
 11
41.89134866762525
 21
5.314022775966786
 31
0.0
  0
LINE
  5
24C56
  8
0
  6
CONTINUOUS
 10
41.23578448461758
 20
3.984939383878926
 30
0.0
 11
42.20881098020543
 21
4.957965879466778
 31
0.0
  0
LINE
  5
24C57
  8
0
  6
CONTINUOUS
 10
41.55324679719776
 20
3.628882487378919
 30
0.0
 11
42.52627329278561
 21
4.601908982966772
 31
0.0
  0
LINE
  5
24C58
  8
0
  6
CONTINUOUS
 10
41.87070910977793
 20
3.272825590878912
 30
0.0
 11
42.84373560536579
 21
4.245852086466765
 31
0.0
  0
LINE
  5
24C59
  8
0
  6
CONTINUOUS
 10
43.57899999995641
 20
7.001674108297943
 30
0.0
 11
44.99999999995498
 21
8.422674108296516
 31
0.0
  0
LINE
  5
24C5A
  8
0
  6
CONTINUOUS
 10
43.57899999995641
 20
6.328154899217758
 30
0.0
 11
44.99999999995498
 21
7.749154899216329
 31
0.0
  0
LINE
  5
24C5B
  8
0
  6
CONTINUOUS
 10
43.57899999995641
 20
5.654635690137571
 30
0.0
 11
44.99999999995498
 21
7.075635690136142
 31
0.0
  0
LINE
  5
24C5C
  8
0
  6
CONTINUOUS
 10
43.57899999995641
 20
4.981116481057384
 30
0.0
 11
44.99999999995498
 21
6.402116481055955
 31
0.0
  0
LINE
  5
24C5D
  8
0
  6
CONTINUOUS
 10
39.27140272797921
 20
-0.0000000000000009
 30
0.0
 11
40.02599999995994
 21
0.7545972719807246
 31
0.0
  0
LINE
  5
24C5E
  8
0
  6
CONTINUOUS
 10
39.9449219370594
 20
-0.0000000000000009
 30
0.0
 11
40.02599999995994
 21
0.0810780629005379
 31
0.0
  0
LINE
  5
24C5F
  8
0
  6
CONTINUOUS
 10
42.18817142235812
 20
2.916768694378905
 30
0.0
 11
43.16119791794597
 21
3.889795189966758
 31
0.0
  0
LINE
  5
24C60
  8
0
  6
CONTINUOUS
 10
42.50563373493829
 20
2.560711797878898
 30
0.0
 11
43.47866023052615
 21
3.533738293466751
 31
0.0
  0
LINE
  5
24C61
  8
0
  6
CONTINUOUS
 10
43.57899999995641
 20
4.307597271977198
 30
0.0
 11
44.99999999995498
 21
5.728597271975769
 31
0.0
  0
LINE
  5
24C62
  8
0
  6
CONTINUOUS
 10
43.57899999995641
 20
3.634078062897011
 30
0.0
 11
44.99999999995498
 21
5.055078062895582
 31
0.0
  0
LINE
  5
24C63
  8
0
  6
CONTINUOUS
 10
42.82309604751848
 20
2.204654901378891
 30
0.0
 11
44.99999999995498
 21
4.381558853815395
 31
0.0
  0
LINE
  5
24C64
  8
0
  6
CONTINUOUS
 10
43.14055836009865
 20
1.848598004878885
 30
0.0
 11
44.99999999995498
 21
3.70803964473521
 31
0.0
  0
LINE
  5
24C65
  8
0
  6
CONTINUOUS
 10
43.45802067267883
 20
1.492541108378878
 30
0.0
 11
44.99999999995498
 21
3.034520435655023
 31
0.0
  0
LINE
  5
24C66
  8
0
  6
CONTINUOUS
 10
43.77548298525902
 20
1.136484211878871
 30
0.0
 11
44.99999999995498
 21
2.361001226574837
 31
0.0
  0
LINE
  5
24C67
  8
0
  6
CONTINUOUS
 10
44.09294529783919
 20
0.7804273153788639
 30
0.0
 11
44.99999999995498
 21
1.687482017494649
 31
0.0
  0
LINE
  5
24C68
  8
0
  6
CONTINUOUS
 10
44.41040761041938
 20
0.4243704188788566
 30
0.0
 11
44.99999999995498
 21
1.013962808414463
 31
0.0
  0
LINE
  5
24C69
  8
0
  6
CONTINUOUS
 10
44.72786992299955
 20
0.0683135223788494
 30
0.0
 11
44.99999999995498
 21
0.340443599334276
 31
0.0
  0
LINE
  5
24C6A
  8
0
  6
CONTINUOUS
 10
39.12223903415696
 20
-0.0000000000000009
 30
0.0
 11
38.60499999996136
 21
0.5172390341955961
 31
0.0
  0
LINE
  5
24C6B
  8
0
  6
CONTINUOUS
 10
39.79575824323715
 20
-0.0000000000000009
 30
0.0
 11
38.60499999996136
 21
1.190758243275783
 31
0.0
  0
LINE
  5
24C6C
  8
0
  6
CONTINUOUS
 10
40.02599999995994
 20
0.443277452357397
 30
0.0
 11
38.60499999996136
 21
1.864277452355969
 31
0.0
  0
LINE
  5
24C6D
  8
0
  6
CONTINUOUS
 10
40.02599999995994
 20
1.116796661437583
 30
0.0
 11
38.60499999996136
 21
2.537796661436155
 31
0.0
  0
LINE
  5
24C6E
  8
0
  6
CONTINUOUS
 10
40.02599999995994
 20
1.79031587051777
 30
0.0
 11
38.60499999996136
 21
3.211315870516341
 31
0.0
  0
LINE
  5
24C6F
  8
0
  6
CONTINUOUS
 10
40.02599999995994
 20
2.463835079597956
 30
0.0
 11
38.60499999996136
 21
3.884835079596527
 31
0.0
  0
LINE
  5
24C70
  8
0
  6
CONTINUOUS
 10
40.02599999995994
 20
3.137354288678143
 30
0.0
 11
38.60499999996136
 21
4.558354288676714
 31
0.0
  0
LINE
  5
24C71
  8
0
  6
CONTINUOUS
 10
40.02599999995994
 20
3.810873497758329
 30
0.0
 11
38.60499999996136
 21
5.2318734977569
 31
0.0
  0
LINE
  5
24C72
  8
0
  6
CONTINUOUS
 10
40.02599999995994
 20
4.484392706838515
 30
0.0
 11
38.60499999996136
 21
5.905392706837086
 31
0.0
  0
LINE
  5
24C73
  8
0
  6
CONTINUOUS
 10
44.99999999995498
 20
0.183911915923658
 30
0.0
 11
41.53858364506288
 21
3.64532827081576
 31
0.0
  0
LINE
  5
24C74
  8
0
  6
CONTINUOUS
 10
40.02599999995994
 20
5.157911915918703
 30
0.0
 11
38.60499999996136
 21
6.578911915917274
 31
0.0
  0
LINE
  5
24C75
  8
0
  6
CONTINUOUS
 10
44.99999999995498
 20
0.8574311250038447
 30
0.0
 11
38.60499999996136
 21
7.25243112499746
 31
0.0
  0
LINE
  5
24C76
  8
0
  6
CONTINUOUS
 10
44.99999999995498
 20
1.530950334084031
 30
0.0
 11
38.60499999996136
 21
7.925950334077647
 31
0.0
  0
LINE
  5
24C77
  8
0
  6
CONTINUOUS
 10
44.99999999995498
 20
2.204469543164218
 30
0.0
 11
43.57899999995641
 21
3.625469543162789
 31
0.0
  0
LINE
  5
24C78
  8
0
  6
CONTINUOUS
 10
41.89876730984767
 20
5.305702233271528
 30
0.0
 11
38.60499999996136
 21
8.599469543157834
 31
0.0
  0
LINE
  5
24C79
  8
0
  6
CONTINUOUS
 10
44.99999999995498
 20
2.877988752244405
 30
0.0
 11
43.57899999995641
 21
4.298988752242975
 31
0.0
  0
LINE
  5
24C7A
  8
0
  6
CONTINUOUS
 10
44.99999999995498
 20
3.551507961324591
 30
0.0
 11
43.57899999995641
 21
4.972507961323163
 31
0.0
  0
LINE
  5
24C7B
  8
0
  6
CONTINUOUS
 10
44.99999999995498
 20
4.225027170404777
 30
0.0
 11
43.57899999995641
 21
5.646027170403348
 31
0.0
  0
LINE
  5
24C7C
  8
0
  6
CONTINUOUS
 10
44.99999999995498
 20
4.898546379484964
 30
0.0
 11
43.57899999995641
 21
6.319546379483535
 31
0.0
  0
LINE
  5
24C7D
  8
0
  6
CONTINUOUS
 10
44.99999999995498
 20
5.572065588565151
 30
0.0
 11
43.57899999995641
 21
6.993065588563722
 31
0.0
  0
LINE
  5
24C7E
  8
0
  6
CONTINUOUS
 10
44.99999999995498
 20
6.245584797645336
 30
0.0
 11
43.57899999995641
 21
7.666584797643908
 31
0.0
  0
LINE
  5
24C7F
  8
0
  6
CONTINUOUS
 10
44.99999999995498
 20
6.919104006725522
 30
0.0
 11
43.57899999995641
 21
8.340104006724093
 31
0.0
  0
LINE
  5
24C80
  8
0
  6
CONTINUOUS
 10
44.99999999995498
 20
7.592623215805709
 30
0.0
 11
43.82952321576943
 21
8.763099999991255
 31
0.0
  0
LINE
  5
24C81
  8
0
  6
CONTINUOUS
 10
44.99999999995498
 20
8.266142424885896
 30
0.0
 11
44.50304242484962
 21
8.763099999991255
 31
0.0
  0
ENDBLK
  5
24CAB
  8
0
  0
BLOCK
  8
0
  2
*X164
 70
     1
 10
0.0
 20
0.0
 30
0.0
  3
*X164
  1

  0
LINE
  5
24C83
  8
0
  6
CONTINUOUS
 10
0.0
 20
8.548461116714023
 30
0.0
 11
0.2146388832772324
 21
8.763099999991255
 31
0.0
  0
LINE
  5
24C84
  8
0
  6
CONTINUOUS
 10
-0.0000000000000002
 20
7.874941907633837
 30
0.0
 11
0.8881580923574184
 21
8.763099999991255
 31
0.0
  0
LINE
  5
24C85
  8
0
  6
CONTINUOUS
 10
0.0
 20
7.20142269855365
 30
0.0
 11
1.420999999998572
 21
8.622422698552223
 31
0.0
  0
LINE
  5
24C86
  8
0
  6
CONTINUOUS
 10
-0.0000000000000001
 20
6.527903489473465
 30
0.0
 11
1.420999999998571
 21
7.948903489472036
 31
0.0
  0
LINE
  5
24C87
  8
0
  6
CONTINUOUS
 10
-0.0000000000000002
 20
5.854384280393278
 30
0.0
 11
1.420999999998571
 21
7.275384280391849
 31
0.0
  0
LINE
  5
24C88
  8
0
  6
CONTINUOUS
 10
-0.0000000000000002
 20
5.180865071313091
 30
0.0
 11
1.420999999998571
 21
6.601865071311663
 31
0.0
  0
LINE
  5
24C89
  8
0
  6
CONTINUOUS
 10
0.0
 20
4.507345862232905
 30
0.0
 11
1.420999999998571
 21
5.928345862231477
 31
0.0
  0
LINE
  5
24C8A
  8
0
  6
CONTINUOUS
 10
-0.0000000000000003
 20
3.833826653152718
 30
0.0
 11
1.420999999998571
 21
5.25482665315129
 31
0.0
  0
LINE
  5
24C8B
  8
0
  6
CONTINUOUS
 10
-0.0000000000000002
 20
3.160307444072532
 30
0.0
 11
1.420999999998571
 21
4.581307444071103
 31
0.0
  0
LINE
  5
24C8C
  8
0
  6
CONTINUOUS
 10
-0.0000000000000001
 20
2.486788234992345
 30
0.0
 11
1.420999999998571
 21
3.907788234990917
 31
0.0
  0
LINE
  5
24C8D
  8
0
  6
CONTINUOUS
 10
-0.0000000000000006
 20
1.813269025912159
 30
0.0
 11
1.420999999998571
 21
3.234269025910731
 31
0.0
  0
LINE
  5
24C8E
  8
0
  6
CONTINUOUS
 10
0.0
 20
1.139749816831973
 30
0.0
 11
1.420999999998571
 21
2.560749816830544
 31
0.0
  0
LINE
  5
24C8F
  8
0
  6
CONTINUOUS
 10
0.0000000000000002
 20
0.466230607751787
 30
0.0
 11
1.420999999998571
 21
1.887230607750358
 31
0.0
  0
LINE
  5
24C90
  8
0
  6
CONTINUOUS
 10
0.2072886013284003
 20
-0.0000000000000009
 30
0.0
 11
1.420999999998571
 21
1.213711398670171
 31
0.0
  0
LINE
  5
24C91
  8
0
  6
CONTINUOUS
 10
0.8808078104085864
 20
-0.0000000000000009
 30
0.0
 11
1.420999999998571
 21
0.5401921895899839
 31
0.0
  0
LINE
  5
24C92
  8
0
  6
CONTINUOUS
 10
0.0581249075061505
 20
-0.0000000000000009
 30
0.0
 11
-0.0000000000000002
 21
0.0581249075061496
 31
0.0
  0
LINE
  5
24C93
  8
0
  6
CONTINUOUS
 10
0.7316441165863372
 20
-0.0000000000000009
 30
0.0
 11
-0.0000000000000002
 21
0.7316441165863363
 31
0.0
  0
LINE
  5
24C94
  8
0
  6
CONTINUOUS
 10
1.405163325666523
 20
-0.0000000000000009
 30
0.0
 11
-0.0000000000000002
 21
1.405163325666523
 31
0.0
  0
LINE
  5
24C95
  8
0
  6
CONTINUOUS
 10
1.420999999998572
 20
0.6576825347481381
 30
0.0
 11
-0.0000000000000001
 21
2.07868253474671
 31
0.0
  0
LINE
  5
24C96
  8
0
  6
CONTINUOUS
 10
1.420999999998571
 20
1.331201743828324
 30
0.0
 11
-0.0000000000000001
 21
2.752201743826896
 31
0.0
  0
LINE
  5
24C97
  8
0
  6
CONTINUOUS
 10
1.420999999998571
 20
2.004720952908511
 30
0.0
 11
-0.0000000000000002
 21
3.425720952907082
 31
0.0
  0
LINE
  5
24C98
  8
0
  6
CONTINUOUS
 10
1.420999999998571
 20
2.678240161988697
 30
0.0
 11
-0.0000000000000001
 21
4.099240161987269
 31
0.0
  0
LINE
  5
24C99
  8
0
  6
CONTINUOUS
 10
1.420999999998572
 20
3.351759371068884
 30
0.0
 11
0.0
 21
4.772759371067455
 31
0.0
  0
LINE
  5
24C9A
  8
0
  6
CONTINUOUS
 10
1.420999999998571
 20
4.02527858014907
 30
0.0
 11
-0.0000000000000003
 21
5.446278580147642
 31
0.0
  0
LINE
  5
24C9B
  8
0
  6
CONTINUOUS
 10
1.420999999998571
 20
4.698797789229257
 30
0.0
 11
0.0
 21
6.119797789227828
 31
0.0
  0
LINE
  5
24C9C
  8
0
  6
CONTINUOUS
 10
1.420999999998571
 20
5.372316998309444
 30
0.0
 11
-0.0000000000000001
 21
6.793316998308015
 31
0.0
  0
LINE
  5
24C9D
  8
0
  6
CONTINUOUS
 10
1.420999999998572
 20
6.045836207389629
 30
0.0
 11
-0.0000000000000004
 21
7.466836207388202
 31
0.0
  0
LINE
  5
24C9E
  8
0
  6
CONTINUOUS
 10
1.420999999998571
 20
6.719355416469816
 30
0.0
 11
0.0
 21
8.140355416468388
 31
0.0
  0
LINE
  5
24C9F
  8
0
  6
CONTINUOUS
 10
1.420999999998571
 20
7.392874625550003
 30
0.0
 11
0.0507746255573185
 21
8.763099999991255
 31
0.0
  0
LINE
  5
24CA0
  8
0
  6
CONTINUOUS
 10
1.420999999998571
 20
8.06639383463019
 30
0.0
 11
0.7242938346375052
 21
8.763099999991255
 31
0.0
  0
LINE
  5
24CA1
  8
0
  6
CONTINUOUS
 10
1.420999999998571
 20
8.739913043710375
 30
0.0
 11
1.397813043717691
 21
8.763099999991255
 31
0.0
  0
ENDBLK
  5
24CAD
  8
0
  0
ENDSEC
  0
SECTION
  2
ENTITIES
  0
LINE
  5
236FE
  8
01
 10
3320.937433836057
 20
-632.5350747237657
 30
0.0
 11
3195.65109815081
 21
-632.5350747237657
 31
0.0
  0
LINE
  5
236FF
  8
01
 10
3483.65109815081
 20
-632.5350747237657
 30
0.0
 11
3358.364762465567
 21
-632.5350747237657
 31
0.0
  0
LINE
  5
23700
  8
01
 10
3483.65109815081
 20
-654.0350747237648
 30
0.0
 11
3195.65109815081
 21
-654.0350747237648
 31
0.0
  0
LINE
  5
23701
  8
01
 10
3320.65109815081
 20
-583.0350747237657
 30
0.0
 11
3320.65109815081
 21
-593.3093985288436
 31
0.0
  0
LINE
  5
23702
  8
01
 10
3349.678503947866
 20
-589.5350747237648
 30
0.0
 11
3349.997731568033
 21
-589.5350747237648
 31
0.0
  0
LINE
  5
23703
  8
01
 10
3349.005071871215
 20
-589.5350747237648
 30
0.0
 11
3349.341333942323
 21
-589.5350747237648
 31
0.0
  0
LINE
  5
23704
  8
01
 10
3348.317530143601
 20
-589.5350747237657
 30
0.0
 11
3348.749713394095
 21
-589.5350747237657
 31
0.0
  0
LINE
  5
23705
  8
01
 10
3347.617746311759
 20
-589.5350747237657
 30
0.0
 11
3348.065154704002
 21
-589.5350747237657
 31
0.0
  0
LINE
  5
23706
  8
01
 10
3346.907624779697
 20
-589.5350747237657
 30
0.0
 11
3347.371411103238
 21
-589.5350747237657
 31
0.0
  0
LINE
  5
23707
  8
01
 10
3346.189089893694
 20
-589.5350747237657
 30
0.0
 11
3346.670400024878
 21
-589.5350747237648
 31
0.0
  0
LINE
  5
23708
  8
01
 10
3345.464069570967
 20
-589.5350747237657
 30
0.0
 11
3345.96401851005
 21
-589.5350747237648
 31
0.0
  0
LINE
  5
23709
  8
01
 10
3344.73447929932
 20
-589.5350747237657
 30
0.0
 11
3345.254128348904
 21
-589.5350747237657
 31
0.0
  0
LINE
  5
2370A
  8
01
 10
3343.995364068228
 20
-589.5350747237648
 30
0.0
 11
3344.542542923783
 21
-589.5350747237657
 31
0.0
  0
LINE
  5
2370B
  8
01
 10
3343.275355389253
 20
-589.5350747237648
 30
0.0
 11
3343.831014678085
 21
-589.5350747237648
 31
0.0
  0
LINE
  5
2370C
  8
01
 10
3342.55154272502
 20
-589.5350747237657
 30
0.0
 11
3343.121224198595
 21
-589.5350747237648
 31
0.0
  0
LINE
  5
2370D
  8
01
 10
3341.825579515541
 20
-589.5350747237657
 30
0.0
 11
3342.414771291656
 21
-589.5350747237657
 31
0.0
  0
LINE
  5
2370E
  8
01
 10
3341.401098143057
 20
-589.5350747237657
 30
0.0
 11
3341.807463713295
 21
-589.5350747237657
 31
0.0
  0
LINE
  5
2370F
  8
01
 10
3340.373752788767
 20
-589.5350747237657
 30
0.0
 11
3341.082306948355
 21
-589.5350747237648
 31
0.0
  0
LINE
  5
23710
  8
01
 10
3338.939166008956
 20
-589.5350747237657
 30
0.0
 11
3340.363030436106
 21
-589.5350747237657
 31
0.0
  0
LINE
  5
23711
  8
01
 10
3338.219889641651
 20
-589.5350747237657
 30
0.0
 11
3338.928443512853
 21
-589.5350747237657
 31
0.0
  0
LINE
  5
23712
  8
01
 10
3337.494733022274
 20
-589.5350747237657
 30
0.0
 11
3338.203087189841
 21
-589.5350747237657
 31
0.0
  0
LINE
  5
23713
  8
01
 10
3336.887425657128
 20
-589.5350747237648
 30
0.0
 11
3337.476616786079
 21
-589.5350747237648
 31
0.0
  0
LINE
  5
23714
  8
01
 10
3336.18097290871
 20
-589.5350747237657
 30
0.0
 11
3336.7506535766
 21
-589.5350747237657
 31
0.0
  0
LINE
  5
23715
  8
01
 10
3335.471182584023
 20
-589.5350747237657
 30
0.0
 11
3336.026840912366
 21
-589.5350747237657
 31
0.0
  0
LINE
  5
23716
  8
01
 10
3334.759654488072
 20
-589.5350747237657
 30
0.0
 11
3335.306832233396
 21
-589.5350747237657
 31
0.0
  0
LINE
  5
23717
  8
01
 10
3334.048069206262
 20
-589.5350747237657
 30
0.0
 11
3334.567718002162
 21
-589.5350747237657
 31
0.0
  0
LINE
  5
23718
  8
01
 10
3333.338179180572
 20
-589.5350747237657
 30
0.0
 11
3333.838127861653
 21
-589.5350747237657
 31
0.0
  0
LINE
  5
23719
  8
01
 10
3332.631797791898
 20
-589.5350747237657
 30
0.0
 11
3333.113107663244
 21
-589.5350747237657
 31
0.0
  0
LINE
  5
2371A
  8
01
 10
3331.93078682895
 20
-589.5350747237657
 30
0.0
 11
3332.394572893357
 21
-589.5350747237657
 31
0.0
  0
LINE
  5
2371B
  8
01
 10
3331.237043331438
 20
-589.5350747237657
 30
0.0
 11
3331.684451467819
 21
-589.5350747237657
 31
0.0
  0
LINE
  5
2371C
  8
01
 10
3330.552484731051
 20
-589.5350747237657
 30
0.0
 11
3330.98466773155
 21
-589.5350747237657
 31
0.0
  0
LINE
  5
2371D
  8
01
 10
3329.9608623593
 20
-589.5350747237657
 30
0.0
 11
3330.297126087243
 21
-589.5350747237657
 31
0.0
  0
LINE
  5
2371E
  8
01
 10
3329.304464733591
 20
-589.5350747237657
 30
0.0
 11
3329.623694080364
 21
-589.5350747237657
 31
0.0
  0
LINE
  5
2371F
  8
1DIM
 10
3355.486185772922
 20
-594.5350747237657
 30
0.0
 11
3323.816010528698
 21
-594.5350747237657
 31
0.0
  0
LINE
  5
23720
  8
01
 10
3320.65109815081
 20
-632.785074735771
 30
0.0
 11
3320.65109815081
 21
-632.7412376612914
 31
0.0
  0
LINE
  5
23721
  8
01
 10
3358.65109815081
 20
-632.7412376612914
 30
0.0
 11
3358.65109815081
 21
-632.785074735771
 31
0.0
  0
CIRCLE
  5
23722
  8
01
 10
3202.15109815081
 20
-643.2850747237657
 30
0.0
 40
3.25
  0
CIRCLE
  5
23723
  8
01
 10
3477.15109815081
 20
-643.2850747237648
 30
0.0
 40
3.250000000000227
  0
LINE
  5
23724
  8
01
 10
3195.15109815081
 20
-653.5350747237648
 30
0.0
 11
3195.15109815081
 21
-633.0350747237657
 31
0.0
  0
LINE
  5
23725
  8
01
 10
3484.15109815081
 20
-653.5350747237648
 30
0.0
 11
3484.15109815081
 21
-633.0350747237657
 31
0.0
  0
LINE
  5
23726
  8
01
 10
3320.65109815081
 20
-632.7412376612914
 30
0.0
 11
3320.651155619965
 21
-632.7347029485621
 31
0.0
  0
LINE
  5
23727
  8
01
 10
3320.651155619965
 20
-632.7347029485621
 30
0.0
 11
3320.651328084724
 21
-632.7283759920568
 31
0.0
  0
LINE
  5
23728
  8
01
 10
3320.651328084724
 20
-632.7283759920568
 30
0.0
 11
3320.651615631016
 21
-632.7222567717703
 31
0.0
  0
LINE
  5
23729
  8
01
 10
3320.651615631016
 20
-632.7222567717703
 30
0.0
 11
3320.652018344786
 21
-632.7163452677008
 31
0.0
  0
LINE
  5
2372A
  8
01
 10
3320.652018344786
 20
-632.7163452677008
 30
0.0
 11
3320.652536311961
 21
-632.7106414598433
 31
0.0
  0
LINE
  5
2372B
  8
01
 10
3320.652536311961
 20
-632.7106414598433
 30
0.0
 11
3320.653169618486
 21
-632.705145328196
 31
0.0
  0
LINE
  5
2372C
  8
01
 10
3320.653169618486
 20
-632.705145328196
 30
0.0
 11
3320.653918350293
 21
-632.6998568527546
 31
0.0
  0
LINE
  5
2372D
  8
01
 10
3320.653918350293
 20
-632.6998568527546
 30
0.0
 11
3320.654782593318
 21
-632.6947760135157
 31
0.0
  0
LINE
  5
2372E
  8
01
 10
3320.654782593318
 20
-632.6947760135157
 30
0.0
 11
3320.655762433499
 21
-632.6899027904759
 31
0.0
  0
LINE
  5
2372F
  8
01
 10
3320.655762433499
 20
-632.6899027904759
 30
0.0
 11
3320.656857956775
 21
-632.6852371636327
 31
0.0
  0
LINE
  5
23730
  8
01
 10
3320.656857956775
 20
-632.6852371636327
 30
0.0
 11
3320.657449126425
 21
-632.6829821925334
 31
0.0
  0
LINE
  5
23731
  8
01
 10
3320.657449126425
 20
-632.6829821925334
 30
0.0
 11
3320.658069249074
 21
-632.6807791129817
 31
0.0
  0
LINE
  5
23732
  8
01
 10
3320.658069249074
 20
-632.6807791129817
 30
0.0
 11
3320.658718335463
 21
-632.6786279224774
 31
0.0
  0
LINE
  5
23733
  8
01
 10
3320.658718335463
 20
-632.6786279224774
 30
0.0
 11
3320.659396396338
 21
-632.6765286185195
 31
0.0
  0
LINE
  5
23734
  8
01
 10
3320.659396396338
 20
-632.6765286185195
 30
0.0
 11
3320.660103442438
 21
-632.6744811986085
 31
0.0
  0
LINE
  5
23735
  8
01
 10
3320.660103442438
 20
-632.6744811986085
 30
0.0
 11
3320.660839484502
 21
-632.6724856602435
 31
0.0
  0
LINE
  5
23736
  8
01
 10
3320.660839484502
 20
-632.6724856602435
 30
0.0
 11
3320.661604533277
 21
-632.6705420009242
 31
0.0
  0
LINE
  5
23737
  8
01
 10
3320.661604533277
 20
-632.6705420009242
 30
0.0
 11
3320.662398599506
 21
-632.6686502181495
 31
0.0
  0
LINE
  5
23738
  8
01
 10
3320.662398599506
 20
-632.6686502181495
 30
0.0
 11
3320.663221693924
 21
-632.6668103094202
 31
0.0
  0
LINE
  5
23739
  8
01
 10
3320.663221693924
 20
-632.6668103094202
 30
0.0
 11
3320.664073827279
 21
-632.665022272235
 31
0.0
  0
LINE
  5
2373A
  8
01
 10
3320.664073827279
 20
-632.665022272235
 30
0.0
 11
3320.664955010309
 21
-632.6632861040929
 31
0.0
  0
LINE
  5
2373B
  8
01
 10
3320.664955010309
 20
-632.6632861040929
 30
0.0
 11
3320.665865253762
 21
-632.6616018024955
 31
0.0
  0
LINE
  5
2373C
  8
01
 10
3320.665865253762
 20
-632.6616018024955
 30
0.0
 11
3320.666804568375
 21
-632.6599693649399
 31
0.0
  0
LINE
  5
2373D
  8
01
 10
3320.666804568375
 20
-632.6599693649399
 30
0.0
 11
3320.66777296489
 21
-632.6583887889277
 31
0.0
  0
LINE
  5
2373E
  8
01
 10
3320.66777296489
 20
-632.6583887889277
 30
0.0
 11
3320.668770454052
 21
-632.6568600719578
 31
0.0
  0
LINE
  5
2373F
  8
01
 10
3320.668770454052
 20
-632.6568600719578
 30
0.0
 11
3320.6697970466
 21
-632.655383211529
 31
0.0
  0
LINE
  5
23740
  8
01
 10
3320.6697970466
 20
-632.655383211529
 30
0.0
 11
3320.670852753278
 21
-632.6539582051422
 31
0.0
  0
LINE
  5
23741
  8
01
 10
3320.670852753278
 20
-632.6539582051422
 30
0.0
 11
3320.671937584829
 21
-632.6525850502961
 31
0.0
  0
LINE
  5
23742
  8
01
 10
3320.671937584829
 20
-632.6525850502961
 30
0.0
 11
3320.673051551991
 21
-632.6512637444906
 31
0.0
  0
LINE
  5
23743
  8
01
 10
3320.673051551991
 20
-632.6512637444906
 30
0.0
 11
3320.674194665512
 21
-632.6499942852246
 31
0.0
  0
LINE
  5
23744
  8
01
 10
3320.674194665512
 20
-632.6499942852246
 30
0.0
 11
3320.675366936127
 21
-632.6487766699987
 31
0.0
  0
LINE
  5
23745
  8
01
 10
3320.675366936127
 20
-632.6487766699987
 30
0.0
 11
3320.676568374586
 21
-632.6476108963119
 31
0.0
  0
LINE
  5
23746
  8
01
 10
3320.676568374586
 20
-632.6476108963119
 30
0.0
 11
3320.677180035108
 21
-632.6470474492647
 31
0.0
  0
LINE
  5
23747
  8
01
 10
3320.677180035108
 20
-632.6470474492647
 30
0.0
 11
3320.677798991622
 21
-632.646496961664
 31
0.0
  0
LINE
  5
23748
  8
01
 10
3320.677798991622
 20
-632.646496961664
 30
0.0
 11
3320.678425245466
 21
-632.6459594331985
 31
0.0
  0
LINE
  5
23749
  8
01
 10
3320.678425245466
 20
-632.6459594331985
 30
0.0
 11
3320.679058797984
 21
-632.6454348635547
 31
0.0
  0
LINE
  5
2374A
  8
01
 10
3320.679058797984
 20
-632.6454348635547
 30
0.0
 11
3320.679699650517
 21
-632.6449232524204
 31
0.0
  0
LINE
  5
2374B
  8
01
 10
3320.679699650517
 20
-632.6449232524204
 30
0.0
 11
3320.680347804412
 21
-632.6444245994829
 31
0.0
  0
LINE
  5
2374C
  8
01
 10
3320.680347804412
 20
-632.6444245994829
 30
0.0
 11
3320.681003261007
 21
-632.6439389044302
 31
0.0
  0
LINE
  5
2374D
  8
01
 10
3320.681003261007
 20
-632.6439389044302
 30
0.0
 11
3320.681666021645
 21
-632.6434661669485
 31
0.0
  0
LINE
  5
2374E
  8
01
 10
3320.681666021645
 20
-632.6434661669485
 30
0.0
 11
3320.682336087676
 21
-632.6430063867268
 31
0.0
  0
LINE
  5
2374F
  8
01
 10
3320.682336087676
 20
-632.6430063867268
 30
0.0
 11
3320.683013460431
 21
-632.6425595634513
 31
0.0
  0
LINE
  5
23750
  8
01
 10
3320.683013460431
 20
-632.6425595634513
 30
0.0
 11
3320.683698141263
 21
-632.6421256968109
 31
0.0
  0
LINE
  5
23751
  8
01
 10
3320.683698141263
 20
-632.6421256968109
 30
0.0
 11
3320.684390131511
 21
-632.641704786491
 31
0.0
  0
LINE
  5
23752
  8
01
 10
3320.684390131511
 20
-632.641704786491
 30
0.0
 11
3320.685089432513
 21
-632.6412968321814
 31
0.0
  0
LINE
  5
23753
  8
01
 10
3320.685089432513
 20
-632.6412968321814
 30
0.0
 11
3320.685796045621
 21
-632.6409018335675
 31
0.0
  0
LINE
  5
23754
  8
01
 10
3320.685796045621
 20
-632.6409018335675
 30
0.0
 11
3320.686509972172
 21
-632.6405197903372
 31
0.0
  0
LINE
  5
23755
  8
01
 10
3320.686509972172
 20
-632.6405197903372
 30
0.0
 11
3320.687231213508
 21
-632.6401507021786
 31
0.0
  0
LINE
  5
23756
  8
01
 10
3320.687231213508
 20
-632.6401507021786
 30
0.0
 11
3320.687959770973
 21
-632.6397945687789
 31
0.0
  0
LINE
  5
23757
  8
01
 10
3320.687959770973
 20
-632.6397945687789
 30
0.0
 11
3320.688695645912
 21
-632.6394513898261
 31
0.0
  0
LINE
  5
23758
  8
01
 10
3320.688695645912
 20
-632.6394513898261
 30
0.0
 11
3320.689438839664
 21
-632.6391211650065
 31
0.0
  0
LINE
  5
23759
  8
01
 10
3320.689438839664
 20
-632.6391211650065
 30
0.0
 11
3320.690189353575
 21
-632.638803894008
 31
0.0
  0
LINE
  5
2375A
  8
01
 10
3320.690189353575
 20
-632.638803894008
 30
0.0
 11
3320.690947188988
 21
-632.6384995765178
 31
0.0
  0
LINE
  5
2375B
  8
01
 10
3320.690947188988
 20
-632.6384995765178
 30
0.0
 11
3320.691712347244
 21
-632.6382082122249
 31
0.0
  0
LINE
  5
2375C
  8
01
 10
3320.691712347244
 20
-632.6382082122249
 30
0.0
 11
3320.692484829683
 21
-632.6379298008145
 31
0.0
  0
LINE
  5
2375D
  8
01
 10
3320.692484829683
 20
-632.6379298008145
 30
0.0
 11
3320.693264637654
 21
-632.6376643419748
 31
0.0
  0
LINE
  5
2375E
  8
01
 10
3320.693264637654
 20
-632.6376643419748
 30
0.0
 11
3320.694051772497
 21
-632.6374118353946
 31
0.0
  0
LINE
  5
2375F
  8
01
 10
3320.694051772497
 20
-632.6374118353946
 30
0.0
 11
3320.694846235553
 21
-632.6371722807593
 31
0.0
  0
LINE
  5
23760
  8
01
 10
3320.694846235553
 20
-632.6371722807593
 30
0.0
 11
3320.696457151676
 21
-632.6367320260773
 31
0.0
  0
LINE
  5
23761
  8
01
 10
3320.696457151676
 20
-632.6367320260773
 30
0.0
 11
3320.698097396772
 21
-632.6363435754278
 31
0.0
  0
LINE
  5
23762
  8
01
 10
3320.698097396772
 20
-632.6363435754278
 30
0.0
 11
3320.699766981578
 21
-632.6360069263104
 31
0.0
  0
LINE
  5
23763
  8
01
 10
3320.699766981578
 20
-632.6360069263104
 30
0.0
 11
3320.701465916841
 21
-632.6357220762251
 31
0.0
  0
LINE
  5
23764
  8
01
 10
3320.701465916841
 20
-632.6357220762251
 30
0.0
 11
3320.703194213299
 21
-632.6354890226715
 31
0.0
  0
LINE
  5
23765
  8
01
 10
3320.703194213299
 20
-632.6354890226715
 30
0.0
 11
3320.704951881696
 21
-632.6353077631496
 31
0.0
  0
LINE
  5
23766
  8
01
 10
3320.704951881696
 20
-632.6353077631496
 30
0.0
 11
3320.706738932774
 21
-632.6351782951582
 31
0.0
  0
LINE
  5
23767
  8
01
 10
3320.706738932774
 20
-632.6351782951582
 30
0.0
 11
3320.708555377273
 21
-632.6351006161971
 31
0.0
  0
LINE
  5
23768
  8
01
 10
3320.708555377273
 20
-632.6351006161971
 30
0.0
 11
3320.710401225936
 21
-632.6350747237651
 31
0.0
  0
LINE
  5
23769
  8
01
 10
3320.710401225936
 20
-632.6350747237651
 30
0.0
 11
3320.711739053487
 21
-632.6350878794386
 31
0.0
  0
LINE
  5
2376A
  8
01
 10
3320.711739053487
 20
-632.6350878794386
 30
0.0
 11
3320.713091786877
 21
-632.6351273358499
 31
0.0
  0
LINE
  5
2376B
  8
01
 10
3320.713091786877
 20
-632.6351273358499
 30
0.0
 11
3320.714459409274
 21
-632.6351930770883
 31
0.0
  0
LINE
  5
2376C
  8
01
 10
3320.714459409274
 20
-632.6351930770883
 30
0.0
 11
3320.715841903849
 21
-632.6352850872394
 31
0.0
  0
LINE
  5
2376D
  8
01
 10
3320.715841903849
 20
-632.6352850872394
 30
0.0
 11
3320.717239253764
 21
-632.6354033503916
 31
0.0
  0
LINE
  5
2376E
  8
01
 10
3320.717239253764
 20
-632.6354033503916
 30
0.0
 11
3320.718651442198
 21
-632.6355478506333
 31
0.0
  0
LINE
  5
2376F
  8
01
 10
3320.718651442198
 20
-632.6355478506333
 30
0.0
 11
3320.721520267284
 21
-632.6359154987325
 31
0.0
  0
LINE
  5
23770
  8
01
 10
3320.721520267284
 20
-632.6359154987325
 30
0.0
 11
3320.724448244465
 21
-632.6363879042386
 31
0.0
  0
LINE
  5
23771
  8
01
 10
3320.724448244465
 20
-632.6363879042386
 30
0.0
 11
3320.727435239091
 21
-632.6369649398524
 31
0.0
  0
LINE
  5
23772
  8
01
 10
3320.727435239091
 20
-632.6369649398524
 30
0.0
 11
3320.730481116519
 21
-632.6376464782746
 31
0.0
  0
LINE
  5
23773
  8
01
 10
3320.730481116519
 20
-632.6376464782746
 30
0.0
 11
3320.733585742101
 21
-632.638432392206
 31
0.0
  0
LINE
  5
23774
  8
01
 10
3320.733585742101
 20
-632.638432392206
 30
0.0
 11
3320.736748981198
 21
-632.6393225543474
 31
0.0
  0
LINE
  5
23775
  8
01
 10
3320.736748981198
 20
-632.6393225543474
 30
0.0
 11
3320.739970699163
 21
-632.6403168374003
 31
0.0
  0
LINE
  5
23776
  8
01
 10
3320.739970699163
 20
-632.6403168374003
 30
0.0
 11
3320.743250761348
 21
-632.6414151140647
 31
0.0
  0
LINE
  5
23777
  8
01
 10
3320.743250761348
 20
-632.6414151140647
 30
0.0
 11
3320.74658903311
 21
-632.6426172570422
 31
0.0
  0
LINE
  5
23778
  8
01
 10
3320.74658903311
 20
-632.6426172570422
 30
0.0
 11
3320.749985379806
 21
-632.6439231390326
 31
0.0
  0
LINE
  5
23779
  8
01
 10
3320.749985379806
 20
-632.6439231390326
 30
0.0
 11
3320.753439666786
 21
-632.6453326327386
 31
0.0
  0
LINE
  5
2377A
  8
01
 10
3320.753439666786
 20
-632.6453326327386
 30
0.0
 11
3320.756951759412
 21
-632.646845610859
 31
0.0
  0
LINE
  5
2377B
  8
01
 10
3320.756951759412
 20
-632.646845610859
 30
0.0
 11
3320.760521523031
 21
-632.6484619460965
 31
0.0
  0
LINE
  5
2377C
  8
01
 10
3320.760521523031
 20
-632.6484619460965
 30
0.0
 11
3320.767833524688
 21
-632.6520041787229
 31
0.0
  0
LINE
  5
2377D
  8
01
 10
3320.767833524688
 20
-632.6520041787229
 30
0.0
 11
3320.775374594595
 21
-632.6559583122256
 31
0.0
  0
LINE
  5
2377E
  8
01
 10
3320.775374594595
 20
-632.6559583122256
 30
0.0
 11
3320.783143655589
 21
-632.6603233282107
 31
0.0
  0
LINE
  5
2377F
  8
01
 10
3320.783143655589
 20
-632.6603233282107
 30
0.0
 11
3320.791139630516
 21
-632.6650982082868
 31
0.0
  0
LINE
  5
23780
  8
01
 10
3320.791139630516
 20
-632.6650982082868
 30
0.0
 11
3320.799361442215
 21
-632.6702819340593
 31
0.0
  0
LINE
  5
23781
  8
01
 10
3320.799361442215
 20
-632.6702819340593
 30
0.0
 11
3320.807808013526
 21
-632.6758734871349
 31
0.0
  0
LINE
  5
23782
  8
01
 10
3320.807808013526
 20
-632.6758734871349
 30
0.0
 11
3320.816478267289
 21
-632.6818718491226
 31
0.0
  0
LINE
  5
23783
  8
01
 10
3320.816478267289
 20
-632.6818718491226
 30
0.0
 11
3320.825371126349
 21
-632.6882760016282
 31
0.0
  0
LINE
  5
23784
  8
01
 10
3320.825371126349
 20
-632.6882760016282
 30
0.0
 11
3320.843820351703
 21
-632.7022976046213
 31
0.0
  0
LINE
  5
23785
  8
01
 10
3320.843820351703
 20
-632.7022976046213
 30
0.0
 11
3320.863147072315
 21
-632.7179301489726
 31
0.0
  0
LINE
  5
23786
  8
01
 10
3320.863147072315
 20
-632.7179301489726
 30
0.0
 11
3320.883342670912
 21
-632.7351654875359
 31
0.0
  0
LINE
  5
23787
  8
01
 10
3320.883342670912
 20
-632.7351654875359
 30
0.0
 11
3320.904398530215
 21
-632.7539954731695
 31
0.0
  0
LINE
  5
23788
  8
01
 10
3320.904398530215
 20
-632.7539954731695
 30
0.0
 11
3320.926306032949
 21
-632.774411958729
 31
0.0
  0
LINE
  5
23789
  8
01
 10
3320.926306032949
 20
-632.774411958729
 30
0.0
 11
3320.949056561835
 21
-632.7964067970719
 31
0.0
  0
LINE
  5
2378A
  8
01
 10
3320.949056561835
 20
-632.7964067970719
 30
0.0
 11
3320.997052228972
 21
-632.845098943529
 31
0.0
  0
LINE
  5
2378B
  8
01
 10
3320.997052228972
 20
-632.845098943529
 30
0.0
 11
3321.048316593412
 21
-632.900006735393
 31
0.0
  0
LINE
  5
2378C
  8
01
 10
3321.048316593412
 20
-632.900006735393
 30
0.0
 11
3321.102780716951
 21
-632.9610649955151
 31
0.0
  0
LINE
  5
2378D
  8
01
 10
3321.102780716951
 20
-632.9610649955151
 30
0.0
 11
3321.22103248849
 21
-633.1013722119363
 31
0.0
  0
LINE
  5
2378E
  8
01
 10
3321.22103248849
 20
-633.1013722119363
 30
0.0
 11
3321.351256037927
 21
-633.2654991756002
 31
0.0
  0
LINE
  5
2378F
  8
01
 10
3321.351256037927
 20
-633.2654991756002
 30
0.0
 11
3321.492899859592
 21
-633.452924469317
 31
0.0
  0
LINE
  5
23790
  8
01
 10
3321.492899859592
 20
-633.452924469317
 30
0.0
 11
3321.643858207578
 21
-633.6611227526904
 31
0.0
  0
LINE
  5
23791
  8
01
 10
3321.643858207578
 20
-633.6611227526904
 30
0.0
 11
3321.80363774612
 21
-633.8901516470618
 31
0.0
  0
LINE
  5
23792
  8
01
 10
3321.80363774612
 20
-633.8901516470618
 30
0.0
 11
3322.145236199332
 21
-634.4080404571299
 31
0.0
  0
LINE
  5
23793
  8
01
 10
3322.145236199332
 20
-634.4080404571299
 30
0.0
 11
3322.508846828124
 21
-635.001269276186
 31
0.0
  0
LINE
  5
23794
  8
01
 10
3322.508846828124
 20
-635.001269276186
 30
0.0
 11
3322.885621241409
 21
-635.6645164808918
 31
0.0
  0
LINE
  5
23795
  8
01
 10
3322.885621241409
 20
-635.6645164808918
 30
0.0
 11
3323.121987823429
 21
-636.1089680848567
 31
0.0
  0
LINE
  5
23796
  8
01
 10
3323.121987823429
 20
-636.1089680848567
 30
0.0
 11
3323.357889206843
 21
-636.5789487306005
 31
0.0
  0
LINE
  5
23797
  8
01
 10
3323.357889206843
 20
-636.5789487306005
 30
0.0
 11
3323.590253929363
 21
-637.0733338450021
 31
0.0
  0
LINE
  5
23798
  8
01
 10
3323.590253929363
 20
-637.0733338450021
 30
0.0
 11
3323.816010528698
 21
-637.590998854935
 31
0.0
  0
LINE
  5
23799
  8
01
 10
3355.486185772922
 20
-637.590998854935
 30
0.0
 11
3355.711942372257
 21
-637.0733338450012
 31
0.0
  0
LINE
  5
2379A
  8
01
 10
3355.711942372257
 20
-637.0733338450012
 30
0.0
 11
3355.944307094777
 21
-636.5789487306005
 31
0.0
  0
LINE
  5
2379B
  8
01
 10
3355.944307094777
 20
-636.5789487306005
 30
0.0
 11
3356.180208478195
 21
-636.1089680848567
 31
0.0
  0
LINE
  5
2379C
  8
01
 10
3356.180208478195
 20
-636.1089680848567
 30
0.0
 11
3356.416575060211
 21
-635.6645164808918
 31
0.0
  0
LINE
  5
2379D
  8
01
 10
3356.416575060211
 20
-635.6645164808918
 30
0.0
 11
3356.793349473493
 21
-635.0012692761951
 31
0.0
  0
LINE
  5
2379E
  8
01
 10
3356.793349473493
 20
-635.0012692761951
 30
0.0
 11
3357.156960102292
 21
-634.4080404571317
 31
0.0
  0
LINE
  5
2379F
  8
01
 10
3357.156960102292
 20
-634.4080404571317
 30
0.0
 11
3357.49855855551
 21
-633.8901516470536
 31
0.0
  0
LINE
  5
237A0
  8
01
 10
3357.49855855551
 20
-633.8901516470536
 30
0.0
 11
3357.658338094053
 21
-633.6611227526804
 31
0.0
  0
LINE
  5
237A1
  8
01
 10
3357.658338094053
 20
-633.6611227526804
 30
0.0
 11
3357.809296442038
 21
-633.4529244693098
 31
0.0
  0
LINE
  5
237A2
  8
01
 10
3357.809296442038
 20
-633.4529244693098
 30
0.0
 11
3357.9509402637
 21
-633.2654991755984
 31
0.0
  0
LINE
  5
237A3
  8
01
 10
3357.9509402637
 20
-633.2654991755984
 30
0.0
 11
3358.081163813134
 21
-633.1013722119363
 31
0.0
  0
LINE
  5
237A4
  8
01
 10
3358.081163813134
 20
-633.1013722119363
 30
0.0
 11
3358.199415584672
 21
-632.961064995517
 31
0.0
  0
LINE
  5
237A5
  8
01
 10
3358.199415584672
 20
-632.961064995517
 30
0.0
 11
3358.253879708212
 21
-632.9000067353949
 31
0.0
  0
LINE
  5
237A6
  8
01
 10
3358.253879708212
 20
-632.9000067353949
 30
0.0
 11
3358.305144072651
 21
-632.8450989435308
 31
0.0
  0
LINE
  5
237A7
  8
01
 10
3358.305144072651
 20
-632.8450989435308
 30
0.0
 11
3358.353139739785
 21
-632.7964067970737
 31
0.0
  0
LINE
  5
237A8
  8
01
 10
3358.353139739785
 20
-632.7964067970737
 30
0.0
 11
3358.375890268674
 21
-632.7744119587309
 31
0.0
  0
LINE
  5
237A9
  8
01
 10
3358.375890268674
 20
-632.7744119587309
 30
0.0
 11
3358.397797771408
 21
-632.7539954731714
 31
0.0
  0
LINE
  5
237AA
  8
01
 10
3358.397797771408
 20
-632.7539954731714
 30
0.0
 11
3358.418853630711
 21
-632.7351654875378
 31
0.0
  0
LINE
  5
237AB
  8
01
 10
3358.418853630711
 20
-632.7351654875378
 30
0.0
 11
3358.439049229305
 21
-632.7179301489736
 31
0.0
  0
LINE
  5
237AC
  8
01
 10
3358.439049229305
 20
-632.7179301489736
 30
0.0
 11
3358.458375949921
 21
-632.7022976046231
 31
0.0
  0
LINE
  5
237AD
  8
01
 10
3358.458375949921
 20
-632.7022976046231
 30
0.0
 11
3358.476825175275
 21
-632.6882760016291
 31
0.0
  0
LINE
  5
237AE
  8
01
 10
3358.476825175275
 20
-632.6882760016291
 30
0.0
 11
3358.485718034331
 21
-632.6818718491235
 31
0.0
  0
LINE
  5
237AF
  8
01
 10
3358.485718034331
 20
-632.6818718491235
 30
0.0
 11
3358.494388288097
 21
-632.6758734871358
 31
0.0
  0
LINE
  5
237B0
  8
01
 10
3358.494388288097
 20
-632.6758734871358
 30
0.0
 11
3358.502834859405
 21
-632.6702819340593
 31
0.0
  0
LINE
  5
237B1
  8
01
 10
3358.502834859405
 20
-632.6702819340593
 30
0.0
 11
3358.511056671104
 21
-632.6650982082868
 31
0.0
  0
LINE
  5
237B2
  8
01
 10
3358.511056671104
 20
-632.6650982082868
 30
0.0
 11
3358.519052646035
 21
-632.6603233282116
 31
0.0
  0
LINE
  5
237B3
  8
01
 10
3358.519052646035
 20
-632.6603233282116
 30
0.0
 11
3358.526821707029
 21
-632.6559583122256
 31
0.0
  0
LINE
  5
237B4
  8
01
 10
3358.526821707029
 20
-632.6559583122256
 30
0.0
 11
3358.534362776935
 21
-632.6520041787229
 31
0.0
  0
LINE
  5
237B5
  8
01
 10
3358.534362776935
 20
-632.6520041787229
 30
0.0
 11
3358.541674778588
 21
-632.6484619460965
 31
0.0
  0
LINE
  5
237B6
  8
01
 10
3358.541674778588
 20
-632.6484619460965
 30
0.0
 11
3358.545244542212
 21
-632.646845610859
 31
0.0
  0
LINE
  5
237B7
  8
01
 10
3358.545244542212
 20
-632.646845610859
 30
0.0
 11
3358.548756634834
 21
-632.6453326327386
 31
0.0
  0
LINE
  5
237B8
  8
01
 10
3358.548756634834
 20
-632.6453326327386
 30
0.0
 11
3358.552210921817
 21
-632.6439231390326
 31
0.0
  0
LINE
  5
237B9
  8
01
 10
3358.552210921817
 20
-632.6439231390326
 30
0.0
 11
3358.555607268513
 21
-632.6426172570422
 31
0.0
  0
LINE
  5
237BA
  8
01
 10
3358.555607268513
 20
-632.6426172570422
 30
0.0
 11
3358.558945540276
 21
-632.6414151140647
 31
0.0
  0
LINE
  5
237BB
  8
01
 10
3358.558945540276
 20
-632.6414151140647
 30
0.0
 11
3358.562225602461
 21
-632.6403168374003
 31
0.0
  0
LINE
  5
237BC
  8
01
 10
3358.562225602461
 20
-632.6403168374003
 30
0.0
 11
3358.565447320422
 21
-632.6393225543474
 31
0.0
  0
LINE
  5
237BD
  8
01
 10
3358.565447320422
 20
-632.6393225543474
 30
0.0
 11
3358.568610559519
 21
-632.638432392206
 31
0.0
  0
LINE
  5
237BE
  8
01
 10
3358.568610559519
 20
-632.638432392206
 30
0.0
 11
3358.571715185105
 21
-632.6376464782746
 31
0.0
  0
LINE
  5
237BF
  8
01
 10
3358.571715185105
 20
-632.6376464782746
 30
0.0
 11
3358.574761062532
 21
-632.6369649398524
 31
0.0
  0
LINE
  5
237C0
  8
01
 10
3358.574761062532
 20
-632.6369649398524
 30
0.0
 11
3358.577748057159
 21
-632.6363879042386
 31
0.0
  0
LINE
  5
237C1
  8
01
 10
3358.577748057159
 20
-632.6363879042386
 30
0.0
 11
3358.580676034336
 21
-632.6359154987325
 31
0.0
  0
LINE
  5
237C2
  8
01
 10
3358.580676034336
 20
-632.6359154987325
 30
0.0
 11
3358.583544859422
 21
-632.6355478506333
 31
0.0
  0
LINE
  5
237C3
  8
01
 10
3358.583544859422
 20
-632.6355478506333
 30
0.0
 11
3358.584957047856
 21
-632.6354033503916
 31
0.0
  0
LINE
  5
237C4
  8
01
 10
3358.584957047856
 20
-632.6354033503916
 30
0.0
 11
3358.586354397775
 21
-632.6352850872394
 31
0.0
  0
LINE
  5
237C5
  8
01
 10
3358.586354397775
 20
-632.6352850872394
 30
0.0
 11
3358.587736892346
 21
-632.6351930770883
 31
0.0
  0
LINE
  5
237C6
  8
01
 10
3358.587736892346
 20
-632.6351930770883
 30
0.0
 11
3358.589104514743
 21
-632.6351273358499
 31
0.0
  0
LINE
  5
237C7
  8
01
 10
3358.589104514743
 20
-632.6351273358499
 30
0.0
 11
3358.590457248133
 21
-632.6350878794386
 31
0.0
  0
LINE
  5
237C8
  8
01
 10
3358.590457248133
 20
-632.6350878794386
 30
0.0
 11
3358.591795075688
 21
-632.6350747237651
 31
0.0
  0
LINE
  5
237C9
  8
01
 10
3358.591795075688
 20
-632.6350747237651
 30
0.0
 11
3358.59364092435
 21
-632.6351006161962
 31
0.0
  0
LINE
  5
237CA
  8
01
 10
3358.59364092435
 20
-632.6351006161962
 30
0.0
 11
3358.59545736885
 21
-632.6351782951582
 31
0.0
  0
LINE
  5
237CB
  8
01
 10
3358.59545736885
 20
-632.6351782951582
 30
0.0
 11
3358.597244419924
 21
-632.6353077631496
 31
0.0
  0
LINE
  5
237CC
  8
01
 10
3358.597244419924
 20
-632.6353077631496
 30
0.0
 11
3358.599002088321
 21
-632.6354890226715
 31
0.0
  0
LINE
  5
237CD
  8
01
 10
3358.599002088321
 20
-632.6354890226715
 30
0.0
 11
3358.600730384779
 21
-632.6357220762251
 31
0.0
  0
LINE
  5
237CE
  8
01
 10
3358.600730384779
 20
-632.6357220762251
 30
0.0
 11
3358.602429320042
 21
-632.6360069263104
 31
0.0
  0
LINE
  5
237CF
  8
01
 10
3358.602429320042
 20
-632.6360069263104
 30
0.0
 11
3358.604098904848
 21
-632.6363435754278
 31
0.0
  0
LINE
  5
237D0
  8
01
 10
3358.604098904848
 20
-632.6363435754278
 30
0.0
 11
3358.605739149944
 21
-632.6367320260773
 31
0.0
  0
LINE
  5
237D1
  8
01
 10
3358.605739149944
 20
-632.6367320260773
 30
0.0
 11
3358.60735006607
 21
-632.6371722807593
 31
0.0
  0
LINE
  5
237D2
  8
01
 10
3358.60735006607
 20
-632.6371722807593
 30
0.0
 11
3358.608144529127
 21
-632.6374118353946
 31
0.0
  0
LINE
  5
237D3
  8
01
 10
3358.608144529127
 20
-632.6374118353946
 30
0.0
 11
3358.608931663965
 21
-632.6376643419748
 31
0.0
  0
LINE
  5
237D4
  8
01
 10
3358.608931663965
 20
-632.6376643419748
 30
0.0
 11
3358.609711471937
 21
-632.6379298008145
 31
0.0
  0
LINE
  5
237D5
  8
01
 10
3358.609711471937
 20
-632.6379298008145
 30
0.0
 11
3358.61048395438
 21
-632.6382082122249
 31
0.0
  0
LINE
  5
237D6
  8
01
 10
3358.61048395438
 20
-632.6382082122249
 30
0.0
 11
3358.611249112632
 21
-632.6384995765178
 31
0.0
  0
LINE
  5
237D7
  8
01
 10
3358.611249112632
 20
-632.6384995765178
 30
0.0
 11
3358.612006948045
 21
-632.638803894008
 31
0.0
  0
LINE
  5
237D8
  8
01
 10
3358.612006948045
 20
-632.638803894008
 30
0.0
 11
3358.612757461956
 21
-632.6391211650065
 31
0.0
  0
LINE
  5
237D9
  8
01
 10
3358.612757461956
 20
-632.6391211650065
 30
0.0
 11
3358.613500655708
 21
-632.6394513898261
 31
0.0
  0
LINE
  5
237DA
  8
01
 10
3358.613500655708
 20
-632.6394513898261
 30
0.0
 11
3358.614236530647
 21
-632.6397945687789
 31
0.0
  0
LINE
  5
237DB
  8
01
 10
3358.614236530647
 20
-632.6397945687789
 30
0.0
 11
3358.614965088115
 21
-632.6401507021786
 31
0.0
  0
LINE
  5
237DC
  8
01
 10
3358.614965088115
 20
-632.6401507021786
 30
0.0
 11
3358.615686329452
 21
-632.6405197903372
 31
0.0
  0
LINE
  5
237DD
  8
01
 10
3358.615686329452
 20
-632.6405197903372
 30
0.0
 11
3358.616400256003
 21
-632.6409018335675
 31
0.0
  0
LINE
  5
237DE
  8
01
 10
3358.616400256003
 20
-632.6409018335675
 30
0.0
 11
3358.617106869106
 21
-632.6412968321805
 31
0.0
  0
LINE
  5
237DF
  8
01
 10
3358.617106869106
 20
-632.6412968321805
 30
0.0
 11
3358.617806170113
 21
-632.641704786491
 31
0.0
  0
LINE
  5
237E0
  8
01
 10
3358.617806170113
 20
-632.641704786491
 30
0.0
 11
3358.618498160357
 21
-632.6421256968109
 31
0.0
  0
LINE
  5
237E1
  8
01
 10
3358.618498160357
 20
-632.6421256968109
 30
0.0
 11
3358.619182841189
 21
-632.6425595634513
 31
0.0
  0
LINE
  5
237E2
  8
01
 10
3358.619182841189
 20
-632.6425595634513
 30
0.0
 11
3358.619860213948
 21
-632.6430063867268
 31
0.0
  0
LINE
  5
237E3
  8
01
 10
3358.619860213948
 20
-632.6430063867268
 30
0.0
 11
3358.620530279974
 21
-632.6434661669485
 31
0.0
  0
LINE
  5
237E4
  8
01
 10
3358.620530279974
 20
-632.6434661669485
 30
0.0
 11
3358.621193040613
 21
-632.6439389044302
 31
0.0
  0
LINE
  5
237E5
  8
01
 10
3358.621193040613
 20
-632.6439389044302
 30
0.0
 11
3358.621848497211
 21
-632.6444245994829
 31
0.0
  0
LINE
  5
237E6
  8
01
 10
3358.621848497211
 20
-632.6444245994829
 30
0.0
 11
3358.622496651103
 21
-632.6449232524204
 31
0.0
  0
LINE
  5
237E7
  8
01
 10
3358.622496651103
 20
-632.6449232524204
 30
0.0
 11
3358.623137503636
 21
-632.6454348635547
 31
0.0
  0
LINE
  5
237E8
  8
01
 10
3358.623137503636
 20
-632.6454348635547
 30
0.0
 11
3358.623771056154
 21
-632.6459594331985
 31
0.0
  0
LINE
  5
237E9
  8
01
 10
3358.623771056154
 20
-632.6459594331985
 30
0.0
 11
3358.624397309998
 21
-632.646496961664
 31
0.0
  0
LINE
  5
237EA
  8
01
 10
3358.624397309998
 20
-632.646496961664
 30
0.0
 11
3358.625016266512
 21
-632.6470474492647
 31
0.0
  0
LINE
  5
237EB
  8
01
 10
3358.625016266512
 20
-632.6470474492647
 30
0.0
 11
3358.625627927037
 21
-632.6476108963119
 31
0.0
  0
LINE
  5
237EC
  8
01
 10
3358.625627927037
 20
-632.6476108963119
 30
0.0
 11
3358.626829365493
 21
-632.6487766699987
 31
0.0
  0
LINE
  5
237ED
  8
01
 10
3358.626829365493
 20
-632.6487766699987
 30
0.0
 11
3358.628001636108
 21
-632.6499942852246
 31
0.0
  0
LINE
  5
237EE
  8
01
 10
3358.628001636108
 20
-632.6499942852246
 30
0.0
 11
3358.629144749629
 21
-632.6512637444906
 31
0.0
  0
LINE
  5
237EF
  8
01
 10
3358.629144749629
 20
-632.6512637444906
 30
0.0
 11
3358.630258716791
 21
-632.6525850502961
 31
0.0
  0
LINE
  5
237F0
  8
01
 10
3358.630258716791
 20
-632.6525850502961
 30
0.0
 11
3358.631343548342
 21
-632.6539582051422
 31
0.0
  0
LINE
  5
237F1
  8
01
 10
3358.631343548342
 20
-632.6539582051422
 30
0.0
 11
3358.63239925502
 21
-632.655383211529
 31
0.0
  0
LINE
  5
237F2
  8
01
 10
3358.63239925502
 20
-632.655383211529
 30
0.0
 11
3358.633425847568
 21
-632.6568600719578
 31
0.0
  0
LINE
  5
237F3
  8
01
 10
3358.633425847568
 20
-632.6568600719578
 30
0.0
 11
3358.63442333673
 21
-632.6583887889277
 31
0.0
  0
LINE
  5
237F4
  8
01
 10
3358.63442333673
 20
-632.6583887889277
 30
0.0
 11
3358.635391733248
 21
-632.6599693649399
 31
0.0
  0
LINE
  5
237F5
  8
01
 10
3358.635391733248
 20
-632.6599693649399
 30
0.0
 11
3358.636331047858
 21
-632.6616018024955
 31
0.0
  0
LINE
  5
237F6
  8
01
 10
3358.636331047858
 20
-632.6616018024955
 30
0.0
 11
3358.637241291311
 21
-632.6632861040929
 31
0.0
  0
LINE
  5
237F7
  8
01
 10
3358.637241291311
 20
-632.6632861040929
 30
0.0
 11
3358.638122474345
 21
-632.665022272235
 31
0.0
  0
LINE
  5
237F8
  8
01
 10
3358.638122474345
 20
-632.665022272235
 30
0.0
 11
3358.638974607699
 21
-632.6668103094202
 31
0.0
  0
LINE
  5
237F9
  8
01
 10
3358.638974607699
 20
-632.6668103094202
 30
0.0
 11
3358.639797702118
 21
-632.6686502181495
 31
0.0
  0
LINE
  5
237FA
  8
01
 10
3358.639797702118
 20
-632.6686502181495
 30
0.0
 11
3358.640591768343
 21
-632.6705420009242
 31
0.0
  0
LINE
  5
237FB
  8
01
 10
3358.640591768343
 20
-632.6705420009242
 30
0.0
 11
3358.641356817118
 21
-632.6724856602435
 31
0.0
  0
LINE
  5
237FC
  8
01
 10
3358.641356817118
 20
-632.6724856602435
 30
0.0
 11
3358.642092859186
 21
-632.6744811986085
 31
0.0
  0
LINE
  5
237FD
  8
01
 10
3358.642092859186
 20
-632.6744811986085
 30
0.0
 11
3358.642799905282
 21
-632.6765286185195
 31
0.0
  0
LINE
  5
237FE
  8
01
 10
3358.642799905282
 20
-632.6765286185195
 30
0.0
 11
3358.643477966157
 21
-632.6786279224774
 31
0.0
  0
LINE
  5
237FF
  8
01
 10
3358.643477966157
 20
-632.6786279224774
 30
0.0
 11
3358.644127052549
 21
-632.6807791129817
 31
0.0
  0
LINE
  5
23800
  8
01
 10
3358.644127052549
 20
-632.6807791129817
 30
0.0
 11
3358.644747175199
 21
-632.6829821925334
 31
0.0
  0
LINE
  5
23801
  8
01
 10
3358.644747175199
 20
-632.6829821925334
 30
0.0
 11
3358.645338344849
 21
-632.6852371636327
 31
0.0
  0
LINE
  5
23802
  8
01
 10
3358.645338344849
 20
-632.6852371636327
 30
0.0
 11
3358.646433868121
 21
-632.6899027904759
 31
0.0
  0
LINE
  5
23803
  8
01
 10
3358.646433868121
 20
-632.6899027904759
 30
0.0
 11
3358.647413708301
 21
-632.6947760135157
 31
0.0
  0
LINE
  5
23804
  8
01
 10
3358.647413708301
 20
-632.6947760135157
 30
0.0
 11
3358.648277951327
 21
-632.6998568527546
 31
0.0
  0
LINE
  5
23805
  8
01
 10
3358.648277951327
 20
-632.6998568527546
 30
0.0
 11
3358.649026683134
 21
-632.705145328196
 31
0.0
  0
LINE
  5
23806
  8
01
 10
3358.649026683134
 20
-632.705145328196
 30
0.0
 11
3358.649659989659
 21
-632.7106414598433
 31
0.0
  0
LINE
  5
23807
  8
01
 10
3358.649659989659
 20
-632.7106414598433
 30
0.0
 11
3358.650177956838
 21
-632.7163452676999
 31
0.0
  0
LINE
  5
23808
  8
01
 10
3358.650177956838
 20
-632.7163452676999
 30
0.0
 11
3358.650580670604
 21
-632.7222567717703
 31
0.0
  0
LINE
  5
23809
  8
01
 10
3358.650580670604
 20
-632.7222567717703
 30
0.0
 11
3358.6508682169
 21
-632.7283759920568
 31
0.0
  0
LINE
  5
2380A
  8
01
 10
3358.6508682169
 20
-632.7283759920568
 30
0.0
 11
3358.651040681655
 21
-632.7347029485621
 31
0.0
  0
LINE
  5
2380B
  8
01
 10
3358.651040681655
 20
-632.7347029485621
 30
0.0
 11
3358.65109815081
 21
-632.7412376612914
 31
0.0
  0
LINE
  5
2380C
  8
01
 10
3355.486185772922
 20
-637.590998854935
 30
0.0
 11
3323.816010528698
 21
-637.590998854935
 31
0.0
  0
LINE
  5
2380D
  8
01
 10
3323.816010528698
 20
-594.5350747237657
 30
0.0
 11
3323.818653050369
 21
-594.3320603442083
 31
0.0
  0
LINE
  5
2380E
  8
01
 10
3323.818653050369
 20
-594.3320603442083
 30
0.0
 11
3323.826562531921
 21
-594.130949541341
 31
0.0
  0
LINE
  5
2380F
  8
01
 10
3323.826562531921
 20
-594.130949541341
 30
0.0
 11
3323.839711848162
 21
-593.9319435714646
 31
0.0
  0
LINE
  5
23810
  8
01
 10
3323.839711848162
 20
-593.9319435714646
 30
0.0
 11
3323.85807387391
 21
-593.7352436908781
 31
0.0
  0
LINE
  5
23811
  8
01
 10
3323.85807387391
 20
-593.7352436908781
 30
0.0
 11
3323.881621483967
 21
-593.5410511558824
 31
0.0
  0
LINE
  5
23812
  8
01
 10
3323.881621483967
 20
-593.5410511558824
 30
0.0
 11
3323.910327553144
 21
-593.3495672227776
 31
0.0
  0
LINE
  5
23813
  8
01
 10
3323.910327553144
 20
-593.3495672227776
 30
0.0
 11
3323.944164956257
 21
-593.1609931478646
 31
0.0
  0
LINE
  5
23814
  8
01
 10
3323.944164956257
 20
-593.1609931478646
 30
0.0
 11
3323.983106568113
 21
-592.9755301874442
 31
0.0
  0
LINE
  5
23815
  8
01
 10
3323.983106568113
 20
-592.9755301874442
 30
0.0
 11
3324.027125263524
 21
-592.7933795978155
 31
0.0
  0
LINE
  5
23816
  8
01
 10
3324.027125263524
 20
-592.7933795978155
 30
0.0
 11
3324.076193917298
 21
-592.6147426352794
 31
0.0
  0
LINE
  5
23817
  8
01
 10
3324.076193917298
 20
-592.6147426352794
 30
0.0
 11
3324.130285404243
 21
-592.4398205561369
 31
0.0
  0
LINE
  5
23818
  8
01
 10
3324.130285404243
 20
-592.4398205561369
 30
0.0
 11
3324.189372599175
 21
-592.2688146166869
 31
0.0
  0
LINE
  5
23819
  8
01
 10
3324.189372599175
 20
-592.2688146166869
 30
0.0
 11
3324.253428376901
 21
-592.1019260732304
 31
0.0
  0
LINE
  5
2381A
  8
01
 10
3324.253428376901
 20
-592.1019260732304
 30
0.0
 11
3324.28731100769
 21
-592.0200887175946
 31
0.0
  0
LINE
  5
2381B
  8
01
 10
3324.28731100769
 20
-592.0200887175946
 30
0.0
 11
3324.322425612233
 21
-591.9393561820683
 31
0.0
  0
LINE
  5
2381C
  8
01
 10
3324.322425612233
 20
-591.9393561820683
 30
0.0
 11
3324.358768799876
 21
-591.8597536236915
 31
0.0
  0
LINE
  5
2381D
  8
01
 10
3324.358768799876
 20
-591.8597536236915
 30
0.0
 11
3324.396337179979
 21
-591.7813061995006
 31
0.0
  0
LINE
  5
2381E
  8
01
 10
3324.396337179979
 20
-591.7813061995006
 30
0.0
 11
3324.435127361884
 21
-591.7040390665337
 31
0.0
  0
LINE
  5
2381F
  8
01
 10
3324.435127361884
 20
-591.7040390665337
 30
0.0
 11
3324.475135954951
 21
-591.6279773818281
 31
0.0
  0
LINE
  5
23820
  8
01
 10
3324.475135954951
 20
-591.6279773818281
 30
0.0
 11
3324.515814610188
 21
-591.5541287110358
 31
0.0
  0
LINE
  5
23821
  8
01
 10
3324.515814610188
 20
-591.5541287110358
 30
0.0
 11
3324.557490012226
 21
-591.4818410364727
 31
0.0
  0
LINE
  5
23822
  8
01
 10
3324.557490012226
 20
-591.4818410364727
 30
0.0
 11
3324.60015103808
 21
-591.4111027316216
 31
0.0
  0
LINE
  5
23823
  8
01
 10
3324.60015103808
 20
-591.4111027316216
 30
0.0
 11
3324.643786564759
 21
-591.341902169965
 31
0.0
  0
LINE
  5
23824
  8
01
 10
3324.643786564759
 20
-591.341902169965
 30
0.0
 11
3324.688385469274
 21
-591.2742277249848
 31
0.0
  0
LINE
  5
23825
  8
01
 10
3324.688385469274
 20
-591.2742277249848
 30
0.0
 11
3324.733936628631
 21
-591.2080677701637
 31
0.0
  0
LINE
  5
23826
  8
01
 10
3324.733936628631
 20
-591.2080677701637
 30
0.0
 11
3324.780428919842
 21
-591.1434106789842
 31
0.0
  0
LINE
  5
23827
  8
01
 10
3324.780428919842
 20
-591.1434106789842
 30
0.0
 11
3324.82785121992
 21
-591.0802448249282
 31
0.0
  0
LINE
  5
23828
  8
01
 10
3324.82785121992
 20
-591.0802448249282
 30
0.0
 11
3324.876192405874
 21
-591.0185585814783
 31
0.0
  0
LINE
  5
23829
  8
01
 10
3324.876192405874
 20
-591.0185585814783
 30
0.0
 11
3324.925441354716
 21
-590.958340322118
 31
0.0
  0
LINE
  5
2382A
  8
01
 10
3324.925441354716
 20
-590.958340322118
 30
0.0
 11
3324.975586943451
 21
-590.8995784203283
 31
0.0
  0
LINE
  5
2382B
  8
01
 10
3324.975586943451
 20
-590.8995784203283
 30
0.0
 11
3325.026618049093
 21
-590.8422612495918
 31
0.0
  0
LINE
  5
2382C
  8
01
 10
3325.026618049093
 20
-590.8422612495918
 30
0.0
 11
3325.078523548654
 21
-590.7863771833912
 31
0.0
  0
LINE
  5
2382D
  8
01
 10
3325.078523548654
 20
-590.7863771833912
 30
0.0
 11
3325.131292319143
 21
-590.7319145952091
 31
0.0
  0
LINE
  5
2382E
  8
01
 10
3325.131292319143
 20
-590.7319145952091
 30
0.0
 11
3325.184913237567
 21
-590.6788618585282
 31
0.0
  0
LINE
  5
2382F
  8
01
 10
3325.184913237567
 20
-590.6788618585282
 30
0.0
 11
3325.239375180942
 21
-590.6272073468302
 31
0.0
  0
LINE
  5
23830
  8
01
 10
3325.239375180942
 20
-590.6272073468302
 30
0.0
 11
3325.294667026271
 21
-590.5769394335979
 31
0.0
  0
LINE
  5
23831
  8
01
 10
3325.294667026271
 20
-590.5769394335979
 30
0.0
 11
3325.350777650571
 21
-590.5280464923138
 31
0.0
  0
LINE
  5
23832
  8
01
 10
3325.350777650571
 20
-590.5280464923138
 30
0.0
 11
3325.40769593085
 21
-590.4805168964598
 31
0.0
  0
LINE
  5
23833
  8
01
 10
3325.40769593085
 20
-590.4805168964598
 30
0.0
 11
3325.465410744119
 21
-590.4343390195185
 31
0.0
  0
LINE
  5
23834
  8
01
 10
3325.465410744119
 20
-590.4343390195185
 30
0.0
 11
3325.523910967388
 21
-590.3895012349725
 31
0.0
  0
LINE
  5
23835
  8
01
 10
3325.523910967388
 20
-590.3895012349725
 30
0.0
 11
3325.583185477665
 21
-590.3459919163046
 31
0.0
  0
LINE
  5
23836
  8
01
 10
3325.583185477665
 20
-590.3459919163046
 30
0.0
 11
3325.643223151964
 21
-590.3037994369964
 31
0.0
  0
LINE
  5
23837
  8
01
 10
3325.643223151964
 20
-590.3037994369964
 30
0.0
 11
3325.704012867295
 21
-590.2629121705298
 31
0.0
  0
LINE
  5
23838
  8
01
 10
3325.704012867295
 20
-590.2629121705298
 30
0.0
 11
3325.765543500663
 21
-590.2233184903893
 31
0.0
  0
LINE
  5
23839
  8
01
 10
3325.765543500663
 20
-590.2233184903893
 30
0.0
 11
3325.827803929084
 21
-590.1850067700556
 31
0.0
  0
LINE
  5
2383A
  8
01
 10
3325.827803929084
 20
-590.1850067700556
 30
0.0
 11
3325.890783029568
 21
-590.1479653830123
 31
0.0
  0
LINE
  5
2383B
  8
01
 10
3325.890783029568
 20
-590.1479653830123
 30
0.0
 11
3325.954469679123
 21
-590.1121827027404
 31
0.0
  0
LINE
  5
2383C
  8
01
 10
3325.954469679123
 20
-590.1121827027404
 30
0.0
 11
3326.018852754761
 21
-590.0776471027233
 31
0.0
  0
LINE
  5
2383D
  8
01
 10
3326.018852754761
 20
-590.0776471027233
 30
0.0
 11
3326.083921133489
 21
-590.0443469564428
 31
0.0
  0
LINE
  5
2383E
  8
01
 10
3326.083921133489
 20
-590.0443469564428
 30
0.0
 11
3326.149663692321
 21
-590.0122706373826
 31
0.0
  0
LINE
  5
2383F
  8
01
 10
3326.149663692321
 20
-590.0122706373826
 30
0.0
 11
3326.216069308265
 21
-589.9814065190234
 31
0.0
  0
LINE
  5
23840
  8
01
 10
3326.216069308265
 20
-589.9814065190234
 30
0.0
 11
3326.284845978097
 21
-589.950986997001
 31
0.0
  0
LINE
  5
23841
  8
01
 10
3326.284845978097
 20
-589.950986997001
 30
0.0
 11
3326.354228437106
 21
-589.9218149482925
 31
0.0
  0
LINE
  5
23842
  8
01
 10
3326.354228437106
 20
-589.9218149482925
 30
0.0
 11
3326.424205611404
 21
-589.8938718942985
 31
0.0
  0
LINE
  5
23843
  8
01
 10
3326.424205611404
 20
-589.8938718942985
 30
0.0
 11
3326.494766427094
 21
-589.8671393564194
 31
0.0
  0
LINE
  5
23844
  8
01
 10
3326.494766427094
 20
-589.8671393564194
 30
0.0
 11
3326.637594687071
 21
-589.8172319146073
 31
0.0
  0
LINE
  5
23845
  8
01
 10
3326.637594687071
 20
-589.8172319146073
 30
0.0
 11
3326.782624625895
 21
-589.7719447940575
 31
0.0
  0
LINE
  5
23846
  8
01
 10
3326.782624625895
 20
-589.7719447940575
 30
0.0
 11
3326.92976765241
 21
-589.7311301659732
 31
0.0
  0
LINE
  5
23847
  8
01
 10
3326.92976765241
 20
-589.7311301659732
 30
0.0
 11
3327.078935175471
 21
-589.6946402015577
 31
0.0
  0
LINE
  5
23848
  8
01
 10
3327.078935175471
 20
-589.6946402015577
 30
0.0
 11
3327.230038603923
 21
-589.6623270720141
 31
0.0
  0
LINE
  5
23849
  8
01
 10
3327.230038603923
 20
-589.6623270720141
 30
0.0
 11
3327.38298934662
 21
-589.6340429485439
 31
0.0
  0
LINE
  5
2384A
  8
01
 10
3327.38298934662
 20
-589.6340429485439
 30
0.0
 11
3327.537698812407
 21
-589.6096400023501
 31
0.0
  0
LINE
  5
2384B
  8
01
 10
3327.537698812407
 20
-589.6096400023501
 30
0.0
 11
3327.694078410138
 21
-589.5889704046352
 31
0.0
  0
LINE
  5
2384C
  8
01
 10
3327.694078410138
 20
-589.5889704046352
 30
0.0
 11
3327.852039548658
 21
-589.5718863266032
 31
0.0
  0
LINE
  5
2384D
  8
01
 10
3327.852039548658
 20
-589.5718863266032
 30
0.0
 11
3328.011493636822
 21
-589.5582399394556
 31
0.0
  0
LINE
  5
2384E
  8
01
 10
3328.011493636822
 20
-589.5582399394556
 30
0.0
 11
3328.172352083478
 21
-589.5478834143945
 31
0.0
  0
LINE
  5
2384F
  8
01
 10
3328.172352083478
 20
-589.5478834143945
 30
0.0
 11
3328.334526297475
 21
-589.5406689226251
 31
0.0
  0
LINE
  5
23850
  8
01
 10
3328.334526297475
 20
-589.5406689226251
 30
0.0
 11
3328.497927687665
 21
-589.5364486353468
 31
0.0
  0
LINE
  5
23851
  8
01
 10
3328.497927687665
 20
-589.5364486353468
 30
0.0
 11
3328.662467662892
 21
-589.5350747237657
 31
0.0
  0
LINE
  5
23852
  8
01
 10
3350.639728638728
 20
-589.5350747237657
 30
0.0
 11
3350.804268613959
 21
-589.5364486353468
 31
0.0
  0
LINE
  5
23853
  8
01
 10
3350.804268613959
 20
-589.5364486353468
 30
0.0
 11
3350.967670004145
 21
-589.5406689226251
 31
0.0
  0
LINE
  5
23854
  8
01
 10
3350.967670004145
 20
-589.5406689226251
 30
0.0
 11
3351.129844218142
 21
-589.5478834143945
 31
0.0
  0
LINE
  5
23855
  8
01
 10
3351.129844218142
 20
-589.5478834143945
 30
0.0
 11
3351.290702664798
 21
-589.5582399394556
 31
0.0
  0
LINE
  5
23856
  8
01
 10
3351.290702664798
 20
-589.5582399394556
 30
0.0
 11
3351.450156752961
 21
-589.5718863266032
 31
0.0
  0
LINE
  5
23857
  8
01
 10
3351.450156752961
 20
-589.5718863266032
 30
0.0
 11
3351.608117891486
 21
-589.5889704046352
 31
0.0
  0
LINE
  5
23858
  8
01
 10
3351.608117891486
 20
-589.5889704046352
 30
0.0
 11
3351.764497489216
 21
-589.6096400023501
 31
0.0
  0
LINE
  5
23859
  8
01
 10
3351.764497489216
 20
-589.6096400023501
 30
0.0
 11
3351.919206955004
 21
-589.6340429485439
 31
0.0
  0
LINE
  5
2385A
  8
01
 10
3351.919206955004
 20
-589.6340429485439
 30
0.0
 11
3352.072157697697
 21
-589.6623270720141
 31
0.0
  0
LINE
  5
2385B
  8
01
 10
3352.072157697697
 20
-589.6623270720141
 30
0.0
 11
3352.223261126149
 21
-589.6946402015577
 31
0.0
  0
LINE
  5
2385C
  8
01
 10
3352.223261126149
 20
-589.6946402015577
 30
0.0
 11
3352.37242864921
 21
-589.7311301659732
 31
0.0
  0
LINE
  5
2385D
  8
01
 10
3352.37242864921
 20
-589.7311301659732
 30
0.0
 11
3352.519571675725
 21
-589.7719447940575
 31
0.0
  0
LINE
  5
2385E
  8
01
 10
3352.519571675725
 20
-589.7719447940575
 30
0.0
 11
3352.664601614549
 21
-589.8172319146073
 31
0.0
  0
LINE
  5
2385F
  8
01
 10
3352.664601614549
 20
-589.8172319146073
 30
0.0
 11
3352.80742987453
 21
-589.8671393564194
 31
0.0
  0
LINE
  5
23860
  8
01
 10
3352.80742987453
 20
-589.8671393564194
 30
0.0
 11
3352.877990690219
 21
-589.8938718942985
 31
0.0
  0
LINE
  5
23861
  8
01
 10
3352.877990690219
 20
-589.8938718942985
 30
0.0
 11
3352.947967864514
 21
-589.9218149482925
 31
0.0
  0
LINE
  5
23862
  8
01
 10
3352.947967864514
 20
-589.9218149482925
 30
0.0
 11
3353.017350323523
 21
-589.950986997001
 31
0.0
  0
LINE
  5
23863
  8
01
 10
3353.017350323523
 20
-589.950986997001
 30
0.0
 11
3353.086126993355
 21
-589.9814065190234
 31
0.0
  0
LINE
  5
23864
  8
01
 10
3353.086126993355
 20
-589.9814065190234
 30
0.0
 11
3353.152532609299
 21
-590.0122706373826
 31
0.0
  0
LINE
  5
23865
  8
01
 10
3353.152532609299
 20
-590.0122706373826
 30
0.0
 11
3353.218275168131
 21
-590.0443469564428
 31
0.0
  0
LINE
  5
23866
  8
01
 10
3353.218275168131
 20
-590.0443469564428
 30
0.0
 11
3353.283343546859
 21
-590.0776471027233
 31
0.0
  0
LINE
  5
23867
  8
01
 10
3353.283343546859
 20
-590.0776471027233
 30
0.0
 11
3353.347726622497
 21
-590.1121827027404
 31
0.0
  0
LINE
  5
23868
  8
01
 10
3353.347726622497
 20
-590.1121827027404
 30
0.0
 11
3353.411413272052
 21
-590.1479653830114
 31
0.0
  0
LINE
  5
23869
  8
01
 10
3353.411413272052
 20
-590.1479653830114
 30
0.0
 11
3353.474392372535
 21
-590.1850067700556
 31
0.0
  0
LINE
  5
2386A
  8
01
 10
3353.474392372535
 20
-590.1850067700556
 30
0.0
 11
3353.536652800957
 21
-590.2233184903893
 31
0.0
  0
LINE
  5
2386B
  8
01
 10
3353.536652800957
 20
-590.2233184903893
 30
0.0
 11
3353.598183434325
 21
-590.2629121705298
 31
0.0
  0
LINE
  5
2386C
  8
01
 10
3353.598183434325
 20
-590.2629121705298
 30
0.0
 11
3353.658973149656
 21
-590.3037994369964
 31
0.0
  0
LINE
  5
2386D
  8
01
 10
3353.658973149656
 20
-590.3037994369964
 30
0.0
 11
3353.719010823955
 21
-590.3459919163046
 31
0.0
  0
LINE
  5
2386E
  8
01
 10
3353.719010823955
 20
-590.3459919163046
 30
0.0
 11
3353.778285334231
 21
-590.3895012349725
 31
0.0
  0
LINE
  5
2386F
  8
01
 10
3353.778285334231
 20
-590.3895012349725
 30
0.0
 11
3353.836785557501
 21
-590.4343390195185
 31
0.0
  0
LINE
  5
23870
  8
01
 10
3353.836785557501
 20
-590.4343390195185
 30
0.0
 11
3353.894500370769
 21
-590.4805168964607
 31
0.0
  0
LINE
  5
23871
  8
01
 10
3353.894500370769
 20
-590.4805168964607
 30
0.0
 11
3353.951418651049
 21
-590.5280464923147
 31
0.0
  0
LINE
  5
23872
  8
01
 10
3353.951418651049
 20
-590.5280464923147
 30
0.0
 11
3354.007529275349
 21
-590.5769394335988
 31
0.0
  0
LINE
  5
23873
  8
01
 10
3354.007529275349
 20
-590.5769394335988
 30
0.0
 11
3354.062821120681
 21
-590.6272073468311
 31
0.0
  0
LINE
  5
23874
  8
01
 10
3354.062821120681
 20
-590.6272073468311
 30
0.0
 11
3354.117283064053
 21
-590.67886185853
 31
0.0
  0
LINE
  5
23875
  8
01
 10
3354.117283064053
 20
-590.67886185853
 30
0.0
 11
3354.170903982477
 21
-590.7319145952109
 31
0.0
  0
LINE
  5
23876
  8
01
 10
3354.170903982477
 20
-590.7319145952109
 30
0.0
 11
3354.223672752966
 21
-590.786377183393
 31
0.0
  0
LINE
  5
23877
  8
01
 10
3354.223672752966
 20
-590.786377183393
 30
0.0
 11
3354.275578252526
 21
-590.8422612495937
 31
0.0
  0
LINE
  5
23878
  8
01
 10
3354.275578252526
 20
-590.8422612495937
 30
0.0
 11
3354.326609358169
 21
-590.8995784203302
 31
0.0
  0
LINE
  5
23879
  8
01
 10
3354.326609358169
 20
-590.8995784203302
 30
0.0
 11
3354.376754946908
 21
-590.9583403221199
 31
0.0
  0
LINE
  5
2387A
  8
01
 10
3354.376754946908
 20
-590.9583403221199
 30
0.0
 11
3354.426003895746
 21
-591.0185585814801
 31
0.0
  0
LINE
  5
2387B
  8
01
 10
3354.426003895746
 20
-591.0185585814801
 30
0.0
 11
3354.4743450817
 21
-591.08024482493
 31
0.0
  0
LINE
  5
2387C
  8
01
 10
3354.4743450817
 20
-591.08024482493
 30
0.0
 11
3354.521767381778
 21
-591.143410678986
 31
0.0
  0
LINE
  5
2387D
  8
01
 10
3354.521767381778
 20
-591.143410678986
 30
0.0
 11
3354.568259672992
 21
-591.2080677701655
 31
0.0
  0
LINE
  5
2387E
  8
01
 10
3354.568259672992
 20
-591.2080677701655
 30
0.0
 11
3354.613810832349
 21
-591.2742277249866
 31
0.0
  0
LINE
  5
2387F
  8
01
 10
3354.613810832349
 20
-591.2742277249866
 30
0.0
 11
3354.65840973686
 21
-591.3419021699668
 31
0.0
  0
LINE
  5
23880
  8
01
 10
3354.65840973686
 20
-591.3419021699668
 30
0.0
 11
3354.70204526354
 21
-591.4111027316234
 31
0.0
  0
LINE
  5
23881
  8
01
 10
3354.70204526354
 20
-591.4111027316234
 30
0.0
 11
3354.744706289394
 21
-591.4818410364736
 31
0.0
  0
LINE
  5
23882
  8
01
 10
3354.744706289394
 20
-591.4818410364736
 30
0.0
 11
3354.786381691435
 21
-591.5541287110358
 31
0.0
  0
LINE
  5
23883
  8
01
 10
3354.786381691435
 20
-591.5541287110358
 30
0.0
 11
3354.827060346673
 21
-591.6279773818281
 31
0.0
  0
LINE
  5
23884
  8
01
 10
3354.827060346673
 20
-591.6279773818281
 30
0.0
 11
3354.867068939736
 21
-591.7040390665337
 31
0.0
  0
LINE
  5
23885
  8
01
 10
3354.867068939736
 20
-591.7040390665337
 30
0.0
 11
3354.905859121644
 21
-591.7813061995006
 31
0.0
  0
LINE
  5
23886
  8
01
 10
3354.905859121644
 20
-591.7813061995006
 30
0.0
 11
3354.943427501744
 21
-591.8597536236915
 31
0.0
  0
LINE
  5
23887
  8
01
 10
3354.943427501744
 20
-591.8597536236915
 30
0.0
 11
3354.979770689391
 21
-591.9393561820683
 31
0.0
  0
LINE
  5
23888
  8
01
 10
3354.979770689391
 20
-591.9393561820683
 30
0.0
 11
3355.01488529393
 21
-592.0200887175946
 31
0.0
  0
LINE
  5
23889
  8
01
 10
3355.01488529393
 20
-592.0200887175946
 30
0.0
 11
3355.048767924719
 21
-592.1019260732304
 31
0.0
  0
LINE
  5
2388A
  8
01
 10
3355.048767924719
 20
-592.1019260732304
 30
0.0
 11
3355.112823702445
 21
-592.2688146166869
 31
0.0
  0
LINE
  5
2388B
  8
01
 10
3355.112823702445
 20
-592.2688146166869
 30
0.0
 11
3355.171910897377
 21
-592.4398205561369
 31
0.0
  0
LINE
  5
2388C
  8
01
 10
3355.171910897377
 20
-592.4398205561369
 30
0.0
 11
3355.226002384326
 21
-592.6147426352794
 31
0.0
  0
LINE
  5
2388D
  8
01
 10
3355.226002384326
 20
-592.6147426352794
 30
0.0
 11
3355.275071038096
 21
-592.7933795978155
 31
0.0
  0
LINE
  5
2388E
  8
01
 10
3355.275071038096
 20
-592.7933795978155
 30
0.0
 11
3355.319089733507
 21
-592.9755301874442
 31
0.0
  0
LINE
  5
2388F
  8
01
 10
3355.319089733507
 20
-592.9755301874442
 30
0.0
 11
3355.358031345363
 21
-593.1609931478646
 31
0.0
  0
LINE
  5
23890
  8
01
 10
3355.358031345363
 20
-593.1609931478646
 30
0.0
 11
3355.391868748476
 21
-593.3495672227776
 31
0.0
  0
LINE
  5
23891
  8
01
 10
3355.391868748476
 20
-593.3495672227776
 30
0.0
 11
3355.420574817656
 21
-593.5410511558824
 31
0.0
  0
LINE
  5
23892
  8
01
 10
3355.420574817656
 20
-593.5410511558824
 30
0.0
 11
3355.444122427713
 21
-593.7352436908781
 31
0.0
  0
LINE
  5
23893
  8
01
 10
3355.444122427713
 20
-593.7352436908781
 30
0.0
 11
3355.462484453458
 21
-593.9319435714646
 31
0.0
  0
LINE
  5
23894
  8
01
 10
3355.462484453458
 20
-593.9319435714646
 30
0.0
 11
3355.475633769703
 21
-594.130949541341
 31
0.0
  0
LINE
  5
23895
  8
01
 10
3355.475633769703
 20
-594.130949541341
 30
0.0
 11
3355.483543251255
 21
-594.3320603442083
 31
0.0
  0
LINE
  5
23896
  8
01
 10
3355.483543251255
 20
-594.3320603442083
 30
0.0
 11
3355.486185772922
 21
-594.5350747237657
 31
0.0
  0
LINE
  5
23897
  8
01
 10
3320.65109815081
 20
-583.0350747237657
 30
0.0
 11
3320.65109815081
 21
-632.694775855049
 31
0.0
  0
LINE
  5
23898
  8
01
 10
3358.65109815081
 20
-583.0350747237657
 30
0.0
 11
3320.65109815081
 21
-583.0350747237657
 31
0.0
  0
LINE
  5
23899
  8
01
 10
3358.65109815081
 20
-583.0350747237657
 30
0.0
 11
3358.65109815081
 21
-632.6947756961821
 31
0.0
  0
LINE
  5
2389A
  8
01
 10
3355.486185772922
 20
-594.5350747237657
 30
0.0
 11
3355.486185772922
 21
-637.590998854935
 31
0.0
  0
LINE
  5
2389B
  8
01
 10
3349.997731568033
 20
-589.5350747237648
 30
0.0
 11
3350.639728638728
 21
-589.5350747237648
 31
0.0
  0
LINE
  5
2389C
  8
01
 10
3349.341333942323
 20
-589.5350747237648
 30
0.0
 11
3349.678503947866
 21
-589.5350747237648
 31
0.0
  0
LINE
  5
2389D
  8
01
 10
3348.749713392989
 20
-589.5350747237648
 30
0.0
 11
3349.005071889936
 21
-589.5350747237657
 31
0.0
  0
LINE
  5
2389E
  8
01
 10
3348.065154703515
 20
-589.5350747237648
 30
0.0
 11
3348.317530143321
 21
-589.5350747237648
 31
0.0
  0
LINE
  5
2389F
  8
01
 10
3347.371411103052
 20
-589.5350747237648
 30
0.0
 11
3347.617746308638
 21
-589.5350747237648
 31
0.0
  0
LINE
  5
238A0
  8
01
 10
3346.67040002482
 20
-589.5350747237648
 30
0.0
 11
3346.907624777711
 21
-589.5350747237648
 31
0.0
  0
LINE
  5
238A1
  8
01
 10
3345.964018438764
 20
-589.5350747237648
 30
0.0
 11
3346.189089893053
 21
-589.5350747237648
 31
0.0
  0
LINE
  5
238A2
  8
01
 10
3345.254128370764
 20
-589.5350747237657
 30
0.0
 11
3345.464069570905
 21
-589.5350747237657
 31
0.0
  0
LINE
  5
238A3
  8
01
 10
3344.542542939139
 20
-589.5350747237657
 30
0.0
 11
3344.73447932623
 21
-589.5350747237648
 31
0.0
  0
LINE
  5
238A4
  8
01
 10
3343.831014643048
 20
-589.5350747237657
 30
0.0
 11
3343.995364068304
 21
-589.5350747237648
 31
0.0
  0
LINE
  5
238A5
  8
01
 10
3343.121224200876
 20
-589.5350747237648
 30
0.0
 11
3343.275355390429
 21
-589.5350747237648
 31
0.0
  0
LINE
  5
238A6
  8
01
 10
3342.414771293405
 20
-589.5350747237648
 30
0.0
 11
3342.551542729582
 21
-589.5350747237648
 31
0.0
  0
LINE
  5
238A7
  8
01
 10
3341.807463723576
 20
-589.5350747237657
 30
0.0
 11
3341.825579526258
 21
-589.5350747237657
 31
0.0
  0
LINE
  5
238A8
  8
01
 10
3341.082306964067
 20
-589.5350747237657
 30
0.0
 11
3341.401098144709
 21
-589.5350747237648
 31
0.0
  0
LINE
  5
238A9
  8
01
 10
3340.363030435124
 20
-589.5350747237657
 30
0.0
 11
3340.373752788767
 21
-589.5350747237657
 31
0.0
  0
LINE
  5
238AA
  8
01
 10
3338.928443512853
 20
-589.5350747237657
 30
0.0
 11
3338.939166009942
 21
-589.5350747237657
 31
0.0
  0
LINE
  5
238AB
  8
01
 10
3338.203087171801
 20
-589.5350747237648
 30
0.0
 11
3338.219889625939
 21
-589.5350747237648
 31
0.0
  0
LINE
  5
238AC
  8
01
 10
3337.476616775361
 20
-589.5350747237657
 30
0.0
 11
3337.494733011993
 21
-589.5350747237657
 31
0.0
  0
LINE
  5
238AD
  8
01
 10
3336.750653572038
 20
-589.5350747237657
 30
0.0
 11
3336.887425655378
 21
-589.5350747237657
 31
0.0
  0
LINE
  5
238AE
  8
01
 10
3336.026840911191
 20
-589.5350747237657
 30
0.0
 11
3336.180972906429
 21
-589.5350747237657
 31
0.0
  0
LINE
  5
238AF
  8
01
 10
3335.306832233319
 20
-589.5350747237648
 30
0.0
 11
3335.471182619061
 21
-589.5350747237657
 31
0.0
  0
LINE
  5
238B0
  8
01
 10
3334.567717975256
 20
-589.5350747237648
 30
0.0
 11
3334.759654472716
 21
-589.5350747237657
 31
0.0
  0
LINE
  5
238B1
  8
01
 10
3333.838127861715
 20
-589.5350747237657
 30
0.0
 11
3334.048069184401
 21
-589.5350747237657
 31
0.0
  0
LINE
  5
238B2
  8
01
 10
3333.113107663888
 20
-589.5350747237648
 30
0.0
 11
3333.338179251855
 21
-589.5350747237648
 31
0.0
  0
LINE
  5
238B3
  8
01
 10
3332.394572895343
 20
-589.5350747237657
 30
0.0
 11
3332.631797791953
 21
-589.5350747237648
 31
0.0
  0
LINE
  5
238B4
  8
01
 10
3331.68445147094
 20
-589.5350747237657
 30
0.0
 11
3331.930786829135
 21
-589.5350747237657
 31
0.0
  0
LINE
  5
238B5
  8
01
 10
3330.984667731834
 20
-589.5350747237648
 30
0.0
 11
3331.237043331926
 21
-589.5350747237657
 31
0.0
  0
LINE
  5
238B6
  8
01
 10
3330.297126068518
 20
-589.5350747237648
 30
0.0
 11
3330.552484732157
 21
-589.5350747237657
 31
0.0
  0
LINE
  5
238B7
  8
01
 10
3329.623694080364
 20
-589.5350747237648
 30
0.0
 11
3329.9608623593
 21
-589.5350747237648
 31
0.0
  0
LINE
  5
238B8
  8
01
 10
3328.662467662892
 20
-589.5350747237657
 30
0.0
 11
3329.304464733591
 21
-589.5350747237648
 31
0.0
  0
LINE
  5
238B9
  8
01
 10
3323.816010528698
 20
-637.5909988549341
 30
0.0
 11
3323.816010528698
 21
-594.5350747237657
 31
0.0
  0
ARC
  5
239B2
  8
01
 10
3195.65109815081
 20
-633.0350747237657
 30
0.0
 40
0.5
 50
90.0
 51
180.0
  0
ARC
  5
239B3
  8
01
 10
3195.65109815081
 20
-653.5350747237648
 30
0.0
 40
0.5
 50
180.0
 51
270.0
  0
ARC
  5
239B4
  8
01
 10
3483.65109815081
 20
-633.0350747237657
 30
0.0
 40
0.5
 50
0.0
 51
90.0
  0
ARC
  5
239B5
  8
01
 10
3483.65109815081
 20
-653.5350747237648
 30
0.0
 40
0.5
 50
270.0
 51
0.0
  0
LINE
  5
239B9
  8
01
 10
3337.591327326673
 20
-597.9891482402821
 30
0.0
 11
3336.693584495572
 21
-595.9822715686727
 31
0.0
  0
LINE
  5
239BA
  8
01
 10
3335.663610790444
 20
-597.9891259416521
 30
0.0
 11
3336.142808342363
 21
-597.9891259416521
 31
0.0
  0
LINE
  5
239BB
  8
01
 10
3337.244137662484
 20
-597.9891259416521
 30
0.0
 11
3337.591327326673
 21
-597.9891259416521
 31
0.0
  0
LINE
  5
239BC
  8
01
 10
3338.990789325674
 20
-597.9891259416521
 30
0.0
 11
3339.337978989864
 21
-597.9891259416521
 31
0.0
  0
LINE
  5
23A77
  8
1DIM
 10
3326.650996624797
 20
-590.0350747237657
 30
0.0
 11
3328.750996624796
 21
-590.0350747237657
 31
0.0
  0
LINE
  5
23A7B
  8
1DIM
 10
3324.550996624796
 20
-590.0350747237657
 30
0.0
 11
3326.650996624797
 21
-590.0350747237657
 31
0.0
  0
LINE
  5
23A7C
  8
1DIM
 10
3326.650996624797
 20
-546.0350665798773
 30
0.0
 11
3325.150996624797
 21
-551.3350630897379
 31
0.0
  0
LINE
  5
23A7D
  8
1DIM
 10
3325.150996624797
 20
-551.3350630897379
 30
0.0
 11
3325.150996624797
 21
-590.0350747237657
 31
0.0
  0
LINE
  5
23A7E
  8
1DIM
 10
3325.150996624797
 20
-591.0350712335725
 30
0.0
 11
3323.150950088899
 21
-591.0350665798773
 31
0.0
  0
LINE
  5
23A7F
  8
1DIM
 10
3323.150950088899
 20
-591.0350665798773
 30
0.0
 11
3323.150950088899
 21
-592.1350700700726
 31
0.0
  0
ARC
  5
23A80
  8
1DIM
 10
3324.650950088899
 20
-592.1350700700726
 30
0.0
 40
1.5
 50
180.0
 51
269.999866684475
  0
LINE
  5
23A81
  8
1DIM
 10
3324.650946598706
 20
-593.635070070069
 30
0.0
 11
3328.650946598706
 21
-593.6350793772484
 31
0.0
  0
ARC
  5
23A82
  8
1DIM
 10
3328.650950088899
 20
-592.135079377252
 30
0.0
 40
1.5
 50
269.999866684475
 51
0.0
  0
LINE
  5
23A83
  8
1DIM
 10
3330.150950088899
 20
-592.135079377252
 30
0.0
 11
3330.150950088899
 21
-591.0350828674394
 31
0.0
  0
LINE
  5
23A84
  8
1DIM
 10
3330.150950088899
 20
-591.0350828674394
 30
0.0
 11
3328.150996624797
 21
-591.0350782139589
 31
0.0
  0
LINE
  5
23A85
  8
1DIM
 10
3328.150996624797
 20
-590.0350747237657
 30
0.0
 11
3328.150996624797
 21
-551.3350700701243
 31
0.0
  0
LINE
  5
23A86
  8
1DIM
 10
3328.150996624797
 20
-551.3350700701243
 30
0.0
 11
3326.650996624797
 21
-546.0350665798773
 31
0.0
  0
LINE
  5
23A87
  8
1CENTER
 10
3326.650996624797
 20
-544.1038837233076
 30
0.0
 11
3326.650996624797
 21
-595.4350747237671
 31
0.0
  0
LINE
  5
23A88
  8
1DIM
 10
3325.556626274903
 20
-548.1350640335562
 30
0.0
 11
3327.518961363779
 21
-547.3350685995041
 31
0.0
  0
LINE
  5
23A89
  8
1DIM
 10
3327.518961363779
 20
-547.3350685995041
 30
0.0
 11
3326.930684788736
 21
-547.0232987432513
 31
0.0
  0
LINE
  5
23A8A
  8
1DIM
 10
3324.650996624797
 20
-585.5350700702887
 30
0.0
 11
3328.650996624797
 21
-584.7350793774689
 31
0.0
  0
LINE
  5
23A8B
  8
1DIM
 10
3324.650996624797
 20
-569.3352263532882
 30
0.0
 11
3328.650996624797
 21
-568.5352356604648
 31
0.0
  0
LINE
  5
23A8C
  8
1DIM
 10
3324.650996624797
 20
-556.1350619263407
 30
0.0
 11
3328.650996624797
 21
-555.3350712335172
 31
0.0
  0
LINE
  5
23A8D
  8
1DIM
 10
3325.150996624797
 20
-554.6350630897372
 30
0.0
 11
3324.650996624797
 21
-554.5350619263421
 31
0.0
  0
LINE
  5
23A8E
  8
1DIM
 10
3325.150996624797
 20
-556.2350630897394
 30
0.0
 11
3324.650996624797
 21
-556.1350619263407
 31
0.0
  0
LINE
  5
23A8F
  8
1DIM
 10
3325.150996624797
 20
-562.8350630897379
 30
0.0
 11
3324.650996624797
 21
-562.7350619263428
 31
0.0
  0
LINE
  5
23A90
  8
1DIM
 10
3324.650996624797
 20
-562.7350619263428
 30
0.0
 11
3328.650996624797
 21
-561.9350712335194
 31
0.0
  0
LINE
  5
23A91
  8
1DIM
 10
3327.971775468186
 20
-548.9350696531086
 30
0.0
 11
3327.420026004383
 21
-548.7523055104806
 31
0.0
  0
LINE
  5
23A92
  8
1DIM
 10
3325.571911222005
 20
-549.8478324923029
 30
0.0
 11
3325.103812766855
 21
-549.7350629799524
 31
0.0
  0
LINE
  5
23A93
  8
1DIM
 10
3325.150996624797
 20
-553.0350630897386
 30
0.0
 11
3324.650996624797
 21
-552.9350619263399
 31
0.0
  0
LINE
  5
23A94
  8
1DIM
 10
3325.150996624797
 20
-551.4350630897364
 30
0.0
 11
3324.650996624797
 21
-551.3350619263414
 31
0.0
  0
LINE
  5
23A95
  8
1DIM
 10
3326.013798115535
 20
-548.2864998299968
 30
0.0
 11
3325.556626274903
 21
-548.1350640335562
 31
0.0
  0
LINE
  5
23A96
  8
1DIM
 10
3325.103812766855
 20
-549.7350629799524
 30
0.0
 11
3327.971775468186
 21
-548.9350696531086
 31
0.0
  0
LINE
  5
23A97
  8
1DIM
 10
3324.650996624797
 20
-552.9350619263399
 30
0.0
 11
3328.650996624797
 21
-552.1350712335201
 31
0.0
  0
LINE
  5
23A98
  8
1DIM
 10
3324.650996624797
 20
-551.3350619263414
 30
0.0
 11
3328.424589572593
 21
-550.5350707067167
 31
0.0
  0
LINE
  5
23A99
  8
1DIM
 10
3324.650996624797
 20
-554.5350619263421
 30
0.0
 11
3328.650996624797
 21
-553.7350712335186
 31
0.0
  0
LINE
  5
23A9A
  8
1DIM
 10
3324.650996624797
 20
-582.335070070288
 30
0.0
 11
3328.650996624797
 21
-581.5350793774718
 31
0.0
  0
LINE
  5
23A9B
  8
1DIM
 10
3328.650996624797
 20
-581.5350793774718
 30
0.0
 11
3328.150996624797
 21
-581.4350782140731
 31
0.0
  0
LINE
  5
23A9C
  8
1DIM
 10
3328.650996624797
 20
-583.1350793774703
 30
0.0
 11
3328.150996624797
 21
-583.0350782140716
 31
0.0
  0
LINE
  5
23A9D
  8
1DIM
 10
3328.650996624797
 20
-584.7350793774689
 30
0.0
 11
3328.150996624797
 21
-584.6350782140738
 31
0.0
  0
LINE
  5
23A9E
  8
1DIM
 10
3324.650996624797
 20
-583.9350700702902
 30
0.0
 11
3328.650996624797
 21
-583.1350793774703
 31
0.0
  0
LINE
  5
23A9F
  8
1DIM
 10
3325.150996624797
 20
-569.4352275166833
 30
0.0
 11
3324.650996624797
 21
-569.3352263532882
 31
0.0
  0
LINE
  5
23AA0
  8
1DIM
 10
3325.150996624797
 20
-576.0350712336816
 30
0.0
 11
3324.650996624797
 21
-575.9350700702829
 31
0.0
  0
LINE
  5
23AA1
  8
1DIM
 10
3325.150996624797
 20
-579.2350712336823
 30
0.0
 11
3324.650996624797
 21
-579.1350700702836
 31
0.0
  0
LINE
  5
23AA2
  8
1DIM
 10
3325.150996624797
 20
-577.6350712336802
 30
0.0
 11
3324.650996624797
 21
-577.5350700702851
 31
0.0
  0
LINE
  5
23AA3
  8
1DIM
 10
3324.650996624797
 20
-577.5350700702851
 30
0.0
 11
3328.650996624797
 21
-576.7350793774652
 31
0.0
  0
LINE
  5
23AA4
  8
1DIM
 10
3324.650996624797
 20
-575.9350700702829
 30
0.0
 11
3328.650996624797
 21
-575.1350793774631
 31
0.0
  0
LINE
  5
23AA5
  8
1DIM
 10
3324.650996624797
 20
-579.1350700702836
 30
0.0
 11
3328.650996624797
 21
-578.3350793774674
 31
0.0
  0
LINE
  5
23AA6
  8
1DIM
 10
3324.650996624797
 20
-580.7350700702858
 30
0.0
 11
3328.650996624797
 21
-579.935079377466
 31
0.0
  0
LINE
  5
23AA7
  8
1DIM
 10
3328.150996624797
 20
-591.0350782139589
 30
0.0
 11
3325.150996624797
 21
-591.0350712335725
 31
0.0
  0
LINE
  5
23AA8
  8
1DIM
 10
3326.150990808325
 20
-590.0350747237657
 30
0.0
 11
3328.650996624797
 21
-589.5350793774754
 31
0.0
  0
LINE
  5
23AA9
  8
1DIM
 10
3328.650996624797
 20
-589.5350793774754
 30
0.0
 11
3328.150996624797
 21
-589.4350782140767
 31
0.0
  0
LINE
  5
23AAA
  8
1DIM
 10
3325.150996624797
 20
-588.8350712336918
 30
0.0
 11
3324.650996624797
 21
-588.7350700702931
 31
0.0
  0
LINE
  5
23AAB
  8
1DIM
 10
3325.150996624797
 20
-587.2350712336896
 30
0.0
 11
3324.650996624797
 21
-587.1350700702945
 31
0.0
  0
LINE
  5
23AAC
  8
1DIM
 10
3324.650996624797
 20
-587.1350700702945
 30
0.0
 11
3328.650996624797
 21
-586.3350793774747
 31
0.0
  0
LINE
  5
23AAD
  8
1DIM
 10
3328.650996624797
 20
-587.9350793774732
 30
0.0
 11
3328.150996624797
 21
-587.8350782140782
 31
0.0
  0
LINE
  5
23AAE
  8
1DIM
 10
3328.650996624797
 20
-586.3350793774747
 30
0.0
 11
3328.150996624797
 21
-586.235078214076
 31
0.0
  0
LINE
  5
23AAF
  8
1DIM
 10
3324.650996624797
 20
-588.7350700702931
 30
0.0
 11
3328.650996624797
 21
-587.9350793774732
 31
0.0
  0
LINE
  5
23AB0
  8
1DIM
 10
3325.150996624797
 20
-585.6350712336874
 30
0.0
 11
3324.650996624797
 21
-585.5350700702887
 31
0.0
  0
LINE
  5
23AB1
  8
1DIM
 10
3330.450996624797
 20
-590.0350747237657
 30
0.0
 11
3322.850996624797
 21
-590.0350747237657
 31
0.0
  0
LINE
  5
23AB2
  8
1DIM
 10
3322.850996624797
 20
-590.0350747237657
 30
0.0
 11
3322.850996624797
 21
-591.0350747237657
 31
0.0
  0
LINE
  5
23AB3
  8
1DIM
 10
3322.850996624797
 20
-591.0350747237657
 30
0.0
 11
3330.450996624797
 21
-591.0350747237657
 31
0.0
  0
LINE
  5
23AB4
  8
1DIM
 10
3330.450996624797
 20
-591.0350747237657
 30
0.0
 11
3330.450996624797
 21
-590.0350747237657
 31
0.0
  0
LINE
  5
23AB5
  8
1DIM
 10
3325.150996624797
 20
-561.2350630897394
 30
0.0
 11
3324.650996624797
 21
-561.1350619263407
 31
0.0
  0
LINE
  5
23AB6
  8
1DIM
 10
3324.650996624797
 20
-561.1350619263407
 30
0.0
 11
3328.650996624797
 21
-560.3350712335172
 31
0.0
  0
LINE
  5
23AB7
  8
1DIM
 10
3325.150996624797
 20
-559.6350630897372
 30
0.0
 11
3324.650996624797
 21
-559.5350619263421
 31
0.0
  0
LINE
  5
23AB8
  8
1DIM
 10
3324.650996624797
 20
-559.5350619263421
 30
0.0
 11
3328.650996624797
 21
-558.7350712335186
 31
0.0
  0
LINE
  5
23AB9
  8
1DIM
 10
3325.150996624797
 20
-558.0350630897386
 30
0.0
 11
3324.650996624797
 21
-557.9350619263399
 31
0.0
  0
LINE
  5
23ABA
  8
1DIM
 10
3324.650996624797
 20
-557.9350619263399
 30
0.0
 11
3328.650996624797
 21
-557.1350712335164
 31
0.0
  0
LINE
  5
23ABB
  8
1DIM
 10
3328.650996624797
 20
-579.935079377466
 30
0.0
 11
3328.150996624797
 21
-579.8350782140709
 31
0.0
  0
LINE
  5
23ABC
  8
1DIM
 10
3328.650996624797
 20
-578.3350793774674
 30
0.0
 11
3328.150996624797
 21
-578.2350782140724
 31
0.0
  0
LINE
  5
23ABD
  8
1DIM
 10
3328.650996624797
 20
-576.7350793774652
 30
0.0
 11
3328.150996624797
 21
-576.6350782140702
 31
0.0
  0
LINE
  5
23ABE
  8
1DIM
 10
3328.650996624797
 20
-575.1350793774631
 30
0.0
 11
3328.150996624797
 21
-575.035078214068
 31
0.0
  0
LINE
  5
23ABF
  8
1DIM
 10
3328.650996624797
 20
-563.5350712335179
 30
0.0
 11
3328.150996624797
 21
-563.4350700701228
 31
0.0
  0
LINE
  5
23AC0
  8
1DIM
 10
3328.650996624797
 20
-561.9350712335194
 30
0.0
 11
3328.150996624797
 21
-561.8350700701243
 31
0.0
  0
LINE
  5
23AC1
  8
1DIM
 10
3328.650996624797
 20
-560.3350712335172
 30
0.0
 11
3328.150996624797
 21
-560.2350700701221
 31
0.0
  0
LINE
  5
23AC2
  8
1DIM
 10
3328.650996624797
 20
-558.7350712335186
 30
0.0
 11
3328.150996624797
 21
-558.6350700701236
 31
0.0
  0
LINE
  5
23AC3
  8
1DIM
 10
3328.650996624797
 20
-557.1350712335164
 30
0.0
 11
3328.150996624797
 21
-557.0350700701214
 31
0.0
  0
LINE
  5
23AC4
  8
1DIM
 10
3328.650996624797
 20
-555.3350712335172
 30
0.0
 11
3328.150996624797
 21
-555.2350700701221
 31
0.0
  0
LINE
  5
23AC5
  8
1DIM
 10
3328.650996624797
 20
-553.7350712335186
 30
0.0
 11
3328.150996624797
 21
-553.6350700701236
 31
0.0
  0
LINE
  5
23AC6
  8
1DIM
 10
3328.650996624797
 20
-552.1350712335201
 30
0.0
 11
3328.150996624797
 21
-552.035070070125
 31
0.0
  0
LINE
  5
23AC7
  8
1DIM
 10
3328.424589572593
 20
-550.5350707067167
 30
0.0
 11
3327.872840108789
 21
-550.3523065640887
 31
0.0
  0
LINE
  5
23AC8
  8
1DIM
 10
3325.150996624797
 20
-580.8350712336845
 30
0.0
 11
3324.650996624797
 21
-580.7350700702858
 31
0.0
  0
LINE
  5
23AC9
  8
1DIM
 10
3325.150996624797
 20
-582.4350712336867
 30
0.0
 11
3324.650996624797
 21
-582.335070070288
 31
0.0
  0
LINE
  5
23ACA
  8
1DIM
 10
3325.150996624797
 20
-584.0350712336889
 30
0.0
 11
3324.650996624797
 21
-583.9350700702902
 31
0.0
  0
LINE
  5
23ACB
  8
1DIM
 10
3325.150996624797
 20
-572.8350712336809
 30
0.0
 11
3324.650996624797
 21
-572.7350700702822
 31
0.0
  0
LINE
  5
23ACC
  8
1DIM
 10
3325.150996624797
 20
-574.4350712336794
 30
0.0
 11
3324.650996624797
 21
-574.3350700702844
 31
0.0
  0
LINE
  5
23ACD
  8
1DIM
 10
3324.650996624797
 20
-574.3350700702844
 30
0.0
 11
3328.650996624797
 21
-573.5350793774645
 31
0.0
  0
LINE
  5
23ACE
  8
1DIM
 10
3324.650996624797
 20
-572.7350700702822
 30
0.0
 11
3328.650996624797
 21
-571.9350793774623
 31
0.0
  0
LINE
  5
23ACF
  8
1DIM
 10
3328.650996624797
 20
-573.5350793774645
 30
0.0
 11
3328.150996624797
 21
-573.4350782140694
 31
0.0
  0
LINE
  5
23AD0
  8
1DIM
 10
3328.650996624797
 20
-571.9350793774623
 30
0.0
 11
3328.150996624797
 21
-571.8350782140673
 31
0.0
  0
LINE
  5
23AD1
  8
1DIM
 10
3325.150996624797
 20
-571.2350712336823
 30
0.0
 11
3324.650996624797
 21
-571.1350700702836
 31
0.0
  0
LINE
  5
23AD2
  8
1DIM
 10
3324.650996624797
 20
-571.1350700702836
 30
0.0
 11
3328.650996624797
 21
-570.3350793774638
 31
0.0
  0
LINE
  5
23AD3
  8
1DIM
 10
3328.650996624797
 20
-570.3350793774638
 30
0.0
 11
3328.150996624797
 21
-570.2350782140687
 31
0.0
  0
LINE
  5
23AD4
  8
1DIM
 10
3324.650996624797
 20
-564.3350619263414
 30
0.0
 11
3328.650996624797
 21
-563.5350712335179
 31
0.0
  0
LINE
  5
23AD5
  8
1DIM
 10
3325.150996624797
 20
-564.4350630897364
 30
0.0
 11
3324.650996624797
 21
-564.3350619263414
 31
0.0
  0
LINE
  5
23AD6
  8
1DIM
 10
3328.650996624797
 20
-568.5352356604648
 30
0.0
 11
3328.150996624797
 21
-568.4352344970697
 31
0.0
  0
LINE
  5
23AD7
  8
1DIM
 10
3324.650996624797
 20
-565.9353826362907
 30
0.0
 11
3328.650996624797
 21
-565.1353919434672
 31
0.0
  0
LINE
  5
23AD8
  8
1DIM
 10
3325.150996624797
 20
-566.0353837996857
 30
0.0
 11
3324.650996624797
 21
-565.9353826362907
 31
0.0
  0
LINE
  5
23AD9
  8
1DIM
 10
3325.150996624797
 20
-569.4352275166833
 30
0.0
 11
3324.650996624797
 21
-569.3352263532846
 31
0.0
  0
LINE
  5
23ADA
  8
1DIM
 10
3324.650996624797
 20
-569.3352263532846
 30
0.0
 11
3328.650996624797
 21
-568.5352356604648
 31
0.0
  0
LINE
  5
23ADB
  8
1DIM
 10
3328.650996624797
 20
-568.5352356604648
 30
0.0
 11
3328.150996624797
 21
-568.4352344970697
 31
0.0
  0
LINE
  5
23ADC
  8
1DIM
 10
3325.150996624797
 20
-567.8352275166848
 30
0.0
 11
3324.650996624797
 21
-567.7352263532861
 31
0.0
  0
LINE
  5
23ADD
  8
1DIM
 10
3324.650996624797
 20
-567.7352263532861
 30
0.0
 11
3328.650996624797
 21
-566.9352356604662
 31
0.0
  0
LINE
  5
23ADE
  8
1DIM
 10
3328.650996624797
 20
-566.9352356604662
 30
0.0
 11
3328.150996624797
 21
-566.8352344970712
 31
0.0
  0
LINE
  5
23ADF
  8
1DIM
 10
3328.650996624797
 20
-565.1353919434672
 30
0.0
 11
3328.150996624797
 21
-565.0353907800721
 31
0.0
  0
LINE
  5
23B84
  8
1DIM
 10
3340.776016415875
 20
-594.2112185387793
 30
0.0
 11
3340.776051317799
 21
-560.2863313881769
 31
0.0
  0
LINE
  5
23B85
  8
1DIM
 10
3340.776051317799
 20
-560.2863313881769
 30
0.0
 11
3339.651051317799
 21
-556.3113287704925
 31
0.0
  0
LINE
  5
23B86
  8
1DIM
 10
3339.651051317799
 20
-556.3113287704925
 30
0.0
 11
3338.526051317799
 21
-560.2863261528889
 31
0.0
  0
LINE
  5
23B87
  8
1DIM
 10
3338.526051317799
 20
-560.2863261528889
 30
0.0
 11
3338.526016415875
 21
-594.2111696760055
 31
0.0
  0
LINE
  5
23B88
  8
1DIM
 10
3338.526016415875
 20
-594.2111696760055
 30
0.0
 11
3336.650981513951
 21
-596.0861914895083
 31
0.0
  0
LINE
  5
23B89
  8
1DIM
 10
3336.650981513951
 20
-596.0861914895083
 30
0.0
 11
3336.650981513951
 21
-596.3111914895069
 31
0.0
  0
LINE
  5
23B8A
  8
1DIM
 10
3336.650981513951
 20
-596.3111914895069
 30
0.0
 11
3342.650981513951
 21
-596.3112054502797
 31
0.0
  0
LINE
  5
23B8B
  8
1DIM
 10
3342.650981513951
 20
-596.3112054502797
 30
0.0
 11
3342.650981513951
 21
-596.0862054502775
 31
0.0
  0
LINE
  5
23B8C
  8
1DIM
 10
3342.650981513951
 20
-596.0862054502775
 30
0.0
 11
3340.776016415875
 21
-594.2112185387793
 31
0.0
  0
LINE
  5
23B8D
  8
1CENTER
 10
3339.650981513951
 20
-554.9703263269164
 30
0.0
 11
3339.650981513951
 21
-597.3451761124468
 31
0.0
  0
LINE
  5
23B8E
  8
1DIM
 10
3338.151051317799
 20
-567.9099565565609
 30
0.0
 11
3341.151051317799
 21
-567.3099635369451
 31
0.0
  0
LINE
  5
23B8F
  8
1DIM
 10
3341.151051317799
 20
-567.3099635369451
 30
0.0
 11
3340.776051317799
 21
-567.234962664397
 31
0.0
  0
LINE
  5
23B90
  8
1DIM
 10
3338.841737265705
 20
-559.1709032048109
 30
0.0
 11
3338.490663424342
 21
-559.0863260705498
 31
0.0
  0
LINE
  5
23B91
  8
1DIM
 10
3340.302024872035
 20
-557.2863302852145
 30
0.0
 11
3339.860817440753
 21
-557.0525028930258
 31
0.0
  0
LINE
  5
23B92
  8
1DIM
 10
3339.173152435852
 20
-557.9999037080831
 30
0.0
 11
3338.830273555378
 21
-557.8863268607545
 31
0.0
  0
LINE
  5
23B93
  8
1DIM
 10
3340.64163545034
 20
-558.486331075417
 30
0.0
 11
3340.227823352488
 21
-558.3492579684478
 31
0.0
  0
LINE
  5
23B94
  8
1DIM
 10
3338.830273555378
 20
-557.8863268607545
 30
0.0
 11
3340.302024872035
 21
-557.2863302852145
 31
0.0
  0
LINE
  5
23B95
  8
1DIM
 10
3338.490663424342
 20
-559.0863260705498
 30
0.0
 11
3340.64163545034
 21
-558.486331075417
 31
0.0
  0
LINE
  5
23B96
  8
1DIM
 10
3338.151051317799
 20
-566.7099565565638
 30
0.0
 11
3341.151051317799
 21
-566.1099635369444
 31
0.0
  0
LINE
  5
23B97
  8
1DIM
 10
3338.151051317799
 20
-565.5099565565631
 30
0.0
 11
3341.151051317799
 21
-564.9099635369473
 31
0.0
  0
LINE
  5
23B98
  8
1DIM
 10
3338.526051317799
 20
-565.5849574291112
 30
0.0
 11
3338.151051317799
 21
-565.5099565565631
 31
0.0
  0
LINE
  5
23B99
  8
1DIM
 10
3341.151051317799
 20
-564.9099635369473
 30
0.0
 11
3340.776051317799
 21
-564.8349626643992
 31
0.0
  0
LINE
  5
23B9A
  8
1DIM
 10
3341.151051317799
 20
-566.1099635369444
 30
0.0
 11
3340.776051317799
 21
-566.0349626643963
 31
0.0
  0
LINE
  5
23B9B
  8
1DIM
 10
3340.981246028645
 20
-559.6863318656231
 30
0.0
 11
3340.578800727192
 21
-559.5893788424016
 31
0.0
  0
LINE
  5
23B9C
  8
1DIM
 10
3338.151051317799
 20
-560.2863252803415
 30
0.0
 11
3340.981246028645
 21
-559.6863318656231
 31
0.0
  0
LINE
  5
23B9D
  8
1DIM
 10
3338.526051317799
 20
-560.3613261528897
 30
0.0
 11
3338.151051317799
 21
-560.2863252803415
 31
0.0
  0
LINE
  5
23B9E
  8
1DIM
 10
3338.526051317799
 20
-566.784957429112
 30
0.0
 11
3338.151051317799
 21
-566.7099565565638
 31
0.0
  0
LINE
  5
23B9F
  8
1DIM
 10
3338.151016415875
 20
-576.2861949798623
 30
0.0
 11
3341.151016415875
 21
-575.6862019602465
 31
0.0
  0
LINE
  5
23BA0
  8
1DIM
 10
3338.151016415875
 20
-575.0861949798616
 30
0.0
 11
3341.151016415875
 21
-574.4862019602458
 31
0.0
  0
LINE
  5
23BA1
  8
1DIM
 10
3338.526051317799
 20
-567.984957429109
 30
0.0
 11
3338.151051317799
 21
-567.9099565565609
 31
0.0
  0
LINE
  5
23BA2
  8
1DIM
 10
3338.526016415875
 20
-575.1611958524097
 30
0.0
 11
3338.151016415875
 21
-575.0861949798616
 31
0.0
  0
LINE
  5
23BA3
  8
1DIM
 10
3341.151016415875
 20
-574.4862019602458
 30
0.0
 11
3340.776016415875
 21
-574.4112010876977
 31
0.0
  0
LINE
  5
23BA4
  8
1DIM
 10
3341.151016415875
 20
-575.6862019602465
 30
0.0
 11
3340.776016415875
 21
-575.6112010876984
 31
0.0
  0
LINE
  5
23BA5
  8
1DIM
 10
3338.526016415875
 20
-576.3611958524104
 30
0.0
 11
3338.151016415875
 21
-576.2861949798623
 31
0.0
  0
LINE
  5
23BA6
  8
1DIM
 10
3341.151051317799
 20
-563.7099635369466
 30
0.0
 11
3340.776051317799
 21
-563.6349626643985
 31
0.0
  0
LINE
  5
23BA7
  8
1DIM
 10
3338.151051317799
 20
-564.3099565565624
 30
0.0
 11
3341.151051317799
 21
-563.7099635369466
 31
0.0
  0
LINE
  5
23BA8
  8
1DIM
 10
3338.526051317799
 20
-564.3849574291105
 30
0.0
 11
3338.151051317799
 21
-564.3099565565624
 31
0.0
  0
LINE
  5
23BA9
  8
1DIM
 10
3338.151051317799
 20
-563.1099565565617
 30
0.0
 11
3341.151051317799
 21
-562.5099635369459
 31
0.0
  0
LINE
  5
23BAA
  8
1DIM
 10
3341.151051317799
 20
-562.5099635369459
 30
0.0
 11
3340.776051317799
 21
-562.4349626643977
 31
0.0
  0
LINE
  5
23BAB
  8
1DIM
 10
3338.526051317799
 20
-563.1849574291098
 30
0.0
 11
3338.151051317799
 21
-563.1099565565617
 31
0.0
  0
LINE
  5
23BAC
  8
1DIM
 10
3341.151051317799
 20
-561.4673509744841
 30
0.0
 11
3340.776051317799
 21
-561.392350101936
 31
0.0
  0
LINE
  5
23BAD
  8
1DIM
 10
3338.151051317799
 20
-562.0673439940999
 30
0.0
 11
3341.151051317799
 21
-561.4673509744841
 31
0.0
  0
LINE
  5
23BAE
  8
1DIM
 10
3338.526051317799
 20
-562.142344866648
 30
0.0
 11
3338.151051317799
 21
-562.0673439940999
 31
0.0
  0
LINE
  5
23BAF
  8
1DIM
 10
3338.151016415875
 20
-591.8861949798718
 30
0.0
 11
3341.151016415875
 21
-591.2862019602596
 31
0.0
  0
LINE
  5
23BB0
  8
1DIM
 10
3338.526016415875
 20
-590.7611958524192
 30
0.0
 11
3338.151016415875
 21
-590.6861949798674
 31
0.0
  0
LINE
  5
23BB1
  8
1DIM
 10
3341.151016415875
 20
-591.2862019602596
 30
0.0
 11
3340.776016415875
 21
-591.2112010877115
 31
0.0
  0
LINE
  5
23BB2
  8
1DIM
 10
3338.526016415875
 20
-588.3611958524177
 30
0.0
 11
3338.151016415875
 21
-588.2861949798696
 31
0.0
  0
LINE
  5
23BB3
  8
1DIM
 10
3338.151016415875
 20
-589.4861949798703
 30
0.0
 11
3341.151016415875
 21
-588.8862019602545
 31
0.0
  0
LINE
  5
23BB4
  8
1DIM
 10
3341.151016415875
 20
-588.8862019602545
 30
0.0
 11
3340.776016415875
 21
-588.8112010877064
 31
0.0
  0
LINE
  5
23BB5
  8
1DIM
 10
3338.526016415875
 20
-589.5611958524185
 30
0.0
 11
3338.151016415875
 21
-589.4861949798703
 31
0.0
  0
LINE
  5
23BB6
  8
1DIM
 10
3341.151016415875
 20
-590.0862019602553
 30
0.0
 11
3340.776016415875
 21
-590.0112010877071
 31
0.0
  0
LINE
  5
23BB7
  8
1DIM
 10
3341.151016415875
 20
-586.4862019602531
 30
0.0
 11
3340.776016415875
 21
-586.411201087705
 31
0.0
  0
LINE
  5
23BB8
  8
1DIM
 10
3341.151016415875
 20
-587.6862019602538
 30
0.0
 11
3340.776016415875
 21
-587.6112010877057
 31
0.0
  0
LINE
  5
23BB9
  8
1DIM
 10
3338.526016415875
 20
-587.161195852417
 30
0.0
 11
3338.151016415875
 21
-587.0861949798689
 31
0.0
  0
LINE
  5
23BBA
  8
1DIM
 10
3338.151016415875
 20
-587.0861949798689
 30
0.0
 11
3341.151016415875
 21
-586.4862019602531
 31
0.0
  0
LINE
  5
23BBB
  8
1DIM
 10
3338.151016415875
 20
-588.2861949798696
 30
0.0
 11
3341.151016415875
 21
-587.6862019602538
 31
0.0
  0
LINE
  5
23BBC
  8
1DIM
 10
3338.151016415875
 20
-590.6861949798674
 30
0.0
 11
3341.151016415875
 21
-590.0862019602553
 31
0.0
  0
LINE
  5
23BBD
  8
1DIM
 10
3338.526016415875
 20
-585.9611958524163
 30
0.0
 11
3338.151016415875
 21
-585.8861949798682
 31
0.0
  0
LINE
  5
23BBE
  8
1DIM
 10
3341.151016415875
 20
-585.2862019602524
 30
0.0
 11
3340.776016415875
 21
-585.2112010877042
 31
0.0
  0
LINE
  5
23BBF
  8
1DIM
 10
3341.151016415875
 20
-584.0862019602516
 30
0.0
 11
3340.776016415875
 21
-584.0112010877035
 31
0.0
  0
LINE
  5
23BC0
  8
1DIM
 10
3338.526016415875
 20
-584.7611958524155
 30
0.0
 11
3338.151016415875
 21
-584.6861949798674
 31
0.0
  0
LINE
  5
23BC1
  8
1DIM
 10
3338.526016415875
 20
-583.5611958524185
 30
0.0
 11
3338.151016415875
 21
-583.4861949798703
 31
0.0
  0
LINE
  5
23BC2
  8
1DIM
 10
3338.151016415875
 20
-584.6861949798674
 30
0.0
 11
3341.151016415875
 21
-584.0862019602516
 31
0.0
  0
LINE
  5
23BC3
  8
1DIM
 10
3338.151016415875
 20
-585.8861949798682
 30
0.0
 11
3341.151016415875
 21
-585.2862019602524
 31
0.0
  0
LINE
  5
23BC4
  8
1DIM
 10
3341.151016415875
 20
-582.8862019602509
 30
0.0
 11
3340.776016415875
 21
-582.8112010877028
 31
0.0
  0
LINE
  5
23BC5
  8
1DIM
 10
3338.151016415875
 20
-583.4861949798703
 30
0.0
 11
3341.151016415875
 21
-582.8862019602509
 31
0.0
  0
LINE
  5
23BC6
  8
1DIM
 10
3338.151016415875
 20
-582.286194979866
 30
0.0
 11
3341.151016415875
 21
-581.6862019602538
 31
0.0
  0
LINE
  5
23BC7
  8
1DIM
 10
3338.151016415875
 20
-581.0861949798616
 30
0.0
 11
3341.151016415875
 21
-580.4862019602494
 31
0.0
  0
LINE
  5
23BC8
  8
1DIM
 10
3338.151016415875
 20
-578.6861949798638
 30
0.0
 11
3341.151016415875
 21
-578.086201960248
 31
0.0
  0
LINE
  5
23BC9
  8
1DIM
 10
3338.151016415875
 20
-577.4861949798631
 30
0.0
 11
3341.151016415875
 21
-576.8862019602473
 31
0.0
  0
LINE
  5
23BCA
  8
1DIM
 10
3338.526016415875
 20
-577.5611958524112
 30
0.0
 11
3338.151016415875
 21
-577.4861949798631
 31
0.0
  0
LINE
  5
23BCB
  8
1DIM
 10
3341.151016415875
 20
-578.086201960248
 30
0.0
 11
3340.776016415875
 21
-578.0112010876999
 31
0.0
  0
LINE
  5
23BCC
  8
1DIM
 10
3341.151016415875
 20
-576.8862019602473
 30
0.0
 11
3340.776016415875
 21
-576.8112010876991
 31
0.0
  0
LINE
  5
23BCD
  8
1DIM
 10
3341.151016415875
 20
-580.4862019602494
 30
0.0
 11
3340.776016415875
 21
-580.4112010877013
 31
0.0
  0
LINE
  5
23BCE
  8
1DIM
 10
3338.526016415875
 20
-579.9611958524126
 30
0.0
 11
3338.151016415875
 21
-579.8861949798645
 31
0.0
  0
LINE
  5
23BCF
  8
1DIM
 10
3341.151016415875
 20
-579.2862019602487
 30
0.0
 11
3340.776016415875
 21
-579.2112010877006
 31
0.0
  0
LINE
  5
23BD0
  8
1DIM
 10
3338.151016415875
 20
-579.8861949798645
 30
0.0
 11
3341.151016415875
 21
-579.2862019602487
 31
0.0
  0
LINE
  5
23BD1
  8
1DIM
 10
3338.526016415875
 20
-578.7611958524119
 30
0.0
 11
3338.151016415875
 21
-578.6861949798638
 31
0.0
  0
LINE
  5
23BD2
  8
1DIM
 10
3341.151016415875
 20
-581.6862019602538
 30
0.0
 11
3340.776016415875
 21
-581.6112010877057
 31
0.0
  0
LINE
  5
23BD3
  8
1DIM
 10
3338.526016415875
 20
-581.1611958524097
 30
0.0
 11
3338.151016415875
 21
-581.0861949798616
 31
0.0
  0
LINE
  5
23BD4
  8
1DIM
 10
3338.526016415875
 20
-582.3611958524141
 30
0.0
 11
3338.151016415875
 21
-582.286194979866
 31
0.0
  0
LINE
  5
23BD5
  8
1DIM
 10
3338.526016415875
 20
-594.361195852425
 30
0.0
 11
3338.151016415875
 21
-594.2861949798769
 31
0.0
  0
LINE
  5
23BD6
  8
1DIM
 10
3338.151016415875
 20
-593.0861949798725
 30
0.0
 11
3341.151016415875
 21
-592.4862019602604
 31
0.0
  0
LINE
  5
23BD7
  8
1DIM
 10
3341.151016415875
 20
-592.4862019602604
 30
0.0
 11
3340.776016415875
 21
-592.4112010877086
 31
0.0
  0
LINE
  5
23BD8
  8
1DIM
 10
3341.151016415875
 20
-593.6862019602611
 30
0.0
 11
3340.776016415875
 21
-593.611201087713
 31
0.0
  0
LINE
  5
23BD9
  8
1DIM
 10
3338.526016415875
 20
-593.1611958524206
 30
0.0
 11
3338.151016415875
 21
-593.0861949798725
 31
0.0
  0
LINE
  5
23BDA
  8
1DIM
 10
3338.151016415875
 20
-594.2861949798769
 30
0.0
 11
3341.151016415875
 21
-593.6862019602611
 31
0.0
  0
LINE
  5
23BDB
  8
1DIM
 10
3338.526016415875
 20
-591.9611958524199
 30
0.0
 11
3338.151016415875
 21
-591.8861949798718
 31
0.0
  0
LINE
  5
23BDC
  8
1DIM
 10
3336.650981513951
 20
-596.0861914895083
 30
0.0
 11
3342.650981513951
 21
-596.0862054502775
 31
0.0
  0
LINE
  5
23BDD
  8
1DIM
 10
3338.151051317799
 20
-573.9099565565609
 30
0.0
 11
3341.151051317799
 21
-573.3099635369451
 31
0.0
  0
LINE
  5
23BDE
  8
1DIM
 10
3341.151051317799
 20
-573.3099635369451
 30
0.0
 11
3340.776051317799
 21
-573.234962664397
 31
0.0
  0
LINE
  5
23BDF
  8
1DIM
 10
3338.151051317799
 20
-572.7099565565638
 30
0.0
 11
3341.151051317799
 21
-572.1099635369444
 31
0.0
  0
LINE
  5
23BE0
  8
1DIM
 10
3338.151051317799
 20
-571.5099565565631
 30
0.0
 11
3341.151051317799
 21
-570.9099635369473
 31
0.0
  0
LINE
  5
23BE1
  8
1DIM
 10
3338.526051317799
 20
-571.5849574291112
 30
0.0
 11
3338.151051317799
 21
-571.5099565565631
 31
0.0
  0
LINE
  5
23BE2
  8
1DIM
 10
3341.151051317799
 20
-570.9099635369473
 30
0.0
 11
3340.776051317799
 21
-570.8349626643992
 31
0.0
  0
LINE
  5
23BE3
  8
1DIM
 10
3341.151051317799
 20
-572.1099635369444
 30
0.0
 11
3340.776051317799
 21
-572.0349626643963
 31
0.0
  0
LINE
  5
23BE4
  8
1DIM
 10
3338.526051317799
 20
-572.784957429112
 30
0.0
 11
3338.151051317799
 21
-572.7099565565638
 31
0.0
  0
LINE
  5
23BE5
  8
1DIM
 10
3338.526051317799
 20
-573.984957429109
 30
0.0
 11
3338.151051317799
 21
-573.9099565565609
 31
0.0
  0
LINE
  5
23BE6
  8
1DIM
 10
3341.151051317799
 20
-569.7099635369466
 30
0.0
 11
3340.776051317799
 21
-569.6349626643985
 31
0.0
  0
LINE
  5
23BE7
  8
1DIM
 10
3338.151051317799
 20
-570.3099565565624
 30
0.0
 11
3341.151051317799
 21
-569.7099635369466
 31
0.0
  0
LINE
  5
23BE8
  8
1DIM
 10
3338.526051317799
 20
-570.3849574291105
 30
0.0
 11
3338.151051317799
 21
-570.3099565565624
 31
0.0
  0
LINE
  5
23BE9
  8
1DIM
 10
3338.151051317799
 20
-569.1099565565617
 30
0.0
 11
3341.151051317799
 21
-568.5099635369459
 31
0.0
  0
LINE
  5
23BEA
  8
1DIM
 10
3341.151051317799
 20
-568.5099635369459
 30
0.0
 11
3340.776051317799
 21
-568.4349626643977
 31
0.0
  0
LINE
  5
23BEB
  8
1DIM
 10
3338.526051317799
 20
-569.1849574291098
 30
0.0
 11
3338.151051317799
 21
-569.1099565565617
 31
0.0
  0
LINE
  5
23BEC
  8
1DIM
 10
3341.151051317799
 20
-567.3099635369451
 30
0.0
 11
3340.776051317799
 21
-567.234962664397
 31
0.0
  0
LINE
  5
23BED
  8
1DIM
 10
3338.151051317799
 20
-567.9099565565609
 30
0.0
 11
3341.151051317799
 21
-567.3099635369451
 31
0.0
  0
LINE
  5
23BEE
  8
1DIM
 10
3338.526051317799
 20
-567.984957429109
 30
0.0
 11
3338.151051317799
 21
-567.9099565565609
 31
0.0
  0
LINE
  5
23BEF
  8
1DIM
 10
3341.151051317799
 20
-560.4730621950491
 30
0.0
 11
3340.776051317799
 21
-560.398061322501
 31
0.0
  0
LINE
  5
23BF0
  8
1DIM
 10
3338.151051317799
 20
-561.0730552146649
 30
0.0
 11
3341.151051317799
 21
-560.4730621950491
 31
0.0
  0
LINE
  5
23BF1
  8
1DIM
 10
3338.526051317799
 20
-561.148056087213
 30
0.0
 11
3338.151051317799
 21
-561.0730552146649
 31
0.0
  0
LINE
  5
23BF7
  8
1DIM
 10
3352.651106010801
 20
-590.0350747237657
 30
0.0
 11
3350.551106010801
 21
-590.0350747237657
 31
0.0
  0
LINE
  5
23BF8
  8
1DIM
 10
3354.751106010801
 20
-590.0350747237657
 30
0.0
 11
3352.651106010801
 21
-590.0350747237657
 31
0.0
  0
LINE
  5
23BF9
  8
1DIM
 10
3352.651106010801
 20
-546.0350665798773
 30
0.0
 11
3354.151106010801
 21
-551.3350630897379
 31
0.0
  0
LINE
  5
23BFA
  8
1DIM
 10
3354.151106010801
 20
-551.3350630897379
 30
0.0
 11
3354.151106010801
 21
-590.0350747237657
 31
0.0
  0
LINE
  5
23BFB
  8
1DIM
 10
3354.151106010801
 20
-591.0350712335725
 30
0.0
 11
3356.151152546699
 21
-591.0350665798773
 31
0.0
  0
LINE
  5
23BFC
  8
1DIM
 10
3356.151152546699
 20
-591.0350665798773
 30
0.0
 11
3356.151152546699
 21
-592.1350700700726
 31
0.0
  0
ARC
  5
23BFD
  8
1DIM
 10
3354.651152546699
 20
-592.1350700700726
 30
0.0
 40
1.5
 50
270.000133315525
 51
0.0
  0
LINE
  5
23BFE
  8
1DIM
 10
3354.651156036891
 20
-593.635070070069
 30
0.0
 11
3350.651156036891
 21
-593.6350793772484
 31
0.0
  0
ARC
  5
23BFF
  8
1DIM
 10
3350.651152546699
 20
-592.135079377252
 30
0.0
 40
1.5
 50
180.0
 51
270.000133315525
  0
LINE
  5
23C00
  8
1DIM
 10
3349.151152546699
 20
-592.135079377252
 30
0.0
 11
3349.151152546699
 21
-591.0350828674394
 31
0.0
  0
LINE
  5
23C01
  8
1DIM
 10
3349.151152546699
 20
-591.0350828674394
 30
0.0
 11
3351.151106010801
 21
-591.0350782139589
 31
0.0
  0
LINE
  5
23C02
  8
1DIM
 10
3351.151106010801
 20
-590.0350747237657
 30
0.0
 11
3351.151106010801
 21
-551.3350700701243
 31
0.0
  0
LINE
  5
23C03
  8
1DIM
 10
3351.151106010801
 20
-551.3350700701243
 30
0.0
 11
3352.651106010801
 21
-546.0350665798773
 31
0.0
  0
LINE
  5
23C04
  8
1CENTER
 10
3352.651106010801
 20
-544.1038837233076
 30
0.0
 11
3352.651106010801
 21
-595.4350747237671
 31
0.0
  0
LINE
  5
23C05
  8
1DIM
 10
3353.745476360694
 20
-548.1350640335562
 30
0.0
 11
3351.783141271818
 21
-547.3350685995041
 31
0.0
  0
LINE
  5
23C06
  8
1DIM
 10
3351.783141271818
 20
-547.3350685995041
 30
0.0
 11
3352.371417846861
 21
-547.0232987432513
 31
0.0
  0
LINE
  5
23C07
  8
1DIM
 10
3354.651106010801
 20
-585.5350700702887
 30
0.0
 11
3350.651106010801
 21
-584.7350793774689
 31
0.0
  0
LINE
  5
23C08
  8
1DIM
 10
3354.651106010801
 20
-569.3352263532882
 30
0.0
 11
3350.651106010801
 21
-568.5352356604648
 31
0.0
  0
LINE
  5
23C09
  8
1DIM
 10
3354.651106010801
 20
-556.1350619263407
 30
0.0
 11
3350.651106010801
 21
-555.3350712335172
 31
0.0
  0
LINE
  5
23C0A
  8
1DIM
 10
3354.151106010801
 20
-554.6350630897372
 30
0.0
 11
3354.651106010801
 21
-554.5350619263421
 31
0.0
  0
LINE
  5
23C0B
  8
1DIM
 10
3354.151106010801
 20
-556.2350630897394
 30
0.0
 11
3354.651106010801
 21
-556.1350619263407
 31
0.0
  0
LINE
  5
23C0C
  8
1DIM
 10
3354.151106010801
 20
-562.8350630897379
 30
0.0
 11
3354.651106010801
 21
-562.7350619263428
 31
0.0
  0
LINE
  5
23C0D
  8
1DIM
 10
3354.651106010801
 20
-562.7350619263428
 30
0.0
 11
3350.651106010801
 21
-561.9350712335194
 31
0.0
  0
LINE
  5
23C0E
  8
1DIM
 10
3351.330327167411
 20
-548.9350696531086
 30
0.0
 11
3351.882076631215
 21
-548.7523055104806
 31
0.0
  0
LINE
  5
23C0F
  8
1DIM
 10
3353.730191413592
 20
-549.8478324923029
 30
0.0
 11
3354.198289868742
 21
-549.7350629799524
 31
0.0
  0
LINE
  5
23C10
  8
1DIM
 10
3354.151106010801
 20
-553.0350630897386
 30
0.0
 11
3354.651106010801
 21
-552.9350619263399
 31
0.0
  0
LINE
  5
23C11
  8
1DIM
 10
3354.151106010801
 20
-551.4350630897364
 30
0.0
 11
3354.651106010801
 21
-551.3350619263414
 31
0.0
  0
LINE
  5
23C12
  8
1DIM
 10
3353.288304520062
 20
-548.2864998299968
 30
0.0
 11
3353.745476360694
 21
-548.1350640335562
 31
0.0
  0
LINE
  5
23C13
  8
1DIM
 10
3354.198289868742
 20
-549.7350629799524
 30
0.0
 11
3351.330327167411
 21
-548.9350696531086
 31
0.0
  0
LINE
  5
23C14
  8
1DIM
 10
3354.651106010801
 20
-552.9350619263399
 30
0.0
 11
3350.651106010801
 21
-552.1350712335201
 31
0.0
  0
LINE
  5
23C15
  8
1DIM
 10
3354.651106010801
 20
-551.3350619263414
 30
0.0
 11
3350.877513063005
 21
-550.5350707067167
 31
0.0
  0
LINE
  5
23C16
  8
1DIM
 10
3354.651106010801
 20
-554.5350619263421
 30
0.0
 11
3350.651106010801
 21
-553.7350712335186
 31
0.0
  0
LINE
  5
23C17
  8
1DIM
 10
3354.651106010801
 20
-582.335070070288
 30
0.0
 11
3350.651106010801
 21
-581.5350793774718
 31
0.0
  0
LINE
  5
23C18
  8
1DIM
 10
3350.651106010801
 20
-581.5350793774718
 30
0.0
 11
3351.151106010801
 21
-581.4350782140731
 31
0.0
  0
LINE
  5
23C19
  8
1DIM
 10
3350.651106010801
 20
-583.1350793774703
 30
0.0
 11
3351.151106010801
 21
-583.0350782140716
 31
0.0
  0
LINE
  5
23C1A
  8
1DIM
 10
3350.651106010801
 20
-584.7350793774689
 30
0.0
 11
3351.151106010801
 21
-584.6350782140738
 31
0.0
  0
LINE
  5
23C1B
  8
1DIM
 10
3354.651106010801
 20
-583.9350700702902
 30
0.0
 11
3350.651106010801
 21
-583.1350793774703
 31
0.0
  0
LINE
  5
23C1C
  8
1DIM
 10
3354.151106010801
 20
-569.4352275166833
 30
0.0
 11
3354.651106010801
 21
-569.3352263532882
 31
0.0
  0
LINE
  5
23C1D
  8
1DIM
 10
3354.151106010801
 20
-576.0350712336816
 30
0.0
 11
3354.651106010801
 21
-575.9350700702829
 31
0.0
  0
LINE
  5
23C1E
  8
1DIM
 10
3354.151106010801
 20
-579.2350712336823
 30
0.0
 11
3354.651106010801
 21
-579.1350700702836
 31
0.0
  0
LINE
  5
23C1F
  8
1DIM
 10
3354.151106010801
 20
-577.6350712336802
 30
0.0
 11
3354.651106010801
 21
-577.5350700702851
 31
0.0
  0
LINE
  5
23C20
  8
1DIM
 10
3354.651106010801
 20
-577.5350700702851
 30
0.0
 11
3350.651106010801
 21
-576.7350793774652
 31
0.0
  0
LINE
  5
23C21
  8
1DIM
 10
3354.651106010801
 20
-575.9350700702829
 30
0.0
 11
3350.651106010801
 21
-575.1350793774631
 31
0.0
  0
LINE
  5
23C22
  8
1DIM
 10
3354.651106010801
 20
-579.1350700702836
 30
0.0
 11
3350.651106010801
 21
-578.3350793774674
 31
0.0
  0
LINE
  5
23C23
  8
1DIM
 10
3354.651106010801
 20
-580.7350700702858
 30
0.0
 11
3350.651106010801
 21
-579.935079377466
 31
0.0
  0
LINE
  5
23C24
  8
1DIM
 10
3351.151106010801
 20
-591.0350782139589
 30
0.0
 11
3354.151106010801
 21
-591.0350712335725
 31
0.0
  0
LINE
  5
23C25
  8
1DIM
 10
3353.151111827272
 20
-590.0350747237657
 30
0.0
 11
3350.651106010801
 21
-589.5350793774754
 31
0.0
  0
LINE
  5
23C26
  8
1DIM
 10
3350.651106010801
 20
-589.5350793774754
 30
0.0
 11
3351.151106010801
 21
-589.4350782140767
 31
0.0
  0
LINE
  5
23C27
  8
1DIM
 10
3354.151106010801
 20
-588.8350712336918
 30
0.0
 11
3354.651106010801
 21
-588.7350700702931
 31
0.0
  0
LINE
  5
23C28
  8
1DIM
 10
3354.151106010801
 20
-587.2350712336896
 30
0.0
 11
3354.651106010801
 21
-587.1350700702945
 31
0.0
  0
LINE
  5
23C29
  8
1DIM
 10
3354.651106010801
 20
-587.1350700702945
 30
0.0
 11
3350.651106010801
 21
-586.3350793774747
 31
0.0
  0
LINE
  5
23C2A
  8
1DIM
 10
3350.651106010801
 20
-587.9350793774732
 30
0.0
 11
3351.151106010801
 21
-587.8350782140782
 31
0.0
  0
LINE
  5
23C2B
  8
1DIM
 10
3350.651106010801
 20
-586.3350793774747
 30
0.0
 11
3351.151106010801
 21
-586.235078214076
 31
0.0
  0
LINE
  5
23C2C
  8
1DIM
 10
3354.651106010801
 20
-588.7350700702931
 30
0.0
 11
3350.651106010801
 21
-587.9350793774732
 31
0.0
  0
LINE
  5
23C2D
  8
1DIM
 10
3354.151106010801
 20
-585.6350712336874
 30
0.0
 11
3354.651106010801
 21
-585.5350700702887
 31
0.0
  0
LINE
  5
23C2E
  8
1DIM
 10
3348.8511060108
 20
-590.0350747237657
 30
0.0
 11
3356.451106010801
 21
-590.0350747237657
 31
0.0
  0
LINE
  5
23C2F
  8
1DIM
 10
3356.451106010801
 20
-590.0350747237657
 30
0.0
 11
3356.451106010801
 21
-591.0350747237657
 31
0.0
  0
LINE
  5
23C30
  8
1DIM
 10
3356.451106010801
 20
-591.0350747237657
 30
0.0
 11
3348.8511060108
 21
-591.0350747237657
 31
0.0
  0
LINE
  5
23C31
  8
1DIM
 10
3348.8511060108
 20
-591.0350747237657
 30
0.0
 11
3348.8511060108
 21
-590.0350747237657
 31
0.0
  0
LINE
  5
23C32
  8
1DIM
 10
3354.151106010801
 20
-561.2350630897394
 30
0.0
 11
3354.651106010801
 21
-561.1350619263407
 31
0.0
  0
LINE
  5
23C33
  8
1DIM
 10
3354.651106010801
 20
-561.1350619263407
 30
0.0
 11
3350.651106010801
 21
-560.3350712335172
 31
0.0
  0
LINE
  5
23C34
  8
1DIM
 10
3354.151106010801
 20
-559.6350630897372
 30
0.0
 11
3354.651106010801
 21
-559.5350619263421
 31
0.0
  0
LINE
  5
23C35
  8
1DIM
 10
3354.651106010801
 20
-559.5350619263421
 30
0.0
 11
3350.651106010801
 21
-558.7350712335186
 31
0.0
  0
LINE
  5
23C36
  8
1DIM
 10
3354.151106010801
 20
-558.0350630897386
 30
0.0
 11
3354.651106010801
 21
-557.9350619263399
 31
0.0
  0
LINE
  5
23C37
  8
1DIM
 10
3354.651106010801
 20
-557.9350619263399
 30
0.0
 11
3350.651106010801
 21
-557.1350712335164
 31
0.0
  0
LINE
  5
23C38
  8
1DIM
 10
3350.651106010801
 20
-579.935079377466
 30
0.0
 11
3351.151106010801
 21
-579.8350782140709
 31
0.0
  0
LINE
  5
23C39
  8
1DIM
 10
3350.651106010801
 20
-578.3350793774674
 30
0.0
 11
3351.151106010801
 21
-578.2350782140724
 31
0.0
  0
LINE
  5
23C3A
  8
1DIM
 10
3350.651106010801
 20
-576.7350793774652
 30
0.0
 11
3351.151106010801
 21
-576.6350782140702
 31
0.0
  0
LINE
  5
23C3B
  8
1DIM
 10
3350.651106010801
 20
-575.1350793774631
 30
0.0
 11
3351.151106010801
 21
-575.035078214068
 31
0.0
  0
LINE
  5
23C3C
  8
1DIM
 10
3350.651106010801
 20
-563.5350712335179
 30
0.0
 11
3351.151106010801
 21
-563.4350700701228
 31
0.0
  0
LINE
  5
23C3D
  8
1DIM
 10
3350.651106010801
 20
-561.9350712335194
 30
0.0
 11
3351.151106010801
 21
-561.8350700701243
 31
0.0
  0
LINE
  5
23C3E
  8
1DIM
 10
3350.651106010801
 20
-560.3350712335172
 30
0.0
 11
3351.151106010801
 21
-560.2350700701221
 31
0.0
  0
LINE
  5
23C3F
  8
1DIM
 10
3350.651106010801
 20
-558.7350712335186
 30
0.0
 11
3351.151106010801
 21
-558.6350700701236
 31
0.0
  0
LINE
  5
23C40
  8
1DIM
 10
3350.651106010801
 20
-557.1350712335164
 30
0.0
 11
3351.151106010801
 21
-557.0350700701214
 31
0.0
  0
LINE
  5
23C41
  8
1DIM
 10
3350.651106010801
 20
-555.3350712335172
 30
0.0
 11
3351.151106010801
 21
-555.2350700701221
 31
0.0
  0
LINE
  5
23C42
  8
1DIM
 10
3350.651106010801
 20
-553.7350712335186
 30
0.0
 11
3351.151106010801
 21
-553.6350700701236
 31
0.0
  0
LINE
  5
23C43
  8
1DIM
 10
3350.651106010801
 20
-552.1350712335201
 30
0.0
 11
3351.151106010801
 21
-552.035070070125
 31
0.0
  0
LINE
  5
23C44
  8
1DIM
 10
3350.877513063005
 20
-550.5350707067167
 30
0.0
 11
3351.429262526808
 21
-550.3523065640887
 31
0.0
  0
LINE
  5
23C45
  8
1DIM
 10
3354.151106010801
 20
-580.8350712336845
 30
0.0
 11
3354.651106010801
 21
-580.7350700702858
 31
0.0
  0
LINE
  5
23C46
  8
1DIM
 10
3354.151106010801
 20
-582.4350712336867
 30
0.0
 11
3354.651106010801
 21
-582.335070070288
 31
0.0
  0
LINE
  5
23C47
  8
1DIM
 10
3354.151106010801
 20
-584.0350712336889
 30
0.0
 11
3354.651106010801
 21
-583.9350700702902
 31
0.0
  0
LINE
  5
23C48
  8
1DIM
 10
3354.151106010801
 20
-572.8350712336809
 30
0.0
 11
3354.651106010801
 21
-572.7350700702822
 31
0.0
  0
LINE
  5
23C49
  8
1DIM
 10
3354.151106010801
 20
-574.4350712336794
 30
0.0
 11
3354.651106010801
 21
-574.3350700702844
 31
0.0
  0
LINE
  5
23C4A
  8
1DIM
 10
3354.651106010801
 20
-574.3350700702844
 30
0.0
 11
3350.651106010801
 21
-573.5350793774645
 31
0.0
  0
LINE
  5
23C4B
  8
1DIM
 10
3354.651106010801
 20
-572.7350700702822
 30
0.0
 11
3350.651106010801
 21
-571.9350793774623
 31
0.0
  0
LINE
  5
23C4C
  8
1DIM
 10
3350.651106010801
 20
-573.5350793774645
 30
0.0
 11
3351.151106010801
 21
-573.4350782140694
 31
0.0
  0
LINE
  5
23C4D
  8
1DIM
 10
3350.651106010801
 20
-571.9350793774623
 30
0.0
 11
3351.151106010801
 21
-571.8350782140673
 31
0.0
  0
LINE
  5
23C4E
  8
1DIM
 10
3354.151106010801
 20
-571.2350712336823
 30
0.0
 11
3354.651106010801
 21
-571.1350700702836
 31
0.0
  0
LINE
  5
23C4F
  8
1DIM
 10
3354.651106010801
 20
-571.1350700702836
 30
0.0
 11
3350.651106010801
 21
-570.3350793774638
 31
0.0
  0
LINE
  5
23C50
  8
1DIM
 10
3350.651106010801
 20
-570.3350793774638
 30
0.0
 11
3351.151106010801
 21
-570.2350782140687
 31
0.0
  0
LINE
  5
23C51
  8
1DIM
 10
3354.651106010801
 20
-564.3350619263414
 30
0.0
 11
3350.651106010801
 21
-563.5350712335179
 31
0.0
  0
LINE
  5
23C52
  8
1DIM
 10
3354.151106010801
 20
-564.4350630897364
 30
0.0
 11
3354.651106010801
 21
-564.3350619263414
 31
0.0
  0
LINE
  5
23C53
  8
1DIM
 10
3350.651106010801
 20
-568.5352356604648
 30
0.0
 11
3351.151106010801
 21
-568.4352344970697
 31
0.0
  0
LINE
  5
23C54
  8
1DIM
 10
3354.651106010801
 20
-565.9353826362907
 30
0.0
 11
3350.651106010801
 21
-565.1353919434672
 31
0.0
  0
LINE
  5
23C55
  8
1DIM
 10
3354.151106010801
 20
-566.0353837996857
 30
0.0
 11
3354.651106010801
 21
-565.9353826362907
 31
0.0
  0
LINE
  5
23C56
  8
1DIM
 10
3354.151106010801
 20
-569.4352275166833
 30
0.0
 11
3354.651106010801
 21
-569.3352263532846
 31
0.0
  0
LINE
  5
23C57
  8
1DIM
 10
3354.651106010801
 20
-569.3352263532846
 30
0.0
 11
3350.651106010801
 21
-568.5352356604648
 31
0.0
  0
LINE
  5
23C58
  8
1DIM
 10
3350.651106010801
 20
-568.5352356604648
 30
0.0
 11
3351.151106010801
 21
-568.4352344970697
 31
0.0
  0
LINE
  5
23C59
  8
1DIM
 10
3354.151106010801
 20
-567.8352275166848
 30
0.0
 11
3354.651106010801
 21
-567.7352263532861
 31
0.0
  0
LINE
  5
23C5A
  8
1DIM
 10
3354.651106010801
 20
-567.7352263532861
 30
0.0
 11
3350.651106010801
 21
-566.9352356604662
 31
0.0
  0
LINE
  5
23C5B
  8
1DIM
 10
3350.651106010801
 20
-566.9352356604662
 30
0.0
 11
3351.151106010801
 21
-566.8352344970712
 31
0.0
  0
LINE
  5
23C5C
  8
1DIM
 10
3350.651106010801
 20
-565.1353919434672
 30
0.0
 11
3351.151106010801
 21
-565.0353907800721
 31
0.0
  0
LINE
  5
24104
  8
01
 10
3568.640316495669
 20
-692.17079249948
 30
0.0
 11
3568.640275651223
 21
-682.9863848836304
 31
0.0
  0
LINE
  5
24105
  8
01
 10
3574.940316495668
 20
-692.17079249948
 30
0.0
 11
3574.942071279337
 21
-682.9863848836304
 31
0.0
  0
ARC
  5
24106
  8
01
 10
3574.641987694927
 20
-682.9864684680543
 30
0.0
 40
0.3000835960511415
 50
0.0159590022531744
 51
90.01595011299138
  0
ARC
  5
24107
  8
01
 10
3568.940276127146
 20
-682.9863853595335
 30
0.0
 40
0.300000475922317
 50
89.99934797101581
 51
179.9999091093459
  0
LINE
  5
24108
  8
01
 10
3574.64190415706
 20
-682.6863848836311
 30
0.0
 11
3568.940279541167
 21
-682.6863848836311
 31
0.0
  0
LINE
  5
24109
  8
01
 10
3581.599252380817
 20
-698.0371541143578
 30
0.0
 11
3581.4361683133
 21
-698.0371541143578
 31
0.0
  0
LINE
  5
2410A
  8
01
 10
3632.041091849115
 20
-729.6871541121092
 30
0.0
 11
3625.541091849115
 21
-729.6871541121092
 31
0.0
  0
LINE
  5
2410B
  8
01
 10
3632.041091849115
 20
-684.6871541143574
 30
0.0
 11
3625.541091849115
 21
-684.6871541143574
 31
0.0
  0
LINE
  5
2410C
  8
1DIM
 10
3632.041091849115
 20
-703.6871541143574
 30
0.0
 11
3582.334928911588
 21
-703.6871541143574
 31
0.0
  0
LINE
  5
2410D
  8
1DIM
 10
3632.041091849115
 20
-710.6871541120155
 30
0.0
 11
3578.207671938214
 21
-710.6871541120155
 31
0.0
  0
LINE
  5
2410E
  8
01
 10
3625.541091849115
 20
-686.9654142482406
 30
0.0
 11
3625.541091849115
 21
-687.0313889427408
 31
0.0
  0
LINE
  5
2410F
  8
01
 10
3625.541091849115
 20
-686.6162012054239
 30
0.0
 11
3625.541091849115
 21
-686.6913520339732
 31
0.0
  0
LINE
  5
24110
  8
01
 10
3625.541091849115
 20
-686.2966512791473
 30
0.0
 11
3625.541091849115
 21
-686.3756707480753
 31
0.0
  0
LINE
  5
24111
  8
01
 10
3625.541091849115
 20
-686.0069215587856
 30
0.0
 11
3625.541091849115
 21
-686.0852515138741
 31
0.0
  0
LINE
  5
24112
  8
01
 10
3625.541091849115
 20
-685.7470201595726
 30
0.0
 11
3625.541091849115
 21
-685.8208946105825
 31
0.0
  0
LINE
  5
24113
  8
01
 10
3625.541091849115
 20
-685.1904691856081
 30
0.0
 11
3625.541091849115
 21
-685.316025263619
 31
0.0
  0
LINE
  5
24114
  8
01
 10
3625.541091849115
 20
-685.036021187345
 30
0.0
 11
3625.541091849115
 21
-685.1442609556526
 31
0.0
  0
LINE
  5
24115
  8
01
 10
3625.541091849115
 20
-684.9098427720584
 30
0.0
 11
3625.541091849115
 21
-685.0010009919134
 31
0.0
  0
LINE
  5
24116
  8
01
 10
3625.541091849115
 20
-684.8119950223337
 30
0.0
 11
3625.541091849115
 21
-684.885618951451
 31
0.0
  0
LINE
  5
24117
  8
01
 10
3625.541091849115
 20
-684.7870150526761
 30
0.0
 11
3625.541091849115
 21
-684.7973906647313
 31
0.0
  0
LINE
  5
24118
  8
01
 10
3625.541091849115
 20
-723.5101566159157
 30
0.0
 11
3625.541091849115
 21
-723.305887725288
 31
0.0
  0
LINE
  5
24119
  8
01
 10
3625.541091849115
 20
-724.0816639328115
 30
0.0
 11
3625.541091849115
 21
-723.877069483021
 31
0.0
  0
LINE
  5
2411A
  8
01
 10
3625.541091849115
 20
-724.6300676384309
 30
0.0
 11
3625.541091849115
 21
-724.4279427513176
 31
0.0
  0
LINE
  5
2411B
  8
01
 10
3625.541091849115
 20
-725.1539739312021
 30
0.0
 11
3625.541091849115
 21
-724.9569171242221
 31
0.0
  0
LINE
  5
2411C
  8
01
 10
3625.541091849115
 20
-725.6521200042072
 30
0.0
 11
3625.541091849115
 21
-725.4624980469536
 31
0.0
  0
LINE
  5
2411D
  8
01
 10
3625.541091849115
 20
-726.1233840823917
 30
0.0
 11
3625.541091849115
 21
-725.9433005998309
 31
0.0
  0
LINE
  5
2411E
  8
01
 10
3625.541091849115
 20
-726.5667935514804
 30
0.0
 11
3625.541091849115
 21
-726.3980620198237
 31
0.0
  0
LINE
  5
2411F
  8
01
 10
3625.541091849115
 20
-726.981531060882
 30
0.0
 11
3625.541091849115
 21
-726.8256527242958
 31
0.0
  0
LINE
  5
24120
  8
01
 10
3625.541091849115
 20
-728.5268476509901
 30
0.0
 11
3625.541091849115
 21
-727.2250856355869
 31
0.0
  0
LINE
  5
24121
  8
01
 10
3625.541091849115
 20
-728.7760834441079
 30
0.0
 11
3625.541091849115
 21
-728.6077300253984
 31
0.0
  0
LINE
  5
24122
  8
01
 10
3625.541091849115
 20
-728.9945088320493
 30
0.0
 11
3625.541091849115
 21
-728.8422100437475
 31
0.0
  0
LINE
  5
24123
  8
01
 10
3625.541091849115
 20
-729.1822305854859
 30
0.0
 11
3625.541091849115
 21
-729.0467230199166
 31
0.0
  0
LINE
  5
24124
  8
01
 10
3625.541091849115
 20
-729.3395019205628
 30
0.0
 11
3625.541091849115
 21
-729.2216705604343
 31
0.0
  0
LINE
  5
24125
  8
01
 10
3625.541091849115
 20
-729.4667148973923
 30
0.0
 11
3625.541091849115
 21
-729.3675777279142
 31
0.0
  0
LINE
  5
24126
  8
01
 10
3625.541091849115
 20
-729.5643913991272
 30
0.0
 11
3625.541091849115
 21
-729.485082500367
 31
0.0
  0
LINE
  5
24127
  8
01
 10
3625.541091849115
 20
-729.5869372387361
 30
0.0
 11
3625.541091849115
 21
-729.5749245931303
 31
0.0
  0
CIRCLE
  5
24128
  8
01
 10
3571.791091849115
 20
-702.1871541143583
 30
0.0
 40
10.49999999999999
  0
LINE
  5
24129
  8
01
 10
3581.599251717304
 20
-706.337154114358
 30
0.0
 11
3581.4361683133
 21
-706.337154114358
 31
0.0
  0
ARC
  5
2412A
  8
01
 10
3571.78932157884
 20
-702.184596058879
 30
0.0
 40
10.65310822167039
 50
302.3212083227151
 51
307.0481646587583
  0
ARC
  5
2412B
  8
01
 10
3571.791091849115
 20
-702.1871541143583
 30
0.0
 40
10.64999999999993
 50
307.0488548358075
 51
351.9032502302081
  0
ARC
  5
2412C
  8
01
 10
3571.791677961862
 20
-702.1868833994178
 30
0.0
 40
10.64945786446291
 50
351.9013641214895
 51
57.68136796302413
  0
LINE
  5
2412D
  8
01
 10
3632.041091849115
 20
-729.6871541121092
 30
0.0
 11
3632.041091849115
 21
-710.6871541120155
 31
0.0
  0
LINE
  5
2412E
  8
01
 10
3620.541091849115
 20
-711.1871541143574
 30
0.0
 11
3577.485167717944
 21
-711.1871541143583
 31
0.0
  0
ARC
  5
2412F
  8
01
 10
3620.541091851851
 20
-716.187154111619
 30
0.0
 40
4.999999997260943
 50
359.9999999686192
 51
90.0000000313495
  0
LINE
  5
24130
  8
01
 10
3625.541091849115
 20
-723.3058877323266
 30
0.0
 11
3625.541091849115
 21
-716.1871541143574
 31
0.0
  0
LINE
  5
24131
  8
01
 10
3625.541091849115
 20
-723.8770694905589
 30
0.0
 11
3625.541091849115
 21
-723.5101566033828
 31
0.0
  0
LINE
  5
24132
  8
01
 10
3625.541091849115
 20
-724.4279427592165
 30
0.0
 11
3625.541091849115
 21
-724.0816639193673
 31
0.0
  0
LINE
  5
24133
  8
01
 10
3625.541091849115
 20
-724.9569171323329
 30
0.0
 11
3625.541091849115
 21
-724.630067624281
 31
0.0
  0
LINE
  5
24134
  8
01
 10
3625.541091849115
 20
-725.4624980551254
 30
0.0
 11
3625.541091849115
 21
-725.1539739165665
 31
0.0
  0
LINE
  5
24135
  8
01
 10
3625.541091849115
 20
-725.9433006079172
 30
0.0
 11
3625.541091849115
 21
-725.6521199893124
 31
0.0
  0
LINE
  5
24136
  8
01
 10
3625.541091849115
 20
-726.3980620276872
 30
0.0
 11
3625.541091849115
 21
-726.123384067466
 31
0.0
  0
LINE
  5
24137
  8
01
 10
3625.541091849115
 20
-726.82565273182
 30
0.0
 11
3625.541091849115
 21
-726.5667935367438
 31
0.0
  0
LINE
  5
24138
  8
01
 10
3625.541091849115
 20
-727.2250856426773
 30
0.0
 11
3625.541091849115
 21
-726.9815310465402
 31
0.0
  0
LINE
  5
24139
  8
01
 10
3625.541091849115
 20
-728.6077300153275
 30
0.0
 11
3625.541091849115
 21
-728.5268476699822
 31
0.0
  0
LINE
  5
2413A
  8
01
 10
3625.541091849115
 20
-728.8422100347881
 30
0.0
 11
3625.541091849115
 21
-728.7760834692409
 31
0.0
  0
LINE
  5
2413B
  8
01
 10
3625.541091849115
 20
-729.0467230120822
 30
0.0
 11
3625.541091849115
 21
-728.9945088135001
 31
0.0
  0
LINE
  5
2413C
  8
01
 10
3625.541091849115
 20
-729.221670553714
 30
0.0
 11
3625.541091849115
 21
-729.1822305786001
 31
0.0
  0
LINE
  5
2413D
  8
01
 10
3625.541091849115
 20
-729.3675777222717
 30
0.0
 11
3625.541091849115
 21
-729.3395019273486
 31
0.0
  0
LINE
  5
2413E
  8
01
 10
3625.541091849115
 20
-729.4850824927163
 30
0.0
 11
3625.541091849115
 21
-729.466714892894
 31
0.0
  0
LINE
  5
2413F
  8
01
 10
3625.541091849115
 20
-729.5749245838516
 30
0.0
 11
3625.541091849115
 21
-729.5643913971736
 31
0.0
  0
LINE
  5
24140
  8
01
 10
3625.541091849115
 20
-729.6871541121092
 30
0.0
 11
3625.541091849115
 21
-729.5869372414019
 31
0.0
  0
ARC
  5
24141
  8
01
 10
3620.541090741525
 20
-688.1871530067702
 30
0.0
 40
5.000001107587659
 50
270.0000126920428
 51
359.9999873079884
  0
LINE
  5
24142
  8
01
 10
3632.041091849115
 20
-710.6871541120155
 30
0.0
 11
3632.041091849115
 21
-703.6871541143574
 31
0.0
  0
LINE
  5
24143
  8
01
 10
3632.041091849115
 20
-703.6871541143574
 30
0.0
 11
3632.041091849115
 21
-684.6871541143574
 31
0.0
  0
LINE
  5
24144
  8
01
 10
3620.541091849115
 20
-693.1871541143574
 30
0.0
 11
3577.485167717944
 21
-693.1871541143574
 31
0.0
  0
LINE
  5
24145
  8
01
 10
3625.541091849115
 20
-687.0313889425971
 30
0.0
 11
3625.541091849115
 21
-688.1871541143574
 31
0.0
  0
LINE
  5
24146
  8
01
 10
3625.541091849115
 20
-686.6913520337058
 30
0.0
 11
3625.541091849115
 21
-686.9654142482415
 31
0.0
  0
LINE
  5
24147
  8
01
 10
3625.541091849115
 20
-686.3756707476197
 30
0.0
 11
3625.541091849115
 21
-686.6162012054275
 31
0.0
  0
LINE
  5
24148
  8
01
 10
3625.541091849115
 20
-686.085251513122
 30
0.0
 11
3625.541091849115
 21
-686.2966512791592
 31
0.0
  0
LINE
  5
24149
  8
01
 10
3625.541091849115
 20
-685.8208946093292
 30
0.0
 11
3625.541091849115
 21
-686.0069215588175
 31
0.0
  0
LINE
  5
2414A
  8
01
 10
3625.541091849115
 20
-685.3160252639192
 30
0.0
 11
3625.541091849115
 21
-685.7470201596462
 31
0.0
  0
LINE
  5
2414B
  8
01
 10
3625.541091849115
 20
-685.1442609561992
 30
0.0
 11
3625.541091849115
 21
-685.1904691779129
 31
0.0
  0
LINE
  5
2414C
  8
01
 10
3625.541091849115
 20
-685.0010009928584
 30
0.0
 11
3625.541091849115
 21
-685.0360211873459
 31
0.0
  0
LINE
  5
2414D
  8
01
 10
3625.541091849115
 20
-684.885618952998
 30
0.0
 11
3625.541091849115
 21
-684.9098427720629
 31
0.0
  0
LINE
  5
2414E
  8
01
 10
3625.541091849115
 20
-684.797390667076
 30
0.0
 11
3625.541091849115
 21
-684.811995022371
 31
0.0
  0
LINE
  5
2414F
  8
01
 10
3625.541091849115
 20
-684.6871541143574
 30
0.0
 11
3625.541091849115
 21
-684.7870150511336
 31
0.0
  0
CIRCLE
  5
24151
  8
1DIM
 10
3571.791091849115
 20
-702.1871541143583
 30
0.0
 40
9.999999999999986
  0
LINE
  5
24152
  8
1CENTER
 10
3625.805898090331
 20
-705.4371541143574
 30
0.0
 11
3637.520803478795
 21
-705.4371541143574
 31
0.0
  0
LINE
  5
24291
  8
1DIM
 10
3624.991091849116
 20
-702.1871541143583
 30
0.0
 11
3624.991091849116
 21
-700.0871541143589
 31
0.0
  0
LINE
  5
24292
  8
1DIM
 10
3624.991091849116
 20
-704.2871541143587
 30
0.0
 11
3624.991091849116
 21
-702.1871541143583
 31
0.0
  0
LINE
  5
24293
  8
1DIM
 10
3668.991099993004
 20
-702.1871541143583
 30
0.0
 11
3663.691103483144
 21
-703.6871541143583
 31
0.0
  0
LINE
  5
24294
  8
1DIM
 10
3663.691103483144
 20
-703.6871541143583
 30
0.0
 11
3624.991091849116
 21
-703.6871541143583
 31
0.0
  0
LINE
  5
24295
  8
1DIM
 10
3623.991095339309
 20
-703.6871541143583
 30
0.0
 11
3623.991099993004
 21
-705.6872006502564
 31
0.0
  0
LINE
  5
24296
  8
1DIM
 10
3623.991099993004
 20
-705.6872006502564
 30
0.0
 11
3622.891096502809
 21
-705.6872006502564
 31
0.0
  0
ARC
  5
24297
  8
1DIM
 10
3622.891096502809
 20
-704.1872006502564
 30
0.0
 40
1.5
 50
180.0001333155251
 51
270.0
  0
LINE
  5
24298
  8
1DIM
 10
3621.391096502813
 20
-704.1872041404487
 30
0.0
 11
3621.391087195633
 21
-700.1872041404487
 31
0.0
  0
ARC
  5
24299
  8
1DIM
 10
3622.89108719563
 20
-700.1872006502564
 30
0.0
 40
1.5
 50
90.0
 51
180.0001333155251
  0
LINE
  5
2429A
  8
1DIM
 10
3622.89108719563
 20
-698.6872006502564
 30
0.0
 11
3623.991083705442
 21
-698.6872006502564
 31
0.0
  0
LINE
  5
2429B
  8
1DIM
 10
3623.991083705442
 20
-698.6872006502564
 30
0.0
 11
3623.991088358923
 21
-700.6871541143583
 31
0.0
  0
LINE
  5
2429C
  8
1DIM
 10
3624.991091849116
 20
-700.6871541143583
 30
0.0
 11
3663.691096502757
 21
-700.6871541143583
 31
0.0
  0
LINE
  5
2429D
  8
1DIM
 10
3663.691096502757
 20
-700.6871541143583
 30
0.0
 11
3668.991099993004
 21
-702.1871541143583
 31
0.0
  0
LINE
  5
2429E
  8
1CENTER
 10
3670.922282849574
 20
-702.1871541143583
 30
0.0
 11
3619.591091849114
 21
-702.1871541143583
 31
0.0
  0
LINE
  5
2429F
  8
1DIM
 10
3666.891102539325
 20
-703.2815244642517
 30
0.0
 11
3667.691097973378
 21
-701.3191893753757
 31
0.0
  0
LINE
  5
242A0
  8
1DIM
 10
3667.691097973378
 20
-701.3191893753757
 30
0.0
 11
3668.00286782963
 21
-701.9074659504187
 31
0.0
  0
LINE
  5
242A1
  8
1DIM
 10
3629.491096502593
 20
-704.1871541143583
 30
0.0
 11
3630.291087195413
 21
-700.1871541143583
 31
0.0
  0
LINE
  5
242A2
  8
1DIM
 10
3645.690940219593
 20
-704.1871541143583
 30
0.0
 11
3646.490930912417
 21
-700.1871541143583
 31
0.0
  0
LINE
  5
242A3
  8
1DIM
 10
3658.891104646541
 20
-704.1871541143583
 30
0.0
 11
3659.691095339364
 21
-700.1871541143583
 31
0.0
  0
LINE
  5
242A4
  8
1DIM
 10
3660.391103483144
 20
-703.6871541143583
 30
0.0
 11
3660.491104646539
 21
-704.1871541143583
 31
0.0
  0
LINE
  5
242A5
  8
1DIM
 10
3658.791103483142
 20
-703.6871541143583
 30
0.0
 11
3658.891104646541
 21
-704.1871541143583
 31
0.0
  0
LINE
  5
242A6
  8
1DIM
 10
3652.191103483144
 20
-703.6871541143583
 30
0.0
 11
3652.291104646539
 21
-704.1871541143583
 31
0.0
  0
LINE
  5
242A7
  8
1DIM
 10
3652.291104646539
 20
-704.1871541143583
 30
0.0
 11
3653.091095339362
 21
-700.1871541143583
 31
0.0
  0
LINE
  5
242A8
  8
1DIM
 10
3666.091096919773
 20
-700.8663752709691
 30
0.0
 11
3666.273861062401
 21
-701.4181247347725
 31
0.0
  0
LINE
  5
242A9
  8
1DIM
 10
3665.178334080579
 20
-703.2662395171502
 30
0.0
 11
3665.291103592929
 21
-703.7343379722998
 31
0.0
  0
LINE
  5
242AA
  8
1DIM
 10
3661.991103483143
 20
-703.6871541143583
 30
0.0
 11
3662.091104646542
 21
-704.1871541143583
 31
0.0
  0
LINE
  5
242AB
  8
1DIM
 10
3663.591103483145
 20
-703.6871541143583
 30
0.0
 11
3663.69110464654
 21
-704.1871541143583
 31
0.0
  0
LINE
  5
242AC
  8
1DIM
 10
3666.739666742885
 20
-702.8243526236203
 30
0.0
 11
3666.891102539325
 21
-703.2815244642517
 31
0.0
  0
LINE
  5
242AD
  8
1DIM
 10
3665.291103592929
 20
-703.7343379722998
 30
0.0
 11
3666.091096919773
 21
-700.8663752709691
 31
0.0
  0
LINE
  5
242AE
  8
1DIM
 10
3662.091104646542
 20
-704.1871541143583
 30
0.0
 11
3662.891095339362
 21
-700.1871541143583
 31
0.0
  0
LINE
  5
242AF
  8
1DIM
 10
3663.69110464654
 20
-704.1871541143583
 30
0.0
 11
3664.491095866165
 21
-700.4135611665625
 31
0.0
  0
LINE
  5
242B0
  8
1DIM
 10
3660.491104646539
 20
-704.1871541143583
 30
0.0
 11
3661.291095339363
 21
-700.1871541143583
 31
0.0
  0
LINE
  5
242B1
  8
1DIM
 10
3632.691096502594
 20
-704.1871541143583
 30
0.0
 11
3633.49108719541
 21
-700.1871541143583
 31
0.0
  0
LINE
  5
242B2
  8
1DIM
 10
3633.49108719541
 20
-700.1871541143583
 30
0.0
 11
3633.591088358809
 21
-700.6871541143583
 31
0.0
  0
LINE
  5
242B3
  8
1DIM
 10
3631.891087195411
 20
-700.1871541143583
 30
0.0
 11
3631.99108835881
 21
-700.6871541143583
 31
0.0
  0
LINE
  5
242B4
  8
1DIM
 10
3630.291087195413
 20
-700.1871541143583
 30
0.0
 11
3630.391088358808
 21
-700.6871541143583
 31
0.0
  0
LINE
  5
242B5
  8
1DIM
 10
3631.091096502591
 20
-704.1871541143583
 30
0.0
 11
3631.891087195411
 21
-700.1871541143583
 31
0.0
  0
LINE
  5
242B6
  8
1DIM
 10
3645.590939056198
 20
-703.6871541143583
 30
0.0
 11
3645.690940219593
 21
-704.1871541143583
 31
0.0
  0
LINE
  5
242B7
  8
1DIM
 10
3638.9910953392
 20
-703.6871541143583
 30
0.0
 11
3639.091096502599
 21
-704.1871541143583
 31
0.0
  0
LINE
  5
242B8
  8
1DIM
 10
3635.791095339199
 20
-703.6871541143583
 30
0.0
 11
3635.891096502598
 21
-704.1871541143583
 31
0.0
  0
LINE
  5
242B9
  8
1DIM
 10
3637.391095339201
 20
-703.6871541143583
 30
0.0
 11
3637.491096502597
 21
-704.1871541143583
 31
0.0
  0
LINE
  5
242BA
  8
1DIM
 10
3637.491096502597
 20
-704.1871541143583
 30
0.0
 11
3638.291087195416
 21
-700.1871541143583
 31
0.0
  0
LINE
  5
242BB
  8
1DIM
 10
3639.091096502599
 20
-704.1871541143583
 30
0.0
 11
3639.891087195419
 21
-700.1871541143583
 31
0.0
  0
LINE
  5
242BC
  8
1DIM
 10
3635.891096502598
 20
-704.1871541143583
 30
0.0
 11
3636.691087195414
 21
-700.1871541143583
 31
0.0
  0
LINE
  5
242BD
  8
1DIM
 10
3634.291096502596
 20
-704.1871541143583
 30
0.0
 11
3635.091087195416
 21
-700.1871541143583
 31
0.0
  0
LINE
  5
242BE
  8
1DIM
 10
3623.991088358923
 20
-700.6871541143583
 30
0.0
 11
3623.991095339309
 21
-703.6871541143583
 31
0.0
  0
LINE
  5
242BF
  8
1DIM
 10
3624.991091849116
 20
-702.6871599308298
 30
0.0
 11
3625.491087195406
 21
-700.1871541143583
 31
0.0
  0
LINE
  5
242C0
  8
1DIM
 10
3625.491087195406
 20
-700.1871541143583
 30
0.0
 11
3625.591088358805
 21
-700.6871541143583
 31
0.0
  0
LINE
  5
242C1
  8
1DIM
 10
3626.19109533919
 20
-703.6871541143583
 30
0.0
 11
3626.291096502589
 21
-704.1871541143583
 31
0.0
  0
LINE
  5
242C2
  8
1DIM
 10
3627.791095339192
 20
-703.6871541143583
 30
0.0
 11
3627.891096502587
 21
-704.1871541143583
 31
0.0
  0
LINE
  5
242C3
  8
1DIM
 10
3627.891096502587
 20
-704.1871541143583
 30
0.0
 11
3628.691087195407
 21
-700.1871541143583
 31
0.0
  0
LINE
  5
242C4
  8
1DIM
 10
3627.091087195408
 20
-700.1871541143583
 30
0.0
 11
3627.191088358803
 21
-700.6871541143583
 31
0.0
  0
LINE
  5
242C5
  8
1DIM
 10
3628.691087195407
 20
-700.1871541143583
 30
0.0
 11
3628.791088358806
 21
-700.6871541143583
 31
0.0
  0
LINE
  5
242C6
  8
1DIM
 10
3626.291096502589
 20
-704.1871541143583
 30
0.0
 11
3627.091087195408
 21
-700.1871541143583
 31
0.0
  0
LINE
  5
242C7
  8
1DIM
 10
3629.391095339194
 20
-703.6871541143583
 30
0.0
 11
3629.491096502593
 21
-704.1871541143583
 31
0.0
  0
LINE
  5
242C8
  8
1DIM
 10
3624.991091849116
 20
-698.3871541143582
 30
0.0
 11
3624.991091849116
 21
-705.9871541143585
 31
0.0
  0
LINE
  5
242C9
  8
1DIM
 10
3624.991091849116
 20
-705.9871541143585
 30
0.0
 11
3623.991091849116
 21
-705.9871541143585
 31
0.0
  0
LINE
  5
242CA
  8
1DIM
 10
3623.991091849116
 20
-705.9871541143585
 30
0.0
 11
3623.991091849116
 21
-698.3871541143582
 31
0.0
  0
LINE
  5
242CB
  8
1DIM
 10
3623.991091849116
 20
-698.3871541143582
 30
0.0
 11
3624.991091849116
 21
-698.3871541143582
 31
0.0
  0
LINE
  5
242CC
  8
1DIM
 10
3653.791103483142
 20
-703.6871541143583
 30
0.0
 11
3653.891104646541
 21
-704.1871541143583
 31
0.0
  0
LINE
  5
242CD
  8
1DIM
 10
3653.891104646541
 20
-704.1871541143583
 30
0.0
 11
3654.691095339364
 21
-700.1871541143583
 31
0.0
  0
LINE
  5
242CE
  8
1DIM
 10
3655.391103483144
 20
-703.6871541143583
 30
0.0
 11
3655.491104646539
 21
-704.1871541143583
 31
0.0
  0
LINE
  5
242CF
  8
1DIM
 10
3655.491104646539
 20
-704.1871541143583
 30
0.0
 11
3656.291095339363
 21
-700.1871541143583
 31
0.0
  0
LINE
  5
242D0
  8
1DIM
 10
3656.991103483143
 20
-703.6871541143583
 30
0.0
 11
3657.091104646542
 21
-704.1871541143583
 31
0.0
  0
LINE
  5
242D1
  8
1DIM
 10
3657.091104646542
 20
-704.1871541143583
 30
0.0
 11
3657.891095339365
 21
-700.1871541143583
 31
0.0
  0
LINE
  5
242D2
  8
1DIM
 10
3635.091087195416
 20
-700.1871541143583
 30
0.0
 11
3635.191088358811
 21
-700.6871541143583
 31
0.0
  0
LINE
  5
242D3
  8
1DIM
 10
3636.691087195414
 20
-700.1871541143583
 30
0.0
 11
3636.791088358809
 21
-700.6871541143583
 31
0.0
  0
LINE
  5
242D4
  8
1DIM
 10
3638.291087195416
 20
-700.1871541143583
 30
0.0
 11
3638.391088358811
 21
-700.6871541143583
 31
0.0
  0
LINE
  5
242D5
  8
1DIM
 10
3639.891087195419
 20
-700.1871541143583
 30
0.0
 11
3639.991088358814
 21
-700.6871541143583
 31
0.0
  0
LINE
  5
242D6
  8
1DIM
 10
3651.491095339364
 20
-700.1871541143583
 30
0.0
 11
3651.591096502759
 21
-700.6871541143583
 31
0.0
  0
LINE
  5
242D7
  8
1DIM
 10
3653.091095339362
 20
-700.1871541143583
 30
0.0
 11
3653.191096502757
 21
-700.6871541143583
 31
0.0
  0
LINE
  5
242D8
  8
1DIM
 10
3654.691095339364
 20
-700.1871541143583
 30
0.0
 11
3654.79109650276
 21
-700.6871541143583
 31
0.0
  0
LINE
  5
242D9
  8
1DIM
 10
3656.291095339363
 20
-700.1871541143583
 30
0.0
 11
3656.391096502758
 21
-700.6871541143583
 31
0.0
  0
LINE
  5
242DA
  8
1DIM
 10
3657.891095339365
 20
-700.1871541143583
 30
0.0
 11
3657.99109650276
 21
-700.6871541143583
 31
0.0
  0
LINE
  5
242DB
  8
1DIM
 10
3659.691095339364
 20
-700.1871541143583
 30
0.0
 11
3659.79109650276
 21
-700.6871541143583
 31
0.0
  0
LINE
  5
242DC
  8
1DIM
 10
3661.291095339363
 20
-700.1871541143583
 30
0.0
 11
3661.391096502758
 21
-700.6871541143583
 31
0.0
  0
LINE
  5
242DD
  8
1DIM
 10
3662.891095339362
 20
-700.1871541143583
 30
0.0
 11
3662.991096502757
 21
-700.6871541143583
 31
0.0
  0
LINE
  5
242DE
  8
1DIM
 10
3664.491095866165
 20
-700.4135611665625
 30
0.0
 11
3664.673860008793
 21
-700.9653106303659
 31
0.0
  0
LINE
  5
242DF
  8
1DIM
 10
3634.191095339197
 20
-703.6871541143583
 30
0.0
 11
3634.291096502596
 21
-704.1871541143583
 31
0.0
  0
LINE
  5
242E0
  8
1DIM
 10
3632.591095339195
 20
-703.6871541143583
 30
0.0
 11
3632.691096502594
 21
-704.1871541143583
 31
0.0
  0
LINE
  5
242E1
  8
1DIM
 10
3630.991095339193
 20
-703.6871541143583
 30
0.0
 11
3631.091096502591
 21
-704.1871541143583
 31
0.0
  0
LINE
  5
242E2
  8
1DIM
 10
3642.191095339201
 20
-703.6871541143583
 30
0.0
 11
3642.291096502599
 21
-704.1871541143583
 31
0.0
  0
LINE
  5
242E3
  8
1DIM
 10
3640.591095339202
 20
-703.6871541143583
 30
0.0
 11
3640.691096502597
 21
-704.1871541143583
 31
0.0
  0
LINE
  5
242E4
  8
1DIM
 10
3640.691096502597
 20
-704.1871541143583
 30
0.0
 11
3641.491087195417
 21
-700.1871541143583
 31
0.0
  0
LINE
  5
242E5
  8
1DIM
 10
3642.291096502599
 20
-704.1871541143583
 30
0.0
 11
3643.091087195419
 21
-700.1871541143583
 31
0.0
  0
LINE
  5
242E6
  8
1DIM
 10
3641.491087195417
 20
-700.1871541143583
 30
0.0
 11
3641.591088358812
 21
-700.6871541143583
 31
0.0
  0
LINE
  5
242E7
  8
1DIM
 10
3643.091087195419
 20
-700.1871541143583
 30
0.0
 11
3643.191088358814
 21
-700.6871541143583
 31
0.0
  0
LINE
  5
242E8
  8
1DIM
 10
3643.791095339199
 20
-703.6871541143583
 30
0.0
 11
3643.891096502598
 21
-704.1871541143583
 31
0.0
  0
LINE
  5
242E9
  8
1DIM
 10
3643.891096502598
 20
-704.1871541143583
 30
0.0
 11
3644.691087195418
 21
-700.1871541143583
 31
0.0
  0
LINE
  5
242EA
  8
1DIM
 10
3644.691087195418
 20
-700.1871541143583
 30
0.0
 11
3644.791088358813
 21
-700.6871541143583
 31
0.0
  0
LINE
  5
242EB
  8
1DIM
 10
3650.69110464654
 20
-704.1871541143583
 30
0.0
 11
3651.491095339364
 21
-700.1871541143583
 31
0.0
  0
LINE
  5
242EC
  8
1DIM
 10
3650.591103483145
 20
-703.6871541143583
 30
0.0
 11
3650.69110464654
 21
-704.1871541143583
 31
0.0
  0
LINE
  5
242ED
  8
1DIM
 10
3646.490930912417
 20
-700.1871541143583
 30
0.0
 11
3646.590932075812
 21
-700.6871541143583
 31
0.0
  0
LINE
  5
242EE
  8
1DIM
 10
3649.090783936591
 20
-704.1871541143583
 30
0.0
 11
3649.890774629414
 21
-700.1871541143583
 31
0.0
  0
LINE
  5
242EF
  8
1DIM
 10
3648.990782773196
 20
-703.6871541143583
 30
0.0
 11
3649.090783936591
 21
-704.1871541143583
 31
0.0
  0
LINE
  5
242F0
  8
1DIM
 10
3645.590939056198
 20
-703.6871541143583
 30
0.0
 11
3645.690940219597
 21
-704.1871541143583
 31
0.0
  0
LINE
  5
242F1
  8
1DIM
 10
3645.690940219597
 20
-704.1871541143583
 30
0.0
 11
3646.490930912417
 21
-700.1871541143583
 31
0.0
  0
LINE
  5
242F2
  8
1DIM
 10
3646.490930912417
 20
-700.1871541143583
 30
0.0
 11
3646.590932075812
 21
-700.6871541143583
 31
0.0
  0
LINE
  5
242F3
  8
1DIM
 10
3647.190939056197
 20
-703.6871541143583
 30
0.0
 11
3647.290940219596
 21
-704.1871541143583
 31
0.0
  0
LINE
  5
242F4
  8
1DIM
 10
3647.290940219596
 20
-704.1871541143583
 30
0.0
 11
3648.090930912415
 21
-700.1871541143583
 31
0.0
  0
LINE
  5
242F5
  8
1DIM
 10
3648.090930912415
 20
-700.1871541143583
 30
0.0
 11
3648.19093207581
 21
-700.6871541143583
 31
0.0
  0
LINE
  5
242F6
  8
1DIM
 10
3649.890774629414
 20
-700.1871541143583
 30
0.0
 11
3649.990775792809
 21
-700.6871541143583
 31
0.0
  0
LINE
  5
24367
  8
1DIM
 10
3620.616029897935
 20
-706.5597946707
 30
0.0
 11
3654.540917048537
 21
-706.5598295726237
 31
0.0
  0
LINE
  5
24368
  8
1DIM
 10
3654.540917048537
 20
-706.5598295726237
 30
0.0
 11
3658.515919666222
 21
-705.4348295726237
 31
0.0
  0
LINE
  5
24369
  8
1DIM
 10
3658.515919666222
 20
-705.4348295726237
 30
0.0
 11
3654.540922283825
 21
-704.3098295726237
 31
0.0
  0
LINE
  5
2436A
  8
1DIM
 10
3654.540922283825
 20
-704.3098295726237
 30
0.0
 11
3620.616078760709
 21
-704.3097946707
 31
0.0
  0
LINE
  5
2436B
  8
1DIM
 10
3620.616078760709
 20
-704.3097946707
 30
0.0
 11
3618.741056947206
 21
-702.4347597687762
 31
0.0
  0
LINE
  5
2436C
  8
1DIM
 10
3618.741056947206
 20
-702.4347597687762
 30
0.0
 11
3618.516056947207
 21
-702.4347597687762
 31
0.0
  0
LINE
  5
2436D
  8
1DIM
 10
3618.516056947207
 20
-702.4347597687762
 30
0.0
 11
3618.516042986435
 21
-708.4347597687762
 31
0.0
  0
LINE
  5
2436E
  8
1DIM
 10
3618.516042986435
 20
-708.4347597687762
 30
0.0
 11
3618.741042986437
 21
-708.4347597687762
 31
0.0
  0
LINE
  5
2436F
  8
1DIM
 10
3618.741042986437
 20
-708.4347597687762
 30
0.0
 11
3620.616029897935
 21
-706.5597946707
 31
0.0
  0
LINE
  5
24370
  8
1CENTER
 10
3659.856922109798
 20
-705.4347597687762
 30
0.0
 11
3617.482072324267
 21
-705.4347597687762
 31
0.0
  0
LINE
  5
24371
  8
1DIM
 10
3646.917291880153
 20
-703.9348295726237
 30
0.0
 11
3647.517284899769
 21
-706.9348295726237
 31
0.0
  0
LINE
  5
24372
  8
1DIM
 10
3647.517284899769
 20
-706.9348295726237
 30
0.0
 11
3647.592285772317
 21
-706.5598295726237
 31
0.0
  0
LINE
  5
24373
  8
1DIM
 10
3655.656345231903
 20
-704.6255155205296
 30
0.0
 11
3655.740922366164
 21
-704.2744416791671
 31
0.0
  0
LINE
  5
24374
  8
1DIM
 10
3657.5409181515
 20
-706.0858031268605
 30
0.0
 11
3657.774745543688
 21
-705.6445956955782
 31
0.0
  0
LINE
  5
24375
  8
1DIM
 10
3656.827344728631
 20
-704.9569306906766
 30
0.0
 11
3656.94092157596
 21
-704.6140518102035
 31
0.0
  0
LINE
  5
24376
  8
1DIM
 10
3656.340917361297
 20
-706.4254137051654
 30
0.0
 11
3656.477990468266
 21
-706.0116016073131
 31
0.0
  0
LINE
  5
24377
  8
1DIM
 10
3656.94092157596
 20
-704.6140518102035
 30
0.0
 11
3657.5409181515
 21
-706.0858031268605
 31
0.0
  0
LINE
  5
24378
  8
1DIM
 10
3655.740922366164
 20
-704.2744416791671
 30
0.0
 11
3656.340917361297
 21
-706.4254137051654
 31
0.0
  0
LINE
  5
24379
  8
1DIM
 10
3648.11729188015
 20
-703.9348295726237
 30
0.0
 11
3648.71728489977
 21
-706.9348295726237
 31
0.0
  0
LINE
  5
2437A
  8
1DIM
 10
3649.317291880151
 20
-703.9348295726237
 30
0.0
 11
3649.917284899767
 21
-706.9348295726237
 31
0.0
  0
LINE
  5
2437B
  8
1DIM
 10
3649.242291007603
 20
-704.3098295726237
 30
0.0
 11
3649.317291880151
 21
-703.9348295726237
 31
0.0
  0
LINE
  5
2437C
  8
1DIM
 10
3649.917284899767
 20
-706.9348295726237
 30
0.0
 11
3649.992285772315
 21
-706.5598295726237
 31
0.0
  0
LINE
  5
2437D
  8
1DIM
 10
3648.71728489977
 20
-706.9348295726237
 30
0.0
 11
3648.792285772318
 21
-706.5598295726237
 31
0.0
  0
LINE
  5
2437E
  8
1DIM
 10
3655.140916571091
 20
-706.7650242834703
 30
0.0
 11
3655.237869594313
 21
-706.3625789820168
 31
0.0
  0
LINE
  5
2437F
  8
1DIM
 10
3654.540923156373
 20
-703.9348295726237
 30
0.0
 11
3655.140916571091
 21
-706.7650242834703
 31
0.0
  0
LINE
  5
24380
  8
1DIM
 10
3654.465922283825
 20
-704.3098295726237
 30
0.0
 11
3654.540923156373
 21
-703.9348295726237
 31
0.0
  0
LINE
  5
24381
  8
1DIM
 10
3648.042291007602
 20
-704.3098295726237
 30
0.0
 11
3648.11729188015
 21
-703.9348295726237
 31
0.0
  0
LINE
  5
24382
  8
1DIM
 10
3638.541053456852
 20
-703.9347946707
 30
0.0
 11
3639.141046476468
 21
-706.9347946707
 31
0.0
  0
LINE
  5
24383
  8
1DIM
 10
3639.741053456853
 20
-703.9347946707
 30
0.0
 11
3640.341046476468
 21
-706.9347946707
 31
0.0
  0
LINE
  5
24384
  8
1DIM
 10
3646.842291007605
 20
-704.3098295726237
 30
0.0
 11
3646.917291880153
 21
-703.9348295726237
 31
0.0
  0
LINE
  5
24385
  8
1DIM
 10
3639.666052584304
 20
-704.3097946707
 30
0.0
 11
3639.741053456853
 21
-703.9347946707
 31
0.0
  0
LINE
  5
24386
  8
1DIM
 10
3640.341046476468
 20
-706.9347946707
 30
0.0
 11
3640.416047349016
 21
-706.5597946707
 31
0.0
  0
LINE
  5
24387
  8
1DIM
 10
3639.141046476468
 20
-706.9347946707
 30
0.0
 11
3639.216047349016
 21
-706.5597946707
 31
0.0
  0
LINE
  5
24388
  8
1DIM
 10
3638.466052584304
 20
-704.3097946707
 30
0.0
 11
3638.541053456852
 21
-703.9347946707
 31
0.0
  0
LINE
  5
24389
  8
1DIM
 10
3651.117284899768
 20
-706.9348295726237
 30
0.0
 11
3651.192285772316
 21
-706.5598295726237
 31
0.0
  0
LINE
  5
2438A
  8
1DIM
 10
3650.517291880152
 20
-703.9348295726237
 30
0.0
 11
3651.117284899768
 21
-706.9348295726237
 31
0.0
  0
LINE
  5
2438B
  8
1DIM
 10
3650.442291007604
 20
-704.3098295726237
 30
0.0
 11
3650.517291880152
 21
-703.9348295726237
 31
0.0
  0
LINE
  5
2438C
  8
1DIM
 10
3651.717291880153
 20
-703.9348295726237
 30
0.0
 11
3652.317284899768
 21
-706.9348295726237
 31
0.0
  0
LINE
  5
2438D
  8
1DIM
 10
3652.317284899768
 20
-706.9348295726237
 30
0.0
 11
3652.392285772316
 21
-706.5598295726237
 31
0.0
  0
LINE
  5
2438E
  8
1DIM
 10
3651.642291007604
 20
-704.3098295726237
 30
0.0
 11
3651.717291880153
 21
-703.9348295726237
 31
0.0
  0
LINE
  5
2438F
  8
1DIM
 10
3653.35989746223
 20
-706.9348295726237
 30
0.0
 11
3653.434898334778
 21
-706.5598295726237
 31
0.0
  0
LINE
  5
24390
  8
1DIM
 10
3652.759904442614
 20
-703.9348295726237
 30
0.0
 11
3653.35989746223
 21
-706.9348295726237
 31
0.0
  0
LINE
  5
24391
  8
1DIM
 10
3652.684903570066
 20
-704.3098295726237
 30
0.0
 11
3652.759904442614
 21
-703.9348295726237
 31
0.0
  0
LINE
  5
24392
  8
1DIM
 10
3622.941053456842
 20
-703.9347946707
 30
0.0
 11
3623.541046476455
 21
-706.9347946707
 31
0.0
  0
LINE
  5
24393
  8
1DIM
 10
3624.066052584295
 20
-704.3097946707
 30
0.0
 11
3624.141053456847
 21
-703.9347946707
 31
0.0
  0
LINE
  5
24394
  8
1DIM
 10
3623.541046476455
 20
-706.9347946707
 30
0.0
 11
3623.616047349003
 21
-706.5597946707
 31
0.0
  0
LINE
  5
24395
  8
1DIM
 10
3626.466052584296
 20
-704.3097946707
 30
0.0
 11
3626.541053456845
 21
-703.9347946707
 31
0.0
  0
LINE
  5
24396
  8
1DIM
 10
3625.341053456844
 20
-703.9347946707
 30
0.0
 11
3625.94104647646
 21
-706.9347946707
 31
0.0
  0
LINE
  5
24397
  8
1DIM
 10
3625.94104647646
 20
-706.9347946707
 30
0.0
 11
3626.016047349008
 21
-706.5597946707
 31
0.0
  0
LINE
  5
24398
  8
1DIM
 10
3625.266052584296
 20
-704.3097946707
 30
0.0
 11
3625.341053456844
 21
-703.9347946707
 31
0.0
  0
LINE
  5
24399
  8
1DIM
 10
3624.741046476459
 20
-706.9347946707
 30
0.0
 11
3624.816047349007
 21
-706.5597946707
 31
0.0
  0
LINE
  5
2439A
  8
1DIM
 10
3628.341046476461
 20
-706.9347946707
 30
0.0
 11
3628.416047349009
 21
-706.5597946707
 31
0.0
  0
LINE
  5
2439B
  8
1DIM
 10
3627.14104647646
 20
-706.9347946707
 30
0.0
 11
3627.216047349008
 21
-706.5597946707
 31
0.0
  0
LINE
  5
2439C
  8
1DIM
 10
3627.666052584297
 20
-704.3097946707
 30
0.0
 11
3627.741053456845
 21
-703.9347946707
 31
0.0
  0
LINE
  5
2439D
  8
1DIM
 10
3627.741053456845
 20
-703.9347946707
 30
0.0
 11
3628.341046476461
 21
-706.9347946707
 31
0.0
  0
LINE
  5
2439E
  8
1DIM
 10
3626.541053456845
 20
-703.9347946707
 30
0.0
 11
3627.14104647646
 21
-706.9347946707
 31
0.0
  0
LINE
  5
2439F
  8
1DIM
 10
3624.141053456847
 20
-703.9347946707
 30
0.0
 11
3624.741046476459
 21
-706.9347946707
 31
0.0
  0
LINE
  5
243A0
  8
1DIM
 10
3628.866052584298
 20
-704.3097946707
 30
0.0
 11
3628.941053456846
 21
-703.9347946707
 31
0.0
  0
LINE
  5
243A1
  8
1DIM
 10
3629.541046476462
 20
-706.9347946707
 30
0.0
 11
3629.61604734901
 21
-706.5597946707
 31
0.0
  0
LINE
  5
243A2
  8
1DIM
 10
3630.741046476463
 20
-706.9347946707
 30
0.0
 11
3630.816047349011
 21
-706.5597946707
 31
0.0
  0
LINE
  5
243A3
  8
1DIM
 10
3630.066052584299
 20
-704.3097946707
 30
0.0
 11
3630.141053456847
 21
-703.9347946707
 31
0.0
  0
LINE
  5
243A4
  8
1DIM
 10
3631.266052584296
 20
-704.3097946707
 30
0.0
 11
3631.341053456844
 21
-703.9347946707
 31
0.0
  0
LINE
  5
243A5
  8
1DIM
 10
3630.141053456847
 20
-703.9347946707
 30
0.0
 11
3630.741046476463
 21
-706.9347946707
 31
0.0
  0
LINE
  5
243A6
  8
1DIM
 10
3628.941053456846
 20
-703.9347946707
 30
0.0
 11
3629.541046476462
 21
-706.9347946707
 31
0.0
  0
LINE
  5
243A7
  8
1DIM
 10
3631.941046476463
 20
-706.9347946707
 30
0.0
 11
3632.016047349011
 21
-706.5597946707
 31
0.0
  0
LINE
  5
243A8
  8
1DIM
 10
3631.341053456844
 20
-703.9347946707
 30
0.0
 11
3631.941046476463
 21
-706.9347946707
 31
0.0
  0
LINE
  5
243A9
  8
1DIM
 10
3632.541053456848
 20
-703.9347946707
 30
0.0
 11
3633.14104647646
 21
-706.9347946707
 31
0.0
  0
LINE
  5
243AA
  8
1DIM
 10
3633.741053456853
 20
-703.9347946707
 30
0.0
 11
3634.341046476465
 21
-706.9347946707
 31
0.0
  0
LINE
  5
243AB
  8
1DIM
 10
3636.14105345685
 20
-703.9347946707
 30
0.0
 11
3636.741046476466
 21
-706.9347946707
 31
0.0
  0
LINE
  5
243AC
  8
1DIM
 10
3637.341053456851
 20
-703.9347946707
 30
0.0
 11
3637.941046476467
 21
-706.9347946707
 31
0.0
  0
LINE
  5
243AD
  8
1DIM
 10
3637.266052584303
 20
-704.3097946707
 30
0.0
 11
3637.341053456851
 21
-703.9347946707
 31
0.0
  0
LINE
  5
243AE
  8
1DIM
 10
3636.741046476466
 20
-706.9347946707
 30
0.0
 11
3636.816047349014
 21
-706.5597946707
 31
0.0
  0
LINE
  5
243AF
  8
1DIM
 10
3637.941046476467
 20
-706.9347946707
 30
0.0
 11
3638.016047349015
 21
-706.5597946707
 31
0.0
  0
LINE
  5
243B0
  8
1DIM
 10
3634.341046476465
 20
-706.9347946707
 30
0.0
 11
3634.416047349013
 21
-706.5597946707
 31
0.0
  0
LINE
  5
243B1
  8
1DIM
 10
3634.866052584302
 20
-704.3097946707
 30
0.0
 11
3634.94105345685
 21
-703.9347946707
 31
0.0
  0
LINE
  5
243B2
  8
1DIM
 10
3635.541046476465
 20
-706.9347946707
 30
0.0
 11
3635.616047349014
 21
-706.5597946707
 31
0.0
  0
LINE
  5
243B3
  8
1DIM
 10
3634.94105345685
 20
-703.9347946707
 30
0.0
 11
3635.541046476465
 21
-706.9347946707
 31
0.0
  0
LINE
  5
243B4
  8
1DIM
 10
3636.066052584302
 20
-704.3097946707
 30
0.0
 11
3636.14105345685
 21
-703.9347946707
 31
0.0
  0
LINE
  5
243B5
  8
1DIM
 10
3633.14104647646
 20
-706.9347946707
 30
0.0
 11
3633.216047349008
 21
-706.5597946707
 31
0.0
  0
LINE
  5
243B6
  8
1DIM
 10
3633.666052584304
 20
-704.3097946707
 30
0.0
 11
3633.741053456853
 21
-703.9347946707
 31
0.0
  0
LINE
  5
243B7
  8
1DIM
 10
3632.4660525843
 20
-704.3097946707
 30
0.0
 11
3632.541053456848
 21
-703.9347946707
 31
0.0
  0
LINE
  5
243B8
  8
1DIM
 10
3620.466052584289
 20
-704.3097946707
 30
0.0
 11
3620.541053456837
 21
-703.9347946707
 31
0.0
  0
LINE
  5
243B9
  8
1DIM
 10
3621.741053456842
 20
-703.9347946707
 30
0.0
 11
3622.341046476454
 21
-706.9347946707
 31
0.0
  0
LINE
  5
243BA
  8
1DIM
 10
3622.341046476454
 20
-706.9347946707
 30
0.0
 11
3622.416047349006
 21
-706.5597946707
 31
0.0
  0
LINE
  5
243BB
  8
1DIM
 10
3621.141046476453
 20
-706.9347946707
 30
0.0
 11
3621.216047349001
 21
-706.5597946707
 31
0.0
  0
LINE
  5
243BC
  8
1DIM
 10
3621.666052584294
 20
-704.3097946707
 30
0.0
 11
3621.741053456842
 21
-703.9347946707
 31
0.0
  0
LINE
  5
243BD
  8
1DIM
 10
3620.541053456837
 20
-703.9347946707
 30
0.0
 11
3621.141046476453
 21
-706.9347946707
 31
0.0
  0
LINE
  5
243BE
  8
1DIM
 10
3622.866052584294
 20
-704.3097946707
 30
0.0
 11
3622.941053456842
 21
-703.9347946707
 31
0.0
  0
LINE
  5
243BF
  8
1DIM
 10
3618.741056947206
 20
-702.4347597687762
 30
0.0
 11
3618.741042986437
 21
-708.4347597687762
 31
0.0
  0
LINE
  5
243C0
  8
1DIM
 10
3640.917291880153
 20
-703.9348295726237
 30
0.0
 11
3641.517284899769
 21
-706.9348295726237
 31
0.0
  0
LINE
  5
243C1
  8
1DIM
 10
3641.517284899769
 20
-706.9348295726237
 30
0.0
 11
3641.592285772317
 21
-706.5598295726237
 31
0.0
  0
LINE
  5
243C2
  8
1DIM
 10
3642.11729188015
 20
-703.9348295726237
 30
0.0
 11
3642.71728489977
 21
-706.9348295726237
 31
0.0
  0
LINE
  5
243C3
  8
1DIM
 10
3643.317291880151
 20
-703.9348295726237
 30
0.0
 11
3643.917284899767
 21
-706.9348295726237
 31
0.0
  0
LINE
  5
243C4
  8
1DIM
 10
3643.242291007603
 20
-704.3098295726237
 30
0.0
 11
3643.317291880151
 21
-703.9348295726237
 31
0.0
  0
LINE
  5
243C5
  8
1DIM
 10
3643.917284899767
 20
-706.9348295726237
 30
0.0
 11
3643.992285772315
 21
-706.5598295726237
 31
0.0
  0
LINE
  5
243C6
  8
1DIM
 10
3642.71728489977
 20
-706.9348295726237
 30
0.0
 11
3642.792285772318
 21
-706.5598295726237
 31
0.0
  0
LINE
  5
243C7
  8
1DIM
 10
3642.042291007602
 20
-704.3098295726237
 30
0.0
 11
3642.11729188015
 21
-703.9348295726237
 31
0.0
  0
LINE
  5
243C8
  8
1DIM
 10
3640.842291007605
 20
-704.3098295726237
 30
0.0
 11
3640.917291880153
 21
-703.9348295726237
 31
0.0
  0
LINE
  5
243C9
  8
1DIM
 10
3645.117284899768
 20
-706.9348295726237
 30
0.0
 11
3645.192285772316
 21
-706.5598295726237
 31
0.0
  0
LINE
  5
243CA
  8
1DIM
 10
3644.517291880152
 20
-703.9348295726237
 30
0.0
 11
3645.117284899768
 21
-706.9348295726237
 31
0.0
  0
LINE
  5
243CB
  8
1DIM
 10
3644.442291007604
 20
-704.3098295726237
 30
0.0
 11
3644.517291880152
 21
-703.9348295726237
 31
0.0
  0
LINE
  5
243CC
  8
1DIM
 10
3645.717291880153
 20
-703.9348295726237
 30
0.0
 11
3646.317284899768
 21
-706.9348295726237
 31
0.0
  0
LINE
  5
243CD
  8
1DIM
 10
3646.317284899768
 20
-706.9348295726237
 30
0.0
 11
3646.392285772316
 21
-706.5598295726237
 31
0.0
  0
LINE
  5
243CE
  8
1DIM
 10
3645.642291007604
 20
-704.3098295726237
 30
0.0
 11
3645.717291880153
 21
-703.9348295726237
 31
0.0
  0
LINE
  5
243CF
  8
1DIM
 10
3647.517284899769
 20
-706.9348295726237
 30
0.0
 11
3647.592285772317
 21
-706.5598295726237
 31
0.0
  0
LINE
  5
243D0
  8
1DIM
 10
3646.917291880153
 20
-703.9348295726237
 30
0.0
 11
3647.517284899769
 21
-706.9348295726237
 31
0.0
  0
LINE
  5
243D1
  8
1DIM
 10
3646.842291007605
 20
-704.3098295726237
 30
0.0
 11
3646.917291880153
 21
-703.9348295726237
 31
0.0
  0
LINE
  5
243D2
  8
1DIM
 10
3654.354186241665
 20
-706.9348295726237
 30
0.0
 11
3654.429187114213
 21
-706.5598295726237
 31
0.0
  0
LINE
  5
243D3
  8
1DIM
 10
3653.754193222049
 20
-703.9348295726237
 30
0.0
 11
3654.354186241665
 21
-706.9348295726237
 31
0.0
  0
LINE
  5
243D4
  8
1DIM
 10
3653.679192349501
 20
-704.3098295726237
 30
0.0
 11
3653.754193222049
 21
-703.9348295726237
 31
0.0
  0
LINE
  5
243D6
  8
01
 10
3632.041091849115
 20
-666.0507923051011
 30
0.0
 11
3632.041091849115
 21
-748.0112688333849
 31
0.0
  0
LINE
  5
243D7
  8
01
 10
3641.041091849115
 20
-666.0507923051011
 30
0.0
 11
3641.041091849115
 21
-748.0112688333849
 31
0.0
  0
ARC
  5
24586
  8
01
 10
3339.65109815081
 20
-703.6871541143574
 30
0.0
 40
18.99999999999964
 50
54.66549820817669
 51
125.3345017918233
  0
ARC
  5
24587
  8
01
 10
3339.638224855203
 20
-703.6968825508558
 30
0.0
 40
19.01538223840952
 50
39.16676255435402
 51
54.65080779979503
  0
ARC
  5
24588
  8
01
 10
3339.663971446428
 20
-703.6968825508676
 30
0.0
 40
19.01538223842444
 50
125.3491922002134
 51
140.8332374456278
  0
ARC
  5
24589
  8
01
 10
3339.65109815081
 20
-710.6871541121092
 30
0.0
 40
18.99999999999987
 50
196.8264488998256
 51
343.1735511001767
  0
ARC
  5
2458A
  8
01
 10
3339.651098974434
 20
-710.6871543309618
 30
0.0
 40
19.00000072500971
 50
186.0423275307986
 51
196.826447549153
  0
ARC
  5
2458B
  8
01
 10
3339.651097327161
 20
-710.6871543309554
 30
0.0
 40
19.00000072503478
 50
343.1735524508563
 51
353.9576724691905
  0
LINE
  5
2458C
  8
01
 10
3484.15109815081
 20
-712.4371541143583
 30
0.0
 11
3484.15109815081
 21
-691.9371541143583
 31
0.0
  0
LINE
  5
2458D
  8
01
 10
3483.65109815081
 20
-712.9371541143583
 30
0.0
 11
3195.65109815081
 21
-712.9371541143583
 31
0.0
  0
LINE
  5
2458E
  8
01
 10
3195.15109815081
 20
-712.4371541143583
 30
0.0
 11
3195.15109815081
 21
-691.9371541143583
 31
0.0
  0
ARC
  5
2458F
  8
01
 10
3477.15109815081
 20
-681.4527913339272
 30
0.0
 40
10.50000000625019
 50
251.9694646177638
 51
288.0305353822362
  0
ARC
  5
24590
  8
01
 10
3202.15109815081
 20
-681.4527913405001
 30
0.0
 40
10.5000000000003
 50
251.9694646066627
 51
288.0305353933373
  0
LINE
  5
24591
  8
1DIM
 10
3357.837631629604
 20
-716.1871541143574
 30
0.0
 11
3321.464564672019
 21
-716.1871541143574
 31
0.0
  0
LINE
  5
24592
  8
1DIM
 10
3350.639728638728
 20
-688.1871541143574
 30
0.0
 11
3328.662467662892
 21
-688.1871541143574
 31
0.0
  0
LINE
  5
24593
  8
01
 10
3474.001098150812
 20
-691.4691529553576
 30
0.0
 11
3474.000118720588
 21
-682.9863848836304
 31
0.0
  0
LINE
  5
24594
  8
01
 10
3480.301133752436
 20
-691.469141759094
 30
0.0
 11
3480.301914348703
 21
-682.9863848836304
 31
0.0
  0
LINE
  5
24595
  8
01
 10
3483.65109815081
 20
-691.4371541143583
 30
0.0
 11
3480.40109815081
 21
-691.4371541143583
 31
0.0
  0
LINE
  5
24596
  8
01
 10
3473.90109815081
 20
-691.4371541143583
 30
0.0
 11
3205.40109815081
 21
-691.4371541143583
 31
0.0
  0
LINE
  5
24597
  8
01
 10
3198.90109815081
 20
-691.4371541143583
 30
0.0
 11
3195.65109815081
 21
-691.4371541143583
 31
0.0
  0
LINE
  5
24598
  8
01
 10
3205.301133752436
 20
-691.4691417591149
 30
0.0
 11
3205.301914348703
 21
-682.9863848836304
 31
0.0
  0
LINE
  5
24599
  8
01
 10
3199.001098150812
 20
-691.4691529553794
 30
0.0
 11
3199.000118720588
 21
-682.9863848836304
 31
0.0
  0
LINE
  5
245B3
  8
01
 10
3474.300285842865
 20
-682.6863848836302
 30
0.0
 11
3480.001910458758
 21
-682.6863848836311
 31
0.0
  0
ARC
  5
245B4
  8
01
 10
3480.001913872779
 20
-682.9863853595344
 30
0.0
 40
0.3000004759227717
 50
0.0000908908278325
 51
90.0006520289842
  0
ARC
  5
245B5
  8
01
 10
3474.300202304998
 20
-682.9864684680534
 30
0.0
 40
0.3000835960506866
 50
89.98404988700861
 51
179.9840409979205
  0
LINE
  5
245B6
  8
01
 10
3199.300285842865
 20
-682.6863848836302
 30
0.0
 11
3205.001910458758
 21
-682.6863848836311
 31
0.0
  0
ARC
  5
245B7
  8
01
 10
3205.001913872779
 20
-682.9863853595344
 30
0.0
 40
0.3000004759227717
 50
0.0000908908278325
 51
90.0006520289842
  0
ARC
  5
245B8
  8
01
 10
3199.300202304998
 20
-682.9864684680534
 30
0.0
 40
0.3000835960506866
 50
89.98404988700861
 51
179.9840409979205
  0
ARC
  5
245B9
  8
01
 10
3483.65109815081
 20
-691.9371541143583
 30
0.0
 40
0.5
 50
0.0
 51
90.0
  0
ARC
  5
245BA
  8
01
 10
3483.65109815081
 20
-712.4371541143583
 30
0.0
 40
0.5
 50
270.0
 51
0.0
  0
ARC
  5
245BB
  8
01
 10
3195.65109815081
 20
-691.9371541143583
 30
0.0
 40
0.5
 50
90.0
 51
180.0
  0
ARC
  5
245BC
  8
01
 10
3195.65109815081
 20
-712.4371541143583
 30
0.0
 40
0.5
 50
180.0
 51
270.0
  0
TEXT
  5
24615
  8
1TEXT
 10
3437.60149390775
 20
-767.8526996658264
 30
0.0
 40
4.0
  1
\U+203B\U+306B\U+306F\U+8272\U+54C1\U+756A\U+304C\U+5165\U+308A\U+307E\U+3059\U+3002
 72
     1
 11
3456.934827241083
 21
-767.8526996658264
 31
0.0
  0
TEXT
  5
2461D
  8
1TEXT
 10
3430.345698049805
 20
-757.3526996658264
 30
0.0
 40
8.0
  1
SE-64W-\U+203B
  0
LINE
  5
24666
  8
1DIM
 10
3326.650996624795
 20
-698.5157868899652
 30
0.0
 11
3326.650996624795
 21
-705.8585213387506
 31
0.0
  0
LINE
  5
24667
  8
1DIM
 10
3322.992125431459
 20
-702.1871541143583
 30
0.0
 11
3330.309867818135
 21
-702.1871541143583
 31
0.0
  0
LINE
  5
24668
  8
1DIM
 10
3339.650981513949
 20
-701.763392544383
 30
0.0
 11
3339.650981513949
 21
-709.1061269931685
 31
0.0
  0
LINE
  5
24669
  8
1DIM
 10
3335.992110320613
 20
-705.4347597687762
 30
0.0
 11
3343.309852707289
 21
-705.4347597687762
 31
0.0
  0
LINE
  5
2466A
  8
1DIM
 10
3352.651106010799
 20
-698.5157868899652
 30
0.0
 11
3352.651106010799
 21
-705.8585213387506
 31
0.0
  0
LINE
  5
2466B
  8
1DIM
 10
3348.992234817462
 20
-702.1871541143583
 30
0.0
 11
3356.309977204139
 21
-702.1871541143583
 31
0.0
  0
CIRCLE
  5
248A6
  8
1PHANTOM
 10
3571.791677961862
 20
-710.1213867540648
 30
0.0
 40
18.5
  0
CIRCLE
  5
248A7
  8
1PHANTOM
 10
3571.791677961862
 20
-710.1213867540648
 30
0.0
 40
57.5
  0
LINE
  5
248A8
  8
1CENTER
 10
3571.791677961871
 20
-689.1080593722306
 30
0.0
 11
3571.791677961871
 21
-731.134714135899
 31
0.0
  0
LINE
  5
248A9
  8
1CENTER
 10
3551.574062128892
 20
-710.1213867540648
 30
0.0
 11
3592.009293794849
 21
-710.1213867540648
 31
0.0
  0
LINE
  5
248AA
  8
1CENTER
 10
3571.791677961862
 20
-723.6201275030005
 30
0.0
 11
3571.791677961862
 21
-696.6226460051296
 31
0.0
  0
TEXT
  5
248CD
  8
1DIM
 10
3218.548378865394
 20
-671.1440802351626
 30
0.0
 40
3.5
  1
\U+6750\U+8CEA:\U+30A2\U+30EB\U+30DF\U+30CB\U+30A6\U+30E0
  0
LINE
  5
248CF
  8
1DIM
 10
3290.155431471204
 20
-679.0649802832197
 30
0.0
 11
3219.217551527268
 21
-679.0649802832197
 31
0.0
  0
TEXT
  5
248E2
  8
1DIM
 10
3218.548378865394
 20
-676.6663934510749
 30
0.0
 40
3.5
  1
Material\U+FF1AAluminium
  0
LINE
  5
24A64
  8
01
 10
3336.983912654064
 20
-596.0350747237657
 30
0.0
 11
3337.31638522266
 21
-596.0350747237657
 31
0.0
  0
LINE
  5
24A65
  8
01
 10
3337.31638522266
 20
-596.0350747237657
 30
0.0
 11
3337.827915787627
 21
-597.2497479785719
 31
0.0
  0
LINE
  5
24A66
  8
01
 10
3337.827915787627
 20
-597.2497479785719
 30
0.0
 11
3338.304437503985
 21
-595.9822715686727
 31
0.0
  0
LINE
  5
24A67
  8
01
 10
3338.304437503985
 20
-595.9822715686727
 30
0.0
 11
3338.780959220344
 21
-597.2497479785719
 31
0.0
  0
LINE
  5
24A68
  8
01
 10
3338.780959220344
 20
-597.2497479785719
 30
0.0
 11
3339.292266799009
 21
-596.0350747237657
 31
0.0
  0
LINE
  5
24A69
  8
01
 10
3339.292266799009
 20
-596.0350747237657
 30
0.0
 11
3339.624739367605
 21
-596.0350747237657
 31
0.0
  0
LINE
  5
24A6A
  8
01
 10
3339.624739367605
 20
-596.0350747237657
 30
0.0
 11
3338.77962130256
 21
-598.0419513953751
 31
0.0
  0
LINE
  5
24A6B
  8
01
 10
3338.77962130256
 20
-598.0419513953751
 30
0.0
 11
3338.304437503985
 21
-596.7776636895209
 31
0.0
  0
LINE
  5
24A6C
  8
01
 10
3338.304437503985
 20
-596.7776636895209
 30
0.0
 11
3337.829030719108
 21
-598.0419513953751
 31
0.0
  0
LINE
  5
24A6D
  8
01
 10
3337.829030719108
 20
-598.0419513953751
 30
0.0
 11
3336.983912654064
 21
-596.0350747237657
 31
0.0
  0
LINE
  5
24A6E
  8
01
 10
3340.203165821625
 20
-597.461005196203
 30
0.0
 11
3340.435998227392
 21
-597.9817450952281
 31
0.0
  0
LINE
  5
24A6F
  8
01
 10
3340.435998227392
 20
-597.9817450952281
 30
0.0
 11
3340.967116874616
 21
-597.9817450952281
 31
0.0
  0
ARC
  5
24A70
  8
01
 10
3340.967116874615
 20
-597.4599571606108
 30
0.0
 40
0.5217879346173504
 50
270.0
 51
0.0
  0
LINE
  5
24A71
  8
01
 10
3341.488904809233
 20
-597.4599571606099
 30
0.0
 11
3341.488904809233
 21
-596.0350747237657
 31
0.0
  0
LINE
  5
24A72
  8
01
 10
3341.488904809233
 20
-596.0350747237657
 30
0.0
 11
3341.167804541775
 21
-596.0350747237657
 31
0.0
  0
LINE
  5
24A73
  8
01
 10
3341.167804541775
 20
-596.0350747237657
 30
0.0
 11
3341.167804541775
 21
-597.4800259273255
 31
0.0
  0
ARC
  5
24A74
  8
01
 10
3340.967116874615
 20
-597.4800259273269
 30
0.0
 40
0.2006876671598548
 50
270.0
 51
0.0
  0
LINE
  5
24A75
  8
01
 10
3340.967116874616
 20
-597.6807135944867
 30
0.0
 11
3340.64860077936
 21
-597.6807135944867
 31
0.0
  0
LINE
  5
24A76
  8
01
 10
3340.64860077936
 20
-597.6807135944867
 30
0.0
 11
3339.88875514307
 21
-595.9822715686727
 31
0.0
  0
LINE
  5
24A77
  8
01
 10
3339.88875514307
 20
-595.9822715686727
 30
0.0
 11
3338.990789325674
 21
-597.9891482402821
 31
0.0
  0
LINE
  5
24A78
  8
01
 10
3342.713099578915
 20
-596.0350747237657
 30
0.0
 11
3342.713099578915
 21
-597.4357588163533
 31
0.0
  0
ARC
  5
24A79
  8
01
 10
3342.452205611606
 20
-597.435758816354
 30
0.0
 40
0.2608939673091361
 50
299.9999999999701
 51
0.0
  0
ARC
  5
24A7A
  8
01
 10
3342.361896161384
 20
-597.2793382601645
 30
0.0
 40
0.441512867754167
 50
240.0000000000296
 51
299.9999999999704
  0
ARC
  5
24A7B
  8
01
 10
3342.271586711162
 20
-597.435758816354
 30
0.0
 40
0.2608939673091414
 50
179.9999999998547
 51
239.9999999998832
  0
LINE
  5
24A7C
  8
01
 10
3342.010692743853
 20
-597.4357588163533
 30
0.0
 11
3342.010692743853
 21
-596.0350747237657
 31
0.0
  0
LINE
  5
24A7D
  8
01
 10
3342.010692743853
 20
-596.0350747237657
 30
0.0
 11
3341.689592476395
 21
-596.0350747237657
 31
0.0
  0
LINE
  5
24A7E
  8
01
 10
3341.689592476395
 20
-596.0350747237657
 30
0.0
 11
3341.689592476395
 21
-597.4357588163533
 31
0.0
  0
ARC
  5
24A7F
  8
01
 10
3342.271586711162
 20
-597.4357588163542
 30
0.0
 40
0.5819942347672085
 50
180.0
 51
240.0000000000285
  0
ARC
  5
24A80
  8
01
 10
3342.361896161384
 20
-597.2793382601645
 30
0.0
 40
0.7626131352123887
 50
240.0000000000289
 51
299.9999999999711
  0
ARC
  5
24A81
  8
01
 10
3342.452205611606
 20
-597.4357588163542
 30
0.0
 40
0.5819942347672086
 50
300.000000000059
 51
0.0000000000875289
  0
LINE
  5
24A82
  8
01
 10
3343.034199846373
 20
-597.4357588163533
 30
0.0
 11
3343.034199846373
 21
-596.0350747237657
 31
0.0
  0
LINE
  5
24A83
  8
01
 10
3343.034199846373
 20
-596.0350747237657
 30
0.0
 11
3342.713099578915
 21
-596.0350747237657
 31
0.0
  0
LINE
  5
24A84
  8
01
 10
3343.24224606133
 20
-595.9822492700426
 30
0.0
 11
3343.24224606133
 21
-597.9891259416521
 31
0.0
  0
LINE
  5
24A85
  8
01
 10
3343.24224606133
 20
-597.9891259416521
 30
0.0
 11
3343.559109589146
 21
-597.9891259416521
 31
0.0
  0
LINE
  5
24A86
  8
01
 10
3343.559109589146
 20
-597.9891259416521
 30
0.0
 11
3343.559109589146
 21
-596.7979777411632
 31
0.0
  0
LINE
  5
24A87
  8
01
 10
3343.559109589146
 20
-596.7979777411632
 30
0.0
 11
3344.668243429655
 21
-598.0419513953751
 31
0.0
  0
LINE
  5
24A88
  8
01
 10
3344.668243429655
 20
-598.0419513953751
 30
0.0
 11
3344.668243429655
 21
-596.0350747237657
 31
0.0
  0
LINE
  5
24A89
  8
01
 10
3344.668243429655
 20
-596.0350747237657
 30
0.0
 11
3344.351379901839
 21
-596.0350747237657
 31
0.0
  0
LINE
  5
24A8A
  8
01
 10
3344.351379901839
 20
-596.0350747237657
 30
0.0
 11
3344.351379901839
 21
-597.2262452228846
 31
0.0
  0
LINE
  5
24A8B
  8
01
 10
3344.351379901839
 20
-597.2262452228846
 30
0.0
 11
3343.24224606133
 21
-595.9822715686727
 31
0.0
  0
LINE
  5
24A8C
  8
01
 10
3339.704345475579
 20
-597.1705432459324
 30
0.0
 11
3340.07316481056
 21
-597.1705432459324
 31
0.0
  0
LINE
  5
24A8D
  8
01
 10
3340.07316481056
 20
-597.1705432459324
 30
0.0
 11
3339.88875514307
 21
-596.7582192844351
 31
0.0
  0
LINE
  5
24A8E
  8
01
 10
3339.88875514307
 20
-596.7582192844351
 30
0.0
 11
3339.704345475579
 21
-597.1705432459324
 31
0.0
  0
LINE
  5
24A8F
  8
01
 10
3336.693584495572
 20
-596.7582192844351
 30
0.0
 11
3336.509174828078
 21
-597.1705432459324
 31
0.0
  0
LINE
  5
24A90
  8
01
 10
3336.509174828078
 20
-597.1705432459324
 30
0.0
 11
3336.877994163063
 21
-597.1705432459324
 31
0.0
  0
LINE
  5
24A91
  8
01
 10
3336.877994163063
 20
-597.1705432459324
 30
0.0
 11
3336.693584495572
 21
-596.7582192844351
 31
0.0
  0
LINE
  5
24A92
  8
01
 10
3339.337978989864
 20
-597.9891482402821
 30
0.0
 11
3339.574344464519
 21
-597.461005196203
 31
0.0
  0
LINE
  5
24A93
  8
01
 10
3339.574344464519
 20
-597.461005196203
 30
0.0
 11
3340.203165821625
 21
-597.461005196203
 31
0.0
  0
LINE
  5
24A94
  8
01
 10
3335.663610790444
 20
-597.9891482402821
 30
0.0
 11
3334.950723599427
 21
-596.9328844507548
 31
0.0
  0
LINE
  5
24A95
  8
01
 10
3334.950723599427
 20
-596.9328844507548
 30
0.0
 11
3335.663610790444
 21
-596.0350747237657
 31
0.0
  0
LINE
  5
24A96
  8
01
 10
3335.663610790444
 20
-596.0350747237657
 30
0.0
 11
3336.06833091922
 21
-596.0350747237657
 31
0.0
  0
LINE
  5
24A97
  8
01
 10
3336.06833091922
 20
-596.0350747237657
 30
0.0
 11
3335.343402468173
 21
-596.9480921161997
 31
0.0
  0
LINE
  5
24A98
  8
01
 10
3335.343402468173
 20
-596.9480921161997
 30
0.0
 11
3335.895516539163
 21
-597.7661396448069
 31
0.0
  0
LINE
  5
24A99
  8
01
 10
3335.895516539163
 20
-597.7661396448069
 30
0.0
 11
3336.693584495572
 21
-595.9822492700426
 31
0.0
  0
LINE
  5
24A9A
  8
01
 10
3334.950723599427
 20
-597.9891259416521
 30
0.0
 11
3334.633860071611
 21
-597.9891259416521
 31
0.0
  0
LINE
  5
24A9B
  8
01
 10
3334.633860071611
 20
-597.9891259416521
 30
0.0
 11
3334.633860071611
 21
-596.0350747237657
 31
0.0
  0
LINE
  5
24A9C
  8
01
 10
3334.633860071611
 20
-596.0350747237657
 30
0.0
 11
3334.950723599427
 21
-596.0350747237657
 31
0.0
  0
LINE
  5
24A9D
  8
01
 10
3334.950723599427
 20
-596.0350747237657
 30
0.0
 11
3334.950723599427
 21
-597.9891259416521
 31
0.0
  0
LINE
  5
24A9E
  8
01
 10
3336.142808342363
 20
-597.9891482402821
 30
0.0
 11
3336.379173817021
 21
-597.461005196203
 31
0.0
  0
LINE
  5
24A9F
  8
01
 10
3336.379173817021
 20
-597.461005196203
 30
0.0
 11
3337.007995174124
 21
-597.461005196203
 31
0.0
  0
LINE
  5
24AA0
  8
01
 10
3337.007995174124
 20
-597.461005196203
 30
0.0
 11
3337.244137662484
 21
-597.9891482402821
 31
0.0
  0
TEXT
  5
24AA1
  8
01
  6
CONTINUOUS
 10
3639.414025505103
 20
-653.0097023988194
 30
0.0
 40
3.5
  1
Wall Backing 9mm
  0
TEXT
  5
24AA2
  8
01
  6
CONTINUOUS
 10
3639.414025505103
 20
-658.8430357321528
 30
0.0
 40
3.5
  1
and above
  0
TEXT
  5
24AA3
  8
01
  6
CONTINUOUS
 10
3639.074525505103
 20
-644.903907970006
 30
0.0
 40
3.5
  1
\U+77F3
  0
TEXT
  5
24AA4
  8
01
  6
CONTINUOUS
 10
3644.163525505103
 20
-644.903907970006
 30
0.0
 40
3.5
  1
\U+818F
  0
TEXT
  5
24AA5
  8
01
  6
CONTINUOUS
 10
3649.252525505103
 20
-644.903907970006
 30
0.0
 40
3.5
  1
\U+30DC
  0
TEXT
  5
24AA6
  8
01
  6
CONTINUOUS
 10
3654.103525505103
 20
-644.903907970006
 30
0.0
 40
3.5
  1
\U+30FC
  0
TEXT
  5
24AA7
  8
01
  6
CONTINUOUS
 10
3658.993025505103
 20
-644.903907970006
 30
0.0
 40
3.5
  1
\U+30C9
  0
TEXT
  5
24AA8
  8
01
  6
CONTINUOUS
 10
3662.591025505103
 20
-644.903907970006
 30
0.0
 40
3.5
  1
\U+3078
  0
TEXT
  5
24AA9
  8
01
  6
CONTINUOUS
 10
3667.680025505103
 20
-644.903907970006
 30
0.0
 40
3.5
  1
\U+306E
  0
TEXT
  5
24AAA
  8
01
  6
CONTINUOUS
 10
3672.769025505103
 20
-644.903907970006
 30
0.0
 40
3.5
  1
\U+53D6
  0
TEXT
  5
24AAB
  8
01
  6
CONTINUOUS
 10
3677.858025505103
 20
-644.903907970006
 30
0.0
 40
3.5
  1
\U+4ED8
  0
TEXT
  5
24AAC
  8
01
  6
CONTINUOUS
 10
3682.947025505103
 20
-644.903907970006
 30
0.0
 40
3.5
  1
\U+4E0D
  0
TEXT
  5
24AAD
  8
01
  6
CONTINUOUS
 10
3688.036025505103
 20
-644.903907970006
 30
0.0
 40
3.5
  1
\U+53EF
  0
SOLID
  5
24AAE
  8
1DIM
 10
3636.331116298681
 20
-672.3930647529481
 30
0.0
 11
3635.590181571988
 21
-674.2804245071793
 31
0.0
 12
3635.678949095866
 22
-672.2547810445196
 32
0.0
 13
3635.678949095866
 23
-672.2547810445196
 33
0.0
1001
ACAD
1000
DSTYLE
1002
{
1070
    45
1040
0.5
1002
}
  0
LINE
  5
24AAF
  8
1DIM
 10
3636.005032697273
 20
-672.3239228987338
 30
0.0
 11
3638.714025505103
 21
-659.5478968432639
 31
0.0
1001
ACAD
1000
DSTYLE
1002
{
1070
    45
1040
0.5
1002
}
  0
LINE
  5
24AB0
  8
1DIM
 10
3358.65109815081
 20
-583.0350747237657
 30
0.0
 11
3502.20109815081
 21
-583.0350747237657
 31
0.0
  0
LINE
  5
24AB1
  8
1DIM
 10
3483.65109815081
 20
-654.0350747237648
 30
0.0
 11
3502.20109815081
 21
-654.0350747237648
 31
0.0
  0
LINE
  5
24AB2
  8
1DIM
 10
3501.20109815081
 20
-585.0350747237657
 30
0.0
 11
3501.20109815081
 21
-652.0350747237648
 31
0.0
  0
LINE
  5
24AB6
  8
1DIM
 10
3339.65109815081
 20
-684.6871541143578
 30
0.0
 11
3502.20109815081
 21
-684.6871541143578
 31
0.0
  0
LINE
  5
24AB7
  8
1DIM
 10
3339.65109815081
 20
-729.687154112109
 30
0.0
 11
3502.20109815081
 21
-729.687154112109
 31
0.0
  0
LINE
  5
24AB8
  8
1DIM
 10
3501.20109815081
 20
-686.6871541143578
 30
0.0
 11
3501.20109815081
 21
-727.687154112109
 31
0.0
  0
SOLID
  5
24ABC
  8
1DIM
 10
3298.146218977018
 20
-689.6183075443421
 30
0.0
 11
3299.042270463179
 21
-691.4371541143583
 31
0.0
 12
3297.604758007616
 22
-690.0072348679628
 32
0.0
 13
3297.604758007616
 23
-690.0072348679628
 33
0.0
1001
ACAD
1000
DSTYLE
1002
{
1070
    45
1040
0.5
1002
}
  0
LINE
  5
24ABD
  8
1DIM
 10
3297.875488492317
 20
-689.8127712061524
 30
0.0
 11
3290.155431471204
 21
-679.0649802832197
 31
0.0
1001
ACAD
1000
DSTYLE
1002
{
1070
    45
1040
0.5
1002
}
  0
LINE
  5
24ABE
  8
1DIM
 10
3339.650981513949
 20
-709.1061269931685
 30
0.0
 11
3339.650981513949
 21
-765.5859490629085
 31
0.0
1001
ACAD
1000
DSTYLE
1002
{
1070
   340
1005
F
1070
    70
1070
     0
1070
    69
1070
     0
1002
}
  0
LINE
  5
24ABF
  8
1DIM
 10
3352.651106010799
 20
-705.8585213387506
 30
0.0
 11
3352.651106010799
 21
-765.5859490629085
 31
0.0
1001
ACAD
1000
DSTYLE
1002
{
1070
   340
1005
F
1070
    70
1070
     0
1070
    69
1070
     0
1002
}
  0
LINE
  5
24AC0
  8
1DIM
 10
3341.650981513949
 20
-764.5859490629085
 30
0.0
 11
3350.651106010799
 21
-764.5859490629085
 31
0.0
1001
ACAD
1000
DSTYLE
1002
{
1070
   340
1005
F
1070
    70
1070
     0
1070
    69
1070
     0
1002
}
  0
LINE
  5
24AC4
  8
1DIM
 10
3339.650981513949
 20
-709.1061269931685
 30
0.0
 11
3339.650981513949
 21
-765.5859490629085
 31
0.0
1001
ACAD
1000
DSTYLE
1002
{
1070
   340
1005
F
1070
    70
1070
     0
1070
    69
1070
     0
1002
}
  0
LINE
  5
24AC5
  8
1DIM
 10
3326.650950554255
 20
-705.8585213387506
 30
0.0
 11
3326.650950554255
 21
-765.5859490629085
 31
0.0
1001
ACAD
1000
DSTYLE
1002
{
1070
   340
1005
F
1070
    70
1070
     0
1070
    69
1070
     0
1002
}
  0
LINE
  5
24AC6
  8
1DIM
 10
3337.650981513949
 20
-764.5859490629085
 30
0.0
 11
3328.650950554255
 21
-764.5859490629085
 31
0.0
1001
ACAD
1000
DSTYLE
1002
{
1070
   340
1005
F
1070
    70
1070
     0
1070
    69
1070
     0
1002
}
  0
LINE
  5
24ACA
  8
1DIM
 10
3326.650950554255
 20
-705.8585213387506
 30
0.0
 11
3326.650950554255
 21
-776.0612688333848
 31
0.0
1001
ACAD
1000
DSTYLE
1002
{
1070
   340
1005
F
1070
    70
1070
     0
1070
    69
1070
     0
1002
}
  0
LINE
  5
24ACB
  8
1DIM
 10
3352.651106010799
 20
-705.8585213387506
 30
0.0
 11
3352.651106010799
 21
-776.0612688333848
 31
0.0
1001
ACAD
1000
DSTYLE
1002
{
1070
   340
1005
F
1070
    70
1070
     0
1070
    69
1070
     0
1002
}
  0
LINE
  5
24ACC
  8
1DIM
 10
3328.650950554255
 20
-775.0612688333848
 30
0.0
 11
3350.651106010799
 21
-775.0612688333848
 31
0.0
1001
ACAD
1000
DSTYLE
1002
{
1070
   340
1005
F
1070
    70
1070
     0
1070
    69
1070
     0
1002
}
  0
LINE
  5
24AD0
  8
1DIM
 10
3514.291677961862
 20
-702.1868833994175
 30
0.0
 11
3514.291677961862
 21
-635.3046470602984
 31
0.0
1001
ACADSTRINGINFO
1000
MIFCodePage
1070
     1
1001
ACAD
1000
DSTYLE
1002
{
1070
   340
1005
F
1070
    70
1070
     0
1070
    69
1070
     0
1070
    45
1040
0.5
1070
   271
1070
     0
1002
}
  0
LINE
  5
24AD1
  8
1DIM
 10
3632.041091849115
 20
-666.0507923051011
 30
0.0
 11
3632.041091849115
 21
-635.3046470602984
 31
0.0
1001
ACADSTRINGINFO
1000
MIFCodePage
1070
     1
1001
ACAD
1000
DSTYLE
1002
{
1070
   340
1005
F
1070
    70
1070
     0
1070
    69
1070
     0
1070
    45
1040
0.5
1070
   271
1070
     0
1002
}
  0
LINE
  5
24AD2
  8
1DIM
 10
3516.291677961862
 20
-636.3046470602984
 30
0.0
 11
3630.041091849115
 21
-636.3046470602984
 31
0.0
1001
ACADSTRINGINFO
1000
MIFCodePage
1070
     1
1001
ACAD
1000
DSTYLE
1002
{
1070
   340
1005
F
1070
    70
1070
     0
1070
    69
1070
     0
1070
    45
1040
0.5
1070
   271
1070
     0
1002
}
  0
LINE
  5
24AD6
  8
1DIM
 10
3571.791677961871
 20
-731.134714135899
 30
0.0
 11
3571.791677961871
 21
-776.0612688333848
 31
0.0
  0
LINE
  5
24AD7
  8
1DIM
 10
3632.041091849115
 20
-748.0112688333849
 30
0.0
 11
3632.041091849115
 21
-776.0612688333848
 31
0.0
  0
LINE
  5
24AD8
  8
1DIM
 10
3573.791677961871
 20
-775.0612688333848
 30
0.0
 11
3630.041091849115
 21
-775.0612688333848
 31
0.0
  0
LINE
  5
24ADC
  8
0
  6
BYBLOCK
 10
3500.66519977081
 20
-585.0350747237657
 30
0.0
 11
3501.20109815081
 21
-583.0350747237657
 31
0.0
  0
LINE
  5
24ADD
  8
0
  6
BYBLOCK
 10
3501.20109815081
 20
-583.0350747237657
 30
0.0
 11
3501.73699653081
 21
-585.0350747237657
 31
0.0
  0
LINE
  5
24ADE
  8
0
  6
BYBLOCK
 10
3501.20109815081
 20
-583.0350747237657
 30
0.0
 11
3501.20109815081
 21
-585.0350747237657
 31
0.0
  0
LINE
  5
24ADF
  8
0
  6
BYBLOCK
 10
3501.73699653081
 20
-652.0350747237648
 30
0.0
 11
3501.20109815081
 21
-654.0350747237648
 31
0.0
  0
LINE
  5
24AE0
  8
0
  6
BYBLOCK
 10
3501.20109815081
 20
-654.0350747237648
 30
0.0
 11
3500.66519977081
 21
-652.0350747237648
 31
0.0
  0
LINE
  5
24AE1
  8
0
  6
BYBLOCK
 10
3501.20109815081
 20
-654.0350747237648
 30
0.0
 11
3501.20109815081
 21
-652.0350747237648
 31
0.0
  0
TEXT
  5
24AE2
  8
1DIM
  6
CONTINUOUS
 10
3500.50109815081
 20
-620.8684080570988
 30
0.0
 40
3.5
  1
71
 50
90.0
  0
LINE
  5
24AE3
  8
0
  6
BYBLOCK
 10
3500.66519977081
 20
-686.6871541143578
 30
0.0
 11
3501.20109815081
 21
-684.6871541143578
 31
0.0
  0
LINE
  5
24AE4
  8
0
  6
BYBLOCK
 10
3501.20109815081
 20
-684.6871541143578
 30
0.0
 11
3501.73699653081
 21
-686.6871541143578
 31
0.0
  0
LINE
  5
24AE5
  8
0
  6
BYBLOCK
 10
3501.20109815081
 20
-684.6871541143578
 30
0.0
 11
3501.20109815081
 21
-686.6871541143578
 31
0.0
  0
LINE
  5
24AE6
  8
0
  6
BYBLOCK
 10
3501.73699653081
 20
-727.687154112109
 30
0.0
 11
3501.20109815081
 21
-729.687154112109
 31
0.0
  0
LINE
  5
24AE7
  8
0
  6
BYBLOCK
 10
3501.20109815081
 20
-729.687154112109
 30
0.0
 11
3500.66519977081
 21
-727.687154112109
 31
0.0
  0
LINE
  5
24AE8
  8
0
  6
BYBLOCK
 10
3501.20109815081
 20
-729.687154112109
 30
0.0
 11
3501.20109815081
 21
-727.687154112109
 31
0.0
  0
TEXT
  5
24AE9
  8
1DIM
  6
CONTINUOUS
 10
3500.498667595255
 20
-710.1038207799002
 30
0.0
 40
3.5
  1
45
 50
90.0
  0
LINE
  5
24AEA
  8
0
  6
BYBLOCK
 10
3341.650981513949
 20
-765.1218474429086
 30
0.0
 11
3339.650981513949
 21
-764.5859490629085
 31
0.0
  0
LINE
  5
24AEB
  8
0
  6
BYBLOCK
 10
3339.650981513949
 20
-764.5859490629085
 30
0.0
 11
3341.650981513949
 21
-764.0500506829085
 31
0.0
  0
LINE
  5
24AEC
  8
0
  6
BYBLOCK
 10
3339.650981513949
 20
-764.5859490629085
 30
0.0
 11
3341.650981513949
 21
-764.5859490629085
 31
0.0
  0
LINE
  5
24AED
  8
0
  6
BYBLOCK
 10
3350.651106010799
 20
-764.0500506829085
 30
0.0
 11
3352.651106010799
 21
-764.5859490629085
 31
0.0
  0
LINE
  5
24AEE
  8
0
  6
BYBLOCK
 10
3352.651106010799
 20
-764.5859490629085
 30
0.0
 11
3350.651106010799
 21
-765.1218474429086
 31
0.0
  0
LINE
  5
24AEF
  8
0
  6
BYBLOCK
 10
3352.651106010799
 20
-764.5859490629085
 30
0.0
 11
3350.651106010799
 21
-764.5859490629085
 31
0.0
  0
TEXT
  5
24AF0
  8
1DIM
  6
CONTINUOUS
 10
3342.06771042904
 20
-763.8859490629085
 30
0.0
 40
3.5
  1
P13
1001
ACAD
1000
DSTYLE
1002
{
1070
   340
1005
F
1070
    70
1070
     0
1070
    69
1070
     0
1002
}
  0
LINE
  5
24AF1
  8
0
  6
BYBLOCK
 10
3337.650981513949
 20
-764.0500506829085
 30
0.0
 11
3339.650981513949
 21
-764.5859490629085
 31
0.0
  0
LINE
  5
24AF2
  8
0
  6
BYBLOCK
 10
3339.650981513949
 20
-764.5859490629085
 30
0.0
 11
3337.650981513949
 21
-765.1218474429086
 31
0.0
  0
LINE
  5
24AF3
  8
0
  6
BYBLOCK
 10
3339.650981513949
 20
-764.5859490629085
 30
0.0
 11
3337.650981513949
 21
-764.5859490629085
 31
0.0
  0
LINE
  5
24AF4
  8
0
  6
BYBLOCK
 10
3328.650950554255
 20
-765.1218474429086
 30
0.0
 11
3326.650950554255
 21
-764.5859490629085
 31
0.0
  0
LINE
  5
24AF5
  8
0
  6
BYBLOCK
 10
3326.650950554255
 20
-764.5859490629085
 30
0.0
 11
3328.650950554255
 21
-764.0500506829085
 31
0.0
  0
LINE
  5
24AF6
  8
0
  6
BYBLOCK
 10
3326.650950554255
 20
-764.5859490629085
 30
0.0
 11
3328.650950554255
 21
-764.5859490629085
 31
0.0
  0
TEXT
  5
24AF7
  8
1DIM
  6
CONTINUOUS
 10
3329.067632700769
 20
-763.8859490629085
 30
0.0
 40
3.5
  1
P13
1001
ACAD
1000
DSTYLE
1002
{
1070
   340
1005
F
1070
    70
1070
     0
1070
    69
1070
     0
1002
}
  0
LINE
  5
24AF8
  8
0
  6
BYBLOCK
 10
3328.650950554255
 20
-775.5971672133849
 30
0.0
 11
3326.650950554255
 21
-775.0612688333848
 31
0.0
  0
LINE
  5
24AF9
  8
0
  6
BYBLOCK
 10
3326.650950554255
 20
-775.0612688333848
 30
0.0
 11
3328.650950554255
 21
-774.5253704533848
 31
0.0
  0
LINE
  5
24AFA
  8
0
  6
BYBLOCK
 10
3326.650950554255
 20
-775.0612688333848
 30
0.0
 11
3328.650950554255
 21
-775.0612688333848
 31
0.0
  0
LINE
  5
24AFB
  8
0
  6
BYBLOCK
 10
3350.651106010799
 20
-774.5253704533848
 30
0.0
 11
3352.651106010799
 21
-775.0612688333848
 31
0.0
  0
LINE
  5
24AFC
  8
0
  6
BYBLOCK
 10
3352.651106010799
 20
-775.0612688333848
 30
0.0
 11
3350.651106010799
 21
-775.5971672133849
 31
0.0
  0
LINE
  5
24AFD
  8
0
  6
BYBLOCK
 10
3352.651106010799
 20
-775.0612688333848
 30
0.0
 11
3350.651106010799
 21
-775.0612688333848
 31
0.0
  0
TEXT
  5
24AFE
  8
1DIM
  6
CONTINUOUS
 10
3334.984361615861
 20
-774.3612688333848
 30
0.0
 40
3.5
  1
P26
1001
ACAD
1000
DSTYLE
1002
{
1070
   340
1005
F
1070
    70
1070
     0
1070
    69
1070
     0
1002
}
  0
LINE
  5
24AFF
  8
0
  6
BYBLOCK
 10
3516.291677961862
 20
-636.8405454402985
 30
0.0
 11
3514.291677961862
 21
-636.3046470602984
 31
0.0
  0
LINE
  5
24B00
  8
0
  6
BYBLOCK
 10
3514.291677961862
 20
-636.3046470602984
 30
0.0
 11
3516.291677961862
 21
-635.7687486802984
 31
0.0
  0
LINE
  5
24B01
  8
0
  6
BYBLOCK
 10
3514.291677961862
 20
-636.3046470602984
 30
0.0
 11
3516.291677961862
 21
-636.3046470602984
 31
0.0
  0
LINE
  5
24B02
  8
0
  6
BYBLOCK
 10
3630.041091849115
 20
-635.7687486802984
 30
0.0
 11
3632.041091849115
 21
-636.3046470602984
 31
0.0
  0
LINE
  5
24B03
  8
0
  6
BYBLOCK
 10
3632.041091849115
 20
-636.3046470602984
 30
0.0
 11
3630.041091849115
 21
-636.8405454402985
 31
0.0
  0
LINE
  5
24B04
  8
0
  6
BYBLOCK
 10
3632.041091849115
 20
-636.3046470602984
 30
0.0
 11
3630.041091849115
 21
-636.3046470602984
 31
0.0
  0
TEXT
  5
24B05
  8
1DIM
  6
CONTINUOUS
 10
3541.45406155533
 20
-634.4379803936317
 30
0.0
 40
3.5
  1
118
1001
ACADSTRINGINFO
1000
MIFCodePage
1070
     1
1001
ACAD
1000
DSTYLE
1002
{
1070
   340
1005
F
1070
    70
1070
     0
1070
    69
1070
     0
1070
    45
1040
0.5
1070
   271
1070
     0
1002
}
  0
TEXT
  5
24B06
  8
1DIM
  6
CONTINUOUS
 10
3553.120728221997
 20
-634.4379803936317
 30
0.0
 40
3.5
  1
\U+FF08
1001
ACADSTRINGINFO
1000
MIFCodePage
1070
     1
1001
ACAD
1000
DSTYLE
1002
{
1070
   340
1005
F
1070
    70
1070
     0
1070
    69
1070
     0
1070
    45
1040
0.5
1070
   271
1070
     0
1002
}
  0
TEXT
  5
24B07
  8
1DIM
  6
CONTINUOUS
 10
3555.665228221997
 20
-634.4379803936317
 30
0.0
 40
3.5
  1
with toilet
1001
ACADSTRINGINFO
1000
MIFCodePage
1070
     1
1001
ACAD
1000
DSTYLE
1002
{
1070
   340
1005
F
1070
    70
1070
     0
1070
    69
1070
     0
1070
    45
1040
0.5
1070
   271
1070
     0
1002
}
  0
TEXT
  5
24B08
  8
1DIM
  6
CONTINUOUS
 10
3591.20805229607
 20
-634.4379803936317
 30
0.0
 40
3.5
  1
paper
1001
ACADSTRINGINFO
1000
MIFCodePage
1070
     1
1001
ACAD
1000
DSTYLE
1002
{
1070
   340
1005
F
1070
    70
1070
     0
1070
    69
1070
     0
1070
    45
1040
0.5
1070
   271
1070
     0
1002
}
  0
TEXT
  5
24B09
  8
1DIM
  6
CONTINUOUS
 10
3608.70805229607
 20
-634.4379803936317
 30
0.0
 40
3.5
  1
\U+FF09
1001
ACADSTRINGINFO
1000
MIFCodePage
1070
     1
1001
ACAD
1000
DSTYLE
1002
{
1070
   340
1005
F
1070
    70
1070
     0
1070
    69
1070
     0
1070
    45
1040
0.5
1070
   271
1070
     0
1002
}
  0
LINE
  5
24B0A
  8
0
  6
BYBLOCK
 10
3573.791677961871
 20
-775.5971672133849
 30
0.0
 11
3571.791677961871
 21
-775.0612688333848
 31
0.0
  0
LINE
  5
24B0B
  8
0
  6
BYBLOCK
 10
3571.791677961871
 20
-775.0612688333848
 30
0.0
 11
3573.791677961871
 21
-774.5253704533848
 31
0.0
  0
LINE
  5
24B0C
  8
0
  6
BYBLOCK
 10
3571.791677961871
 20
-775.0612688333848
 30
0.0
 11
3573.791677961871
 21
-775.0612688333848
 31
0.0
  0
LINE
  5
24B0D
  8
0
  6
BYBLOCK
 10
3630.041091849115
 20
-774.5253704533848
 30
0.0
 11
3632.041091849115
 21
-775.0612688333848
 31
0.0
  0
LINE
  5
24B0E
  8
0
  6
BYBLOCK
 10
3632.041091849115
 20
-775.0612688333848
 30
0.0
 11
3630.041091849115
 21
-775.5971672133849
 31
0.0
  0
LINE
  5
24B0F
  8
0
  6
BYBLOCK
 10
3632.041091849115
 20
-775.0612688333848
 30
0.0
 11
3630.041091849115
 21
-775.0612688333848
 31
0.0
  0
TEXT
  5
24B10
  8
1DIM
  6
CONTINUOUS
 10
3595.195898794382
 20
-774.3612688333849
 30
0.0
 40
3.5
  1
60.25
  0
VIEWPORT
  5
57
 67
     1
  8
0
 10
0.0
 20
0.0
 30
0.0
 40
636.9151376146789
 41
297.0
 68
     1
 69
     1
1001
ACAD
1000
MVIEW
1002
{
1070
    16
1010
0.0
1020
0.0
1030
0.0
1010
0.0
1020
0.0
1030
1.0
1040
0.0
1040
297.0
1040
-4.171999999925362
1040
12.83903210976956
1040
50.0
1040
0.0
1040
0.0
1070
    16
1070
   100
1070
     0
1070
     1
1070
     0
1070
     0
1070
     0
1070
     0
1040
0.0
1040
0.0
1040
0.0
1040
10.0
1040
10.0
1040
10.0
1040
10.0
1070
     0
1002
{
1002
}
1002
}
  0
ENDSEC
  0
EOF
