  0
SECTION
  2
HEADER
  9
$ACADVER
  1
AC1009
  9
$DWGCODEPAGE
  3
ansi_932
  9
$INSBASE
 10
0.0
 20
0.0
 30
0.0
  9
$EXTMIN
 10
21320.18105162328
 20
36915.50071584628
 30
0.0
  9
$EXTMAX
 10
21553.1908290867
 20
37038.40988931997
 30
0.0
  9
$LIMMIN
 10
0.0
 20
0.0
  9
$LIMMAX
 10
420.0
 20
297.0
  9
$ORTHOMODE
 70
     0
  9
$REGENMODE
 70
     1
  9
$FILLMODE
 70
     1
  9
$QTEXTMODE
 70
     0
  9
$MIRRTEXT
 70
     0
  9
$DRAGMODE
 70
     2
  9
$LTSCALE
 40
0.5
  9
$OSMODE
 70
   951
  9
$ATTMODE
 70
     1
  9
$TEXTSIZE
 40
2.0
  9
$TRACEWID
 40
1.0
  9
$TEXTSTYLE
  7
STANDARD
  9
$CLAYER
  8
1TEXT
  9
$CELTYPE
  6
BYLAYER
  9
$CECOLOR
 62
   256
  9
$DIMSCALE
 40
1.0
  9
$DIMASZ
 40
2.0
  9
$DIMEXO
 40
0.0
  9
$DIMDLI
 40
7.0
  9
$DIMRND
 40
0.0
  9
$DIMDLE
 40
0.0
  9
$DIMEXE
 40
1.0
  9
$DIMTP
 40
0.0
  9
$DIMTM
 40
0.0
  9
$DIMTXT
 40
3.5
  9
$DIMCEN
 40
0.0
  9
$DIMTSZ
 40
0.0
  9
$DIMTOL
 70
     0
  9
$DIMLIM
 70
     0
  9
$DIMTIH
 70
     0
  9
$DIMTOH
 70
     0
  9
$DIMSE1
 70
     0
  9
$DIMSE2
 70
     0
  9
$DIMTAD
 70
     1
  9
$DIMZIN
 70
     8
  9
$DIMBLK
  1

  9
$DIMASO
 70
     1
  9
$DIMSHO
 70
     1
  9
$DIMPOST
  1
 
  9
$DIMAPOST
  1

  9
$DIMALT
 70
     0
  9
$DIMALTD
 70
     2
  9
$DIMALTF
 40
25.4
  9
$DIMLFAC
 40
1.0
  9
$DIMTOFL
 70
     1
  9
$DIMTVP
 40
0.0
  9
$DIMTIX
 70
     0
  9
$DIMSOXD
 70
     0
  9
$DIMSAH
 70
     1
  9
$DIMBLK1
  1
OPEN30
  9
$DIMBLK2
  1
OPEN30
  9
$DIMSTYLE
  2
NEWX10
  9
$DIMCLRD
 70
   256
  9
$DIMCLRE
 70
   256
  9
$DIMCLRT
 70
   201
  9
$DIMTFAC
 40
0.7
  9
$DIMGAP
 40
0.7
  9
$LUNITS
 70
     2
  9
$LUPREC
 70
     4
  9
$SKETCHINC
 40
1.0
  9
$FILLETRAD
 40
0.3
  9
$AUNITS
 70
     0
  9
$AUPREC
 70
     2
  9
$MENU
  1
acad
  9
$ELEVATION
 40
0.0
  9
$PELEVATION
 40
0.0
  9
$THICKNESS
 40
0.0
  9
$LIMCHECK
 70
     0
  9
$CHAMFERA
 40
1.0
  9
$CHAMFERB
 40
1.0
  9
$SKPOLY
 70
     0
  9
$TDCREATE
 40
2459282.72515353
  9
$TDUPDATE
 40
2460770.636665579
  9
$TDINDWG
 40
0.0178484259
  9
$TDUSRTIMER
 40
0.0178484259
  9
$USRTIMER
 70
     1
  9
$ANGBASE
 50
0.0
  9
$ANGDIR
 70
     0
  9
$PDMODE
 70
     0
  9
$PDSIZE
 40
0.0
  9
$PLINEWID
 40
0.0
  9
$COORDS
 70
     1
  9
$SPLFRAME
 70
     0
  9
$SPLINETYPE
 70
     6
  9
$SPLINESEGS
 70
     8
  9
$ATTDIA
 70
     0
  9
$ATTREQ
 70
     1
  9
$HANDLING
 70
     1
  9
$HANDSEED
  5
DE9B6
  9
$SURFTAB1
 70
     6
  9
$SURFTAB2
 70
     6
  9
$SURFTYPE
 70
     6
  9
$SURFU
 70
     6
  9
$SURFV
 70
     6
  9
$UCSNAME
  2

  9
$UCSORG
 10
0.0
 20
0.0
 30
0.0
  9
$UCSXDIR
 10
1.0
 20
0.0
 30
0.0
  9
$UCSYDIR
 10
0.0
 20
1.0
 30
0.0
  9
$PUCSNAME
  2

  9
$PUCSORG
 10
0.0
 20
0.0
 30
0.0
  9
$PUCSXDIR
 10
1.0
 20
0.0
 30
0.0
  9
$PUCSYDIR
 10
0.0
 20
1.0
 30
0.0
  9
$USERI1
 70
     0
  9
$USERI2
 70
     0
  9
$USERI3
 70
     0
  9
$USERI4
 70
     0
  9
$USERI5
 70
     0
  9
$USERR1
 40
0.0
  9
$USERR2
 40
0.0
  9
$USERR3
 40
0.0
  9
$USERR4
 40
0.0
  9
$USERR5
 40
4.5
  9
$WORLDVIEW
 70
     1
  9
$SHADEDGE
 70
     1
  9
$SHADEDIF
 70
    70
  9
$TILEMODE
 70
     1
  9
$MAXACTVP
 70
    48
  9
$PLIMCHECK
 70
     0
  9
$PEXTMIN
 10
1.000000000000000E+20
 20
1.000000000000000E+20
 30
1.000000000000000E+20
  9
$PEXTMAX
 10
-1.000000000000000E+20
 20
-1.000000000000000E+20
 30
-1.000000000000000E+20
  9
$PLIMMIN
 10
-20.0
 20
-7.5
  9
$PLIMMAX
 10
277.0
 20
202.5
  9
$UNITMODE
 70
     0
  9
$VISRETAIN
 70
     1
  9
$PLINEGEN
 70
     0
  9
$PSLTSCALE
 70
     1
  0
ENDSEC
  0
SECTION
  2
TABLES
  0
TABLE
  2
VPORT
 70
     1
  0
VPORT
  2
*ACTIVE
 70
     0
 10
0.0
 20
0.0
 11
1.0
 21
1.0
 12
10375.02539535499
 22
29490.37165358313
 13
0.0
 23
0.0
 14
10.0
 24
10.0
 15
10.0
 25
10.0
 16
0.0
 26
0.0
 36
1.0
 17
11061.660545
 27
7486.583649
 37
474.311593
 40
131.9656388875451
 41
2.144495412844037
 42
50.0
 43
0.0
 44
0.0
 50
0.0
 51
0.0
 71
    16
 72
    20
 73
     1
 74
     1
 75
     0
 76
     0
 77
     0
 78
     0
  0
ENDTAB
  0
TABLE
  2
LTYPE
 70
    15
  0
LTYPE
  2
CONTINUOUS
 70
     0
  3
Solid line
 72
    65
 73
     0
 40
0.0
  0
LTYPE
  2
CENTER2
 70
     0
  3
Center (.5x) ___ _ ___ _ ___ _ ___ _ ___ _ ___
 72
    65
 73
     4
 40
28.575
 49
19.05
 49
-3.175
 49
3.175
 49
-3.175
  0
ENDTAB
  0
TABLE
  2
LAYER
 70
    64
  0
LAYER
  2
0
 70
     0
 62
     7
  6
CONTINUOUS
  0
LAYER
  2
01
 70
     0
 62
     1
  6
CONTINUOUS
  0
LAYER
  2
1CENTER
 70
     0
 62
     7
  6
CENTER2
  0
LAYER
  2
1DIM
 70
     0
 62
     7
  6
CONTINUOUS
  0
LAYER
  2
1TEXT
 70
     0
 62
     7
  6
CONTINUOUS
  0
LAYER
  2
1HATCH
 70
     0
 62
     7
  6
CONTINUOUS
  0
ENDTAB
  0
TABLE
  2
STYLE
 70
    36
  0
STYLE
  2
STANDARD
 70
     0
 40
0.0
 41
1.0
 50
0.0
 71
     0
 42
2.0
  3
txt.shx
  4
extfont.shx
  0
STYLE
  2
MAKER
 70
     0
 40
0.0
 41
1.0
 50
0.0
 71
     0
 42
4.0
  3
meiryo.ttc
  4

  0
STYLE
  2
STANDARD06
 70
     0
 40
0.0
 41
0.6
 50
0.0
 71
     0
 42
2.0
  3
romans.shx
  4
extfont2.shx
  0
STYLE
  2
STD
 70
     0
 40
0.0
 41
1.0
 50
0.0
 71
     0
 42
2.0
  3
TXT.shx
  4
bigfont.shx
  0
ENDTAB
  0
TABLE
  2
VIEW
 70
     0
  0
ENDTAB
  0
TABLE
  2
UCS
 70
     5
  0
UCS
  2
U
 70
     0
 10
0.0
 20
0.0
 30
0.0
 11
1.0
 21
0.0
 31
0.0
 12
0.0
 22
2.000000000000000E-16
 32
1.0
  0
UCS
  2
L
 70
     0
 10
0.0
 20
0.0
 30
0.0
 11
-2.000000000000000E-16
 21
-1.0
 31
2.000000000000000E-16
 12
0.0
 22
2.000000000000000E-16
 32
1.0
  0
UCS
  2
R
 70
     0
 10
0.0
 20
0.0
 30
0.0
 11
3.000000000000000E-16
 21
1.0
 31
-2.000000000000000E-16
 12
0.0
 22
2.000000000000000E-16
 32
1.0
  0
UCS
  2
ISOME
 70
     0
 10
0.0
 20
0.0
 30
0.0
 11
0.7071450863198266
 21
-0.7070684729403536
 31
-3.830824619470000E-5
 12
0.4082704059428736
 22
0.408270407740115
 32
0.8164744636514736
  0
UCS
  2
PERSPECTIVE
 70
     0
 10
0.0
 20
0.0
 30
0.0
 11
0.8191477691768962
 21
-0.5735823260466403
 31
-0.0004974931557765
 12
0.1584844715982971
 22
0.225502028986108
 32
0.9612655757829659
  0
ENDTAB
  0
TABLE
  2
APPID
 70
    37
  0
APPID
  2
ACAD
 70
     0
  0
APPID
  2
CONTENTTABDATA
 70
     0
  0
APPID
  2
CONTENTCURRENTTAB
 70
     0
  0
APPID
  2
CONTENTBLOCKICON
 70
     0
  0
APPID
  2
CONTENTBLOCKDESCRIPTION
 70
     0
  0
APPID
  2
DRAWINGVARIABLESXDATA
 70
     0
  0
APPID
  2
CONTENTLONGBLOCKNAME
 70
     0
  0
APPID
  2
ACAD_PSEXT
 70
     0
  0
APPID
  2
ACAD_MLEADERVER
 70
     0
  0
APPID
  2
ACAD_DSTYLE_DIMRADIAL_EXTE
 70
     0
  0
APPID
  2
ACDBBLOCKREPETAG
 70
     0
  0
APPID
  2
ACDBDYNAMICBLOCKTRUENAME
 70
     0
  0
APPID
  2
ACDBDYNAMICBLOCKGUID
 70
     0
  0
APPID
  2
ACDBBLOCKREPBTAG
 70
     0
  0
APPID
  2
ACADANNOTATIVE
 70
     0
  0
APPID
  2
ACAUTHENVIRON
 70
     0
  0
APPID
  2
ACADANNOPO
 70
     0
  0
APPID
  2
ACLAYERTOOLS
 70
     0
  0
APPID
  2
ACAD_EXEMPT_FROM_CAD_STAND
 70
     0
  0
APPID
  2
ACAECLAYERSTANDARD
 70
     0
  0
APPID
  2
ACAD_DSTYLE_DIMJOGGED_JOGA
 70
     0
  0
APPID
  2
ACAD_DSTYLE_DIM_LINETYPE
 70
     0
  0
APPID
  2
ACAD_DSTYLE_DIM_EXT1_LINET
 70
     0
  0
APPID
  2
ACAD_DSTYLE_DIM_EXT2_LINET
 70
     0
  0
APPID
  2
ACAD_DIMASSOC_CALC_DIMLFAC
 70
     0
  0
APPID
  2
ACAD_DIMASSOC_DIMLFAC
 70
     0
  0
APPID
  2
ACAD_DIMASSOC_OVERRIDDEN_D
 70
     0
  0
APPID
  2
ACAD_NAV_VCDISPLAY
 70
     0
  0
APPID
  2
ACAD_OBJECT_CHANGE_GUID
 70
     0
  0
APPID
  2
ACADANNOTATIVEDECOMPOSITIO
 70
     0
  0
APPID
  2
ACAD_DSTYLE_DIMJAG
 70
     0
  0
APPID
  2
ACAD_DSTYLE_DIMTALN
 70
     0
  0
APPID
  2
ACADSTRINGINFO
 70
     0
  0
APPID
  2
GRADIENTCOLOR1ACI
 70
     0
  0
APPID
  2
GRADIENTCOLOR2ACI
 70
     0
  0
APPID
  2
ASKOBJSC
 70
     0
  0
APPID
  2
ASKDWGSC
 70
     0
  0
ENDTAB
  0
TABLE
  2
DIMSTYLE
 70
     6
  0
DIMSTYLE
  2
NEWX10
 70
     0
  3
 
  4

  5

  6
OPEN30
  7
OPEN30
 40
1.0
 41
2.0
 42
0.0
 43
7.0
 44
1.0
 45
0.0
 46
0.0
 47
0.0
 48
0.0
140
3.5
141
0.0
142
0.0
143
25.4
144
1.0
145
0.0
146
0.7
147
0.7
 71
     0
 72
     0
 73
     0
 74
     0
 75
     0
 76
     0
 77
     1
 78
     8
170
     0
171
     2
172
     1
173
     1
174
     0
175
     0
176
   256
177
   256
178
   201
  0
DIMSTYLE
  2
ISO-25
 70
     0
  3

  4

  5

  6

  7

 40
1.0
 41
20.0
 42
3.0
 43
3.75
 44
2.0
 45
0.0
 46
0.0
 47
0.0
 48
0.0
140
30.0
141
5.0
142
0.0
143
0.03937
144
1.0
145
0.0
146
1.0
147
8.0
 71
     0
 72
     0
 73
     0
 74
     0
 75
     0
 76
     0
 77
     1
 78
     8
170
     0
171
     3
172
     1
173
     0
174
     0
175
     0
176
     1
177
     1
178
     1
  0
ENDTAB
  0
ENDSEC
  0
SECTION
  2
BLOCKS
  0
BLOCK
  8
0
  2
$MODEL_SPACE
 70
     0
 10
0.0
 20
0.0
 30
0.0
  3
$MODEL_SPACE
  1

  0
ENDBLK
  5
1A
  8
0
  0
BLOCK
 67
     1
  8
0
  2
$PAPER_SPACE
 70
     0
 10
0.0
 20
0.0
 30
0.0
  3
$PAPER_SPACE
  1

  0
ENDBLK
  5
7DA19
 67
     1
  8
0
  0
BLOCK
  8
0
  2
_OPEN30
 70
     0
 10
0.0
 20
0.0
 30
0.0
  3
_OPEN30
  1

  0
LINE
  5
2F1
  8
0
  6
BYBLOCK
 62
     0
 10
-1.0
 20
0.267949
 30
0.0
 11
0.0
 21
0.0
 31
0.0
  0
LINE
  5
2F2
  8
0
  6
BYBLOCK
 62
     0
 10
0.0
 20
0.0
 30
0.0
 11
-1.0
 21
-0.267949
 31
0.0
  0
LINE
  5
2F3
  8
0
  6
BYBLOCK
 62
     0
 10
0.0
 20
0.0
 30
0.0
 11
-1.0
 21
0.0
 31
0.0
  0
ENDBLK
  5
2F4
  8
0
  0
BLOCK
  8
0
  2
A3WAKUKAWAJUN2017_HYOUDAI_
 70
     0
 10
0.0
 20
0.0
 30
0.0
  3
A3WAKUKAWAJUN2017_HYOUDAI_
  1

  0
LINE
  5
940D1
  8
0
 10
13.26299999998673
 20
-0.0001000000000317
 30
0.0
 11
9.236999999990758
 21
8.999899999990987
 31
0.0
1001
ACAD
1000
ASC_BOUNDS
1002
{
1070
    19
1005
94112
1002
}
  0
LINE
  5
940D2
  8
0
 10
5.657999999994331
 20
0.9999999999989768
 30
0.0
 11
9.236999999990758
 21
8.999999999991019
 31
0.0
1001
ACAD
1000
ASC_BOUNDS
1002
{
1070
    19
1005
94112
1002
}
  0
LINE
  5
940D3
  8
0
 10
18.59199999998134
 20
-0.2368999999997641
 30
0.0
 11
16.46099999998353
 21
5.432899999994561
 31
0.0
1001
ACAD
1000
ASC_BOUNDS
1002
{
1070
    19
1005
94113
1002
}
  0
LINE
  5
940D4
  8
0
 10
18.59199999998134
 20
-0.2368999999997641
 30
0.0
 11
22.38199999997767
 21
8.763099999991255
 31
0.0
1001
ACAD
1000
ASC_BOUNDS
1002
{
1070
    19
1005
94113
1002
}
  0
LINE
  5
940D5
  8
0
 10
14.32899999998563
 20
-0.2368999999997641
 30
0.0
 11
16.46099999998353
 21
5.432899999994561
 31
0.0
1001
ACAD
1000
ASC_BOUNDS
1002
{
1070
    19
1005
94113
1002
}
  0
LINE
  5
940D6
  8
0
 10
14.32899999998563
 20
-0.2368999999997641
 30
0.0
 11
10.53899999998941
 21
8.763099999991255
 31
0.0
1001
ACAD
1000
ASC_BOUNDS
1002
{
1070
    19
1005
94113
1002
}
  0
LINE
  5
940D7
  8
0
 10
19.53899999998043
 20
-0.0001000000000317
 30
0.0
 11
23.56599999997638
 21
8.999899999990987
 31
0.0
1001
ACAD
1000
ASC_BOUNDS
1002
{
1070
    19
1005
94114
1002
}
  0
LINE
  5
940D8
  8
0
 10
26.97358892824991
 20
1.383099999991202
 30
0.0
 11
23.56599999997638
 21
8.999899999990987
 31
0.0
1001
ACAD
1000
ASC_BOUNDS
1002
{
1070
    19
1005
94114
1002
}
  0
LINE
  5
940D9
  8
0
 10
5.657999999994331
 20
0.9999999999989768
 30
0.0
 11
3.181999999996833
 21
4.668599999995308
 31
0.0
1001
ACAD
1000
ASC_BOUNDS
1002
{
1070
    19
1005
94112
1002
}
  0
LINE
  5
940DA
  8
0
 10
4.617999999995391
 20
-0.0001000000000317
 30
0.0
 11
1.420999999998571
 21
4.736799999995242
 31
0.0
1001
ACAD
1000
ASC_BOUNDS
1002
{
1070
    19
1005
94112
1002
}
  0
LINE
  5
940DB
  8
0
 10
1.420999999998571
 20
8.763099999991255
 30
0.0
 11
1.420999999998571
 21
0.0
 31
0.0
1001
ACAD
1000
ASC_BOUNDS
1002
{
1070
    19
1005
94117
1002
}
  0
LINE
  5
940DC
  8
0
 10
0.0
 20
8.763099999991255
 30
0.0
 11
0.0
 21
0.0
 31
0.0
1001
ACAD
1000
ASC_BOUNDS
1002
{
1070
    19
1005
94117
1002
}
  0
LINE
  5
940DD
  8
0
 10
6.766999999993232
 20
-0.0001000000000317
 30
0.0
 11
7.826999999992154
 21
2.368399999997621
 31
0.0
1001
ACAD
1000
ASC_BOUNDS
1002
{
1070
    19
1005
94112
1002
}
  0
LINE
  5
940DE
  8
0
 10
0.0
 20
0.0
 30
0.0
 11
1.420999999998571
 21
0.0
 31
0.0
1001
ACAD
1000
ASC_BOUNDS
1002
{
1070
    19
1005
94117
1002
}
  0
LINE
  5
940DF
  8
0
 10
4.617999999995391
 20
0.0
 30
0.0
 11
6.766999999993232
 21
0.0
 31
0.0
1001
ACAD
1000
ASC_BOUNDS
1002
{
1070
    19
1005
94112
1002
}
  0
LINE
  5
940E0
  8
0
 10
11.70599999998831
 20
-0.0001000000000317
 30
0.0
 11
10.64699999998936
 21
2.368399999997621
 31
0.0
1001
ACAD
1000
ASC_BOUNDS
1002
{
1070
    19
1005
94112
1002
}
  0
LINE
  5
940E1
  8
0
 10
7.826999999992154
 20
2.368399999997621
 30
0.0
 11
10.64699999998936
 21
2.368399999997621
 31
0.0
1001
ACAD
1000
ASC_BOUNDS
1002
{
1070
    19
1005
94112
1002
}
  0
LINE
  5
940E2
  8
0
 10
11.70599999998831
 20
0.0
 30
0.0
 11
13.26299999998673
 21
0.0
 31
0.0
1001
ACAD
1000
ASC_BOUNDS
1002
{
1070
    19
1005
94112
1002
}
  0
LINE
  5
940E3
  8
0
 10
22.15599999997789
 20
2.368399999997621
 30
0.0
 11
24.97599999997499
 21
2.368399999997621
 31
0.0
1001
ACAD
1000
ASC_BOUNDS
1002
{
1070
    19
1005
94114
1002
}
  0
LINE
  5
940E4
  8
0
 10
19.53899999998043
 20
0.0
 30
0.0
 11
21.09599999997886
 21
0.0
 31
0.0
1001
ACAD
1000
ASC_BOUNDS
1002
{
1070
    19
1005
94114
1002
}
  0
LINE
  5
940E5
  8
0
 10
21.09599999997886
 20
-0.0001000000000317
 30
0.0
 11
22.15599999997789
 21
2.368399999997621
 31
0.0
1001
ACAD
1000
ASC_BOUNDS
1002
{
1070
    19
1005
94114
1002
}
  0
LINE
  5
940E6
  8
0
 10
26.02015566812236
 20
0.0330999999912365
 30
0.0
 11
24.97599999997499
 21
2.368399999997621
 31
0.0
1001
ACAD
1000
ASC_BOUNDS
1002
{
1070
    19
1005
94114
1002
}
  0
LINE
  5
940E7
  8
0
 10
14.32399999998563
 20
3.315799999996671
 30
0.0
 11
16.46099999998353
 21
8.999899999990987
 31
0.0
1001
ACAD
1000
ASC_BOUNDS
1002
{
1070
    19
1005
94113
1002
}
  0
LINE
  5
940E8
  8
0
 10
6.432999999993513
 20
8.763099999991255
 30
0.0
 11
3.181999999996833
 21
4.668599999995308
 31
0.0
1001
ACAD
1000
ASC_BOUNDS
1002
{
1070
    19
1005
94112
1002
}
  0
LINE
  5
940E9
  8
0
 10
4.617999999995391
 20
8.763099999991255
 30
0.0
 11
1.420999999998571
 21
4.736799999995242
 31
0.0
1001
ACAD
1000
ASC_BOUNDS
1002
{
1070
    19
1005
94112
1002
}
  0
LINE
  5
940EA
  8
0
 10
0.0
 20
8.763099999991255
 30
0.0
 11
1.420999999998571
 21
8.763099999991255
 31
0.0
1001
ACAD
1000
ASC_BOUNDS
1002
{
1070
    19
1005
94117
1002
}
  0
LINE
  5
940EB
  8
0
 10
4.617999999995391
 20
8.763099999991255
 30
0.0
 11
6.432999999993513
 21
8.763099999991255
 31
0.0
1001
ACAD
1000
ASC_BOUNDS
1002
{
1070
    19
1005
94112
1002
}
  0
LINE
  5
940EC
  8
0
 10
14.32399999998563
 20
3.315799999996671
 30
0.0
 11
12.02999999998792
 21
8.763099999991255
 31
0.0
1001
ACAD
1000
ASC_BOUNDS
1002
{
1070
    19
1005
94113
1002
}
  0
LINE
  5
940ED
  8
0
 10
10.06399999998996
 20
3.670999999996297
 30
0.0
 11
9.236999999990758
 21
5.5200999999945
 31
0.0
1001
ACAD
1000
ASC_BOUNDS
1002
{
1070
    19
1005
94112
1002
}
  0
LINE
  5
940EE
  8
0
 10
8.409999999991555
 20
3.670999999996297
 30
0.0
 11
9.236999999990758
 21
5.5200999999945
 31
0.0
1001
ACAD
1000
ASC_BOUNDS
1002
{
1070
    19
1005
94112
1002
}
  0
LINE
  5
940EF
  8
0
 10
8.409999999991555
 20
3.670999999996297
 30
0.0
 11
10.06399999998996
 21
3.670999999996297
 31
0.0
1001
ACAD
1000
ASC_BOUNDS
1002
{
1070
    19
1005
94112
1002
}
  0
LINE
  5
940F0
  8
0
 10
10.53899999998941
 20
8.763099999991255
 30
0.0
 11
12.02999999998792
 21
8.763099999991255
 31
0.0
1001
ACAD
1000
ASC_BOUNDS
1002
{
1070
    19
1005
94113
1002
}
  0
LINE
  5
940F1
  8
0
 10
22.7389999999773
 20
3.670999999996297
 30
0.0
 11
23.56599999997638
 21
5.5200999999945
 31
0.0
1001
ACAD
1000
ASC_BOUNDS
1002
{
1070
    19
1005
94114
1002
}
  0
LINE
  5
940F2
  8
0
 10
22.7389999999773
 20
3.670999999996297
 30
0.0
 11
24.39299999997559
 21
3.670999999996297
 31
0.0
1001
ACAD
1000
ASC_BOUNDS
1002
{
1070
    19
1005
94114
1002
}
  0
LINE
  5
940F3
  8
0
 10
18.59799999998143
 20
3.315799999996671
 30
0.0
 11
20.89099999997916
 21
8.763099999991255
 31
0.0
1001
ACAD
1000
ASC_BOUNDS
1002
{
1070
    19
1005
94113
1002
}
  0
LINE
  5
940F4
  8
0
 10
18.59799999998143
 20
3.315799999996671
 30
0.0
 11
16.46099999998353
 21
8.999899999990987
 31
0.0
1001
ACAD
1000
ASC_BOUNDS
1002
{
1070
    19
1005
94113
1002
}
  0
LINE
  5
940F5
  8
0
 10
20.89099999997916
 20
8.763099999991255
 30
0.0
 11
22.38199999997767
 21
8.763099999991255
 31
0.0
1001
ACAD
1000
ASC_BOUNDS
1002
{
1070
    19
1005
94113
1002
}
  0
LINE
  5
940F6
  8
0
 10
24.39299999997559
 20
3.670999999996297
 30
0.0
 11
23.56599999997638
 21
5.5200999999945
 31
0.0
1001
ACAD
1000
ASC_BOUNDS
1002
{
1070
    19
1005
94114
1002
}
  0
LINE
  5
940F7
  8
0
 10
44.99999999995498
 20
-0.2368999999997641
 30
0.0
 11
40.02599999995994
 21
5.341799999994635
 31
0.0
1001
ACAD
1000
ASC_BOUNDS
1002
{
1070
    19
1005
94116
1002
}
  0
LINE
  5
940F8
  8
0
 10
40.02599999995994
 20
5.341799999994635
 30
0.0
 11
40.02599999995994
 21
0.0
 31
0.0
1001
ACAD
1000
ASC_BOUNDS
1002
{
1070
    19
1005
94116
1002
}
  0
LINE
  5
940F9
  8
0
 10
38.60499999996136
 20
8.999999999991019
 30
0.0
 11
38.60499999996136
 21
0.0
 31
0.0
1001
ACAD
1000
ASC_BOUNDS
1002
{
1070
    19
1005
94116
1002
}
  0
LINE
  5
940FA
  8
0
 10
44.99999999995498
 20
8.763099999991255
 30
0.0
 11
44.99999999995498
 21
-0.2368999999997641
 31
0.0
1001
ACAD
1000
ASC_BOUNDS
1002
{
1070
    19
1005
94116
1002
}
  0
LINE
  5
940FB
  8
0
 10
38.60499999996136
 20
0.0
 30
0.0
 11
40.02599999995994
 21
0.0
 31
0.0
1001
ACAD
1000
ASC_BOUNDS
1002
{
1070
    19
1005
94116
1002
}
  0
LINE
  5
940FC
  8
0
 10
43.57899999995641
 20
3.421199999996588
 30
0.0
 11
38.60499999996136
 21
8.999899999990987
 31
0.0
1001
ACAD
1000
ASC_BOUNDS
1002
{
1070
    19
1005
94116
1002
}
  0
LINE
  5
940FD
  8
0
 10
43.57899999995641
 20
8.763099999991255
 30
0.0
 11
43.57899999995641
 21
3.421199999996588
 31
0.0
1001
ACAD
1000
ASC_BOUNDS
1002
{
1070
    19
1005
94116
1002
}
  0
LINE
  5
940FE
  8
0
 10
43.57899999995641
 20
8.763099999991255
 30
0.0
 11
44.99999999995498
 21
8.763099999991255
 31
0.0
1001
ACAD
1000
ASC_BOUNDS
1002
{
1070
    19
1005
94116
1002
}
  0
LINE
  5
940FF
  8
0
 10
37.67199999996831
 20
8.763099999991255
 30
0.0
 11
36.23199999996837
 21
8.763099999991255
 31
0.0
  0
LINE
  5
94100
  8
0
 10
31.64199999996833
 20
8.763099999991255
 30
0.0
 11
31.64199999996833
 21
2.481619422925121
 31
0.0
  0
LINE
  5
94101
  8
0
 10
37.67199999996831
 20
8.763099999991255
 30
0.0
 11
37.67199999996831
 21
2.481619422925121
 31
0.0
  0
LINE
  5
94102
  8
0
 10
36.23199999996837
 20
8.763099999991255
 30
0.0
 11
36.23199999996837
 21
2.481619422925064
 31
0.0
  0
LINE
  5
94103
  8
0
 10
33.08199999996839
 20
8.763099999991255
 30
0.0
 11
33.08199999996839
 21
2.481619422925121
 31
0.0
  0
ARC
  5
94104
  8
0
 10
34.65699999996832
 20
3.183099999991214
 30
0.0
 40
3.420000000000007
 50
240.0000000000255
 51
299.9999999999766
  0
ARC
  5
94105
  8
0
 10
34.65699999996832
 20
3.183099999991214
 30
0.0
 40
1.97999999999999
 50
240.000000000026
 51
299.9999999999703
  0
LINE
  5
94106
  8
0
 10
33.08199999996828
 20
8.763099999991255
 30
0.0
 11
31.64199999996833
 21
8.763099999991255
 31
0.0
  0
ARC
  5
94107
  8
0
 10
35.06199999996829
 20
2.481619422925064
 30
0.0
 40
1.17
 50
299.9999999999699
 51
0.0
  0
ARC
  5
94108
  8
0
 10
34.25199999996835
 20
2.481619422925121
 30
0.0
 40
1.17
 50
180.0
 51
240.0000000000238
  0
ARC
  5
94109
  8
0
 10
35.06199999996841
 20
2.481619422925121
 30
0.0
 40
2.61
 50
299.9999999999756
 51
0.0
  0
ARC
  5
9410A
  8
0
 10
34.25199999996835
 20
2.481619422925121
 30
0.0
 40
2.61
 50
180.0
 51
240.0000000000244
  0
LINE
  5
9410B
  8
0
 10
29.30199999996933
 20
8.763099999991255
 30
0.0
 11
30.74199999996927
 21
8.763099999991255
 31
0.0
1001
ACAD
1000
ASC_BOUNDS
1002
{
1070
    19
1005
94114
1002
}
  0
LINE
  5
9410C
  8
0
 10
30.74199999996927
 20
8.763099999991255
 30
0.0
 11
30.74199999996927
 21
2.373099999991211
 31
0.0
1001
ACAD
1000
ASC_BOUNDS
1002
{
1070
    19
1005
94114
1002
}
  0
LINE
  5
9410D
  8
0
 10
26.02015566812236
 20
0.0330999999912365
 30
0.0
 11
28.40199999996923
 21
0.0330999999912365
 31
0.0
1001
ACAD
1000
ASC_BOUNDS
1002
{
1070
    19
1005
94114
1002
}
  0
LINE
  5
9410E
  8
0
 10
29.30199999996933
 20
8.763099999991255
 30
0.0
 11
29.30199999996933
 21
2.283099999991236
 31
0.0
1001
ACAD
1000
ASC_BOUNDS
1002
{
1070
    19
1005
94114
1002
}
  0
LINE
  5
9410F
  8
0
 10
26.97358892824991
 20
1.383099999991202
 30
0.0
 11
28.40199999996923
 21
1.383099999991202
 31
0.0
1001
ACAD
1000
ASC_BOUNDS
1002
{
1070
    19
1005
94114
1002
}
  0
ARC
  5
94110
  8
0
 10
28.40199999996923
 20
2.283099999991236
 30
0.0
 40
0.9
 50
270.0
 51
0.0
1001
ACAD
1000
ASC_BOUNDS
1002
{
1070
    19
1005
94114
1002
}
  0
ARC
  5
94111
  8
0
 10
28.40199999996923
 20
2.373099999991211
 30
0.0
 40
2.34
 50
270.0
 51
0.0
1001
ACAD
1000
ASC_BOUNDS
1002
{
1070
    19
1005
94114
1002
}
  0
INSERT
  5
94112
  8
0
  2
*X1899
 10
0.0
 20
0.0
 30
0.0
1001
ACAD
1000
HATCH
1002
{
1070
    19
1000
ANSI37
1040
0.15
1040
0.0
1000
ASC_BOUNDS
1070
     2
1070
     2
1070
    12
1005
940D1
1005
940D2
1005
940D9
1005
940E8
1005
940EB
1005
940E9
1005
940DA
1005
940DF
1005
940DD
1005
940E1
1005
940E0
1005
940E2
1070
     2
1070
     3
1005
940ED
1005
940EF
1005
940EE
1000
ASC_SEEDPOINT
1011
3.614004224891801
1021
2.996669441146025
1031
0.0
1021
2.996669441146025
1031
0.0
1000
R14_HATCH_DATA
1000
94112
1011
1.0
1021
0.0
1031
0.0
1021
0.0
1031
0.0
1011
0.0
1021
1.0
1031
0.0
1021
1.0
1031
0.0
1011
0.0
1021
0.0
1031
1.0
1021
0.0
1031
1.0
1040
0.0
1010
0.0
1020
0.0
1030
1.0
1000
ANSI37
1070
     0
1070
     1
1071
        2
1071
        7
1070
     0
1070
     1
1071
       17
1040
13.26299999998673
1040
-0.0001000000000317
1040
9.236999999990758
1040
8.999899999990987
1040
9.236999999990758
1040
8.999999999991019
1040
5.657999999994331
1040
0.9999999999989768
1040
3.181999999996833
1040
4.668599999995308
1040
6.432999999993513
1040
8.763099999991255
1040
4.617999999995391
1040
8.763099999991255
1040
1.420999999998571
1040
4.736799999995242
1040
4.617999999995391
1040
-0.0001000000000317
1040
4.617999999995391
1040
0.0
1040
6.766999999993232
1040
0.0
1040
6.766999999993232
1040
-0.0001000000000317
1040
7.826999999992154
1040
2.368399999997621
1040
10.64699999998936
1040
2.368399999997621
1040
11.70599999998831
1040
-0.0001000000000317
1040
11.70599999998831
1040
0.0
1040
13.26299999998673
1040
0.0
1071
       12
1005
940D1
1005
940D2
1005
940D9
1005
940E8
1005
940EB
1005
940E9
1005
940DA
1005
940DF
1005
940DD
1005
940E1
1005
940E0
1005
940E2
1071
       22
1070
     0
1070
     1
1071
        3
1040
9.236999999990758
1040
5.5200999999945
1040
10.06399999998996
1040
3.670999999996297
1040
8.409999999991555
1040
3.670999999996297
1071
        3
1005
940ED
1005
940EF
1005
940EE
1070
     0
1070
     1
1040
0.0
1040
0.15
1070
     0
1070
     2
1040
0.7853981633974483
1040
49.29960901727088
1040
-10.17736998311392
1040
-0.3367596045400932
1040
0.3367596045400932
1070
     0
1040
2.356194490192345
1040
49.29960901727088
1040
-10.17736998311392
1040
-0.3367596045400932
1040
-0.3367596045400932
1070
     0
1040
0.0110235143455945
1071
        2
1040
3.614004224891801
1040
2.996669441146025
1040
0.0
1040
3.614004224891801
1040
2.996669441146025
1040
0.0
1002
}
  0
INSERT
  5
94113
  8
0
  2
*X1900
 10
0.0
 20
0.0
 30
0.0
1001
ACAD
1000
HATCH
1002
{
1070
    19
1000
ANSI37
1040
0.15
1040
0.0
1000
ASC_BOUNDS
1070
     1
1070
     2
1070
    10
1005
940D3
1005
940D4
1005
940F5
1005
940F3
1005
940F4
1005
940E7
1005
940EC
1005
940F0
1005
940D6
1005
940D5
1000
ASC_SEEDPOINT
1011
14.73245321214324
1021
2.798246178283421
1031
0.0
1021
2.798246178283421
1031
0.0
1000
R14_HATCH_DATA
1000
94113
1011
1.0
1021
0.0
1031
0.0
1021
0.0
1031
0.0
1011
0.0
1021
1.0
1031
0.0
1021
1.0
1031
0.0
1011
0.0
1021
0.0
1031
1.0
1021
0.0
1031
1.0
1040
0.0
1010
0.0
1020
0.0
1030
1.0
1000
ANSI37
1070
     0
1070
     1
1071
        1
1071
        7
1070
     0
1070
     1
1071
       10
1040
16.46099999998353
1040
5.432899999994561
1040
18.59199999998134
1040
-0.2368999999997641
1040
22.38199999997767
1040
8.763099999991255
1040
20.89099999997916
1040
8.763099999991255
1040
18.59799999998143
1040
3.315799999996671
1040
16.46099999998353
1040
8.999899999990987
1040
14.32399999998563
1040
3.315799999996671
1040
12.02999999998792
1040
8.763099999991255
1040
10.53899999998941
1040
8.763099999991255
1040
14.32899999998563
1040
-0.2368999999997641
1071
       10
1005
940D3
1005
940D4
1005
940F5
1005
940F3
1005
940F4
1005
940E7
1005
940EC
1005
940F0
1005
940D6
1005
940D5
1070
     0
1070
     1
1040
0.0
1040
0.15
1070
     0
1070
     2
1040
0.7853981633974483
1040
49.29960901727088
1040
-10.17736998311392
1040
-0.3367596045400932
1040
0.3367596045400932
1070
     0
1040
2.356194490192345
1040
49.29960901727088
1040
-10.17736998311392
1040
-0.3367596045400932
1040
-0.3367596045400932
1070
     0
1040
0.0110235143455945
1071
        1
1040
14.73245321214324
1040
2.798246178283421
1040
0.0
1002
}
  0
INSERT
  5
94114
  8
0
  2
*X1901
 10
0.0
 20
0.0
 30
0.0
1001
ACAD
1000
HATCH
1002
{
1070
    19
1000
ANSI37
1040
0.15
1040
0.0
1000
ASC_BOUNDS
1070
     2
1070
     2
1070
    13
1005
940D7
1005
940E4
1005
940E5
1005
940E3
1005
940E6
1005
9410D
1005
94111
1005
9410C
1005
9410B
1005
9410E
1005
94110
1005
9410F
1005
940D8
1070
     2
1070
     3
1005
940F1
1005
940F6
1005
940F2
1000
ASC_SEEDPOINT
1011
21.97929957367762
1021
3.294304244259308
1031
0.0
1021
3.294304244259308
1031
0.0
1000
R14_HATCH_DATA
1000
94114
1011
1.0
1021
0.0
1031
0.0
1021
0.0
1031
0.0
1011
0.0
1021
1.0
1031
0.0
1021
1.0
1031
0.0
1011
0.0
1021
0.0
1031
1.0
1021
0.0
1031
1.0
1040
0.0
1010
0.0
1020
0.0
1030
1.0
1000
ANSI37
1070
     0
1070
     1
1071
        2
1071
        7
1070
     1
1070
     1
1071
       15
1040
23.56599999997638
1040
8.999899999990987
1040
0.0
1040
19.53899999998043
1040
-0.0001000000000317
1040
0.0
1040
19.53899999998043
1040
0.0
1040
0.0
1040
21.09599999997886
1040
0.0
1040
0.0
1040
21.09599999997886
1040
-0.0001000000000317
1040
0.0
1040
22.15599999997789
1040
2.368399999997621
1040
0.0
1040
24.97599999997499
1040
2.368399999997621
1040
0.0
1040
26.02015566812236
1040
0.0330999999912365
1040
0.0
1040
28.40199999996923
1040
0.0330999999912365
1040
0.414213562373095
1040
30.74199999996923
1040
2.373099999991211
1040
0.0
1040
30.74199999996927
1040
8.763099999991255
1040
0.0
1040
29.30199999996933
1040
8.763099999991255
1040
0.0
1040
29.30199999996933
1040
2.283099999991236
1040
-0.414213562373095
1040
28.40199999996923
1040
1.383099999991237
1040
0.0
1040
26.97358892824991
1040
1.383099999991202
1040
0.0
1071
       13
1005
940D7
1005
940E4
1005
940E5
1005
940E3
1005
940E6
1005
9410D
1005
94111
1005
9410C
1005
9410B
1005
9410E
1005
94110
1005
9410F
1005
940D8
1071
       22
1070
     0
1070
     1
1071
        3
1040
22.7389999999773
1040
3.670999999996297
1040
23.56599999997638
1040
5.5200999999945
1040
24.39299999997559
1040
3.670999999996297
1071
        3
1005
940F1
1005
940F6
1005
940F2
1070
     0
1070
     1
1040
0.0
1040
0.15
1070
     0
1070
     2
1040
0.7853981633974483
1040
49.29960901727088
1040
-10.17736998311392
1040
-0.3367596045400932
1040
0.3367596045400932
1070
     0
1040
2.356194490192345
1040
49.29960901727088
1040
-10.17736998311392
1040
-0.3367596045400932
1040
-0.3367596045400932
1070
     0
1040
0.0110235143455945
1071
        2
1040
21.97929957367762
1040
3.294304244259308
1040
0.0
1040
21.97929957367762
1040
3.294304244259308
1040
0.0
1002
}
  0
INSERT
  5
94115
  8
0
  2
*X1902
 10
0.0
 20
0.0
 30
0.0
1001
ACAD
1000
HATCH
1002
{
1070
    19
1000
ANSI37
1040
0.15
1040
0.0
1000
R14_HATCH_DATA
1000
94115
1011
1.0
1021
0.0
1031
0.0
1021
0.0
1031
0.0
1011
0.0
1021
1.0
1031
0.0
1021
1.0
1031
0.0
1011
0.0
1021
0.0
1031
1.0
1021
0.0
1031
1.0
1040
0.0
1010
0.0
1020
0.0
1030
1.0
1000
ANSI37
1070
     0
1070
     1
1071
        1
1071
        7
1070
     1
1070
     1
1071
       12
1040
31.64199999996833
1040
2.481619422925121
1040
0.2679491924310942
1040
32.94699999997067
1040
0.2212931190493919
1040
0.2679491924301353
1040
36.36699999995983
1040
0.2212931190459813
1040
0.2679491924321411
1040
37.67199999996831
1040
2.481619422928361
1040
0.0
1040
37.67199999996831
1040
8.763099999991255
1040
0.0
1040
36.23199999996837
1040
8.763099999991255
1040
0.0
1040
36.23199999996837
1040
2.481619422925064
1040
-0.2679491924310291
1040
35.64699999996708
1040
1.468369700498386
1040
-0.267949192430519
1040
33.66699999997093
1040
1.468369700497703
1040
-0.267949192431809
1040
33.08199999996839
1040
2.481619422926997
1040
0.0
1040
33.08199999996839
1040
8.763099999991255
1040
0.0
1040
31.64199999996833
1040
8.763099999991255
1040
0.0
1071
        0
1070
     0
1070
     1
1040
0.0
1040
0.15
1070
     0
1070
     2
1040
0.7853981633974483
1040
49.29960901727088
1040
-10.17736998311392
1040
-0.3367596045400932
1040
0.3367596045400932
1070
     0
1040
2.356194490192345
1040
49.29960901727088
1040
-10.17736998311392
1040
-0.3367596045400932
1040
-0.3367596045400932
1070
     0
1040
0.0110235143455945
1071
        1
1040
32.30357378967278
1040
3.988785755459219
1040
0.0
1002
}
  0
INSERT
  5
94116
  8
0
  2
*X1903
 10
0.0
 20
0.0
 30
0.0
1001
ACAD
1000
HATCH
1002
{
1070
    19
1000
ANSI37
1040
0.15
1040
0.0
1000
ASC_BOUNDS
1070
     1
1070
     2
1070
     8
1005
940F7
1005
940FA
1005
940FE
1005
940FD
1005
940FC
1005
940F9
1005
940FB
1005
940F8
1000
ASC_SEEDPOINT
1011
39.74896370716704
1021
4.484843821435049
1031
0.0
1021
4.484843821435049
1031
0.0
1000
R14_HATCH_DATA
1000
94116
1011
1.0
1021
0.0
1031
0.0
1021
0.0
1031
0.0
1011
0.0
1021
1.0
1031
0.0
1021
1.0
1031
0.0
1011
0.0
1021
0.0
1031
1.0
1021
0.0
1031
1.0
1040
0.0
1010
0.0
1020
0.0
1030
1.0
1000
ANSI37
1070
     0
1070
     1
1071
        1
1071
        7
1070
     0
1070
     1
1071
        9
1040
40.02599999995994
1040
5.341799999994635
1040
44.99999999995498
1040
-0.2368999999997641
1040
44.99999999995498
1040
8.763099999991255
1040
43.57899999995641
1040
8.763099999991255
1040
43.57899999995641
1040
3.421199999996588
1040
38.60499999996136
1040
8.999899999990987
1040
38.60499999996136
1040
8.999999999991019
1040
38.60499999996136
1040
0.0
1040
40.02599999995994
1040
0.0
1071
        8
1005
940F7
1005
940FA
1005
940FE
1005
940FD
1005
940FC
1005
940F9
1005
940FB
1005
940F8
1070
     0
1070
     1
1040
0.0
1040
0.15
1070
     0
1070
     2
1040
0.7853981633974483
1040
49.29960901727088
1040
-10.17736998311392
1040
-0.3367596045400932
1040
0.3367596045400932
1070
     0
1040
2.356194490192345
1040
49.29960901727088
1040
-10.17736998311392
1040
-0.3367596045400932
1040
-0.3367596045400932
1070
     0
1040
0.0110235143455945
1071
        1
1040
39.74896370716704
1040
4.484843821435049
1040
0.0
1002
}
  0
INSERT
  5
94117
  8
0
  2
*X1904
 10
0.0
 20
0.0
 30
0.0
1001
ACAD
1000
HATCH
1002
{
1070
    19
1000
ANSI37
1040
0.15
1040
0.0
1000
ASC_BOUNDS
1070
     1
1070
     2
1070
     4
1005
940DB
1005
940EA
1005
940DC
1005
940DE
1000
ASC_SEEDPOINT
1011
1.079051535452663
1021
4.148538732891836
1031
0.0
1021
4.148538732891836
1031
0.0
1000
R14_HATCH_DATA
1000
94117
1011
1.0
1021
0.0
1031
0.0
1021
0.0
1031
0.0
1011
0.0
1021
1.0
1031
0.0
1021
1.0
1031
0.0
1011
0.0
1021
0.0
1031
1.0
1021
0.0
1031
1.0
1040
0.0
1010
0.0
1020
0.0
1030
1.0
1000
ANSI37
1070
     0
1070
     1
1071
        1
1071
        7
1070
     0
1070
     1
1071
        4
1040
1.420999999998571
1040
0.0
1040
1.420999999998571
1040
8.763099999991255
1040
0.0
1040
8.763099999991255
1040
0.0
1040
0.0
1071
        4
1005
940DB
1005
940EA
1005
940DC
1005
940DE
1070
     0
1070
     1
1040
0.0
1040
0.15
1070
     0
1070
     2
1040
0.7853981633974483
1040
49.29960901727088
1040
-10.17736998311392
1040
-0.3367596045400932
1040
0.3367596045400932
1070
     0
1040
2.356194490192345
1040
49.29960901727088
1040
-10.17736998311392
1040
-0.3367596045400932
1040
-0.3367596045400932
1070
     0
1040
0.0053004257112761
1071
        1
1040
1.079051535452663
1040
4.148538732891836
1040
0.0
1002
}
  0
ENDBLK
  5
94820
  8
0
  0
BLOCK
  8
0
  2
_TAGCIRCLE
 70
     2
 10
0.0
 20
0.0
 30
0.0
  3
_TAGCIRCLE
  1

  0
CIRCLE
  5
7E2F8
  8
0
  6
BYBLOCK
 62
     0
 10
0.0
 20
0.0
 30
0.0
 40
0.1052552224523172
  0
ATTDEF
  5
7E2F9
  8
0
 62
     0
 10
-0.2125
 20
-0.046875
 30
0.0
 40
0.09375
  1
タグ番号
 72
     1
 11
0.0
 21
-0.046875
 31
0.0
  3
タグ番号を入力
  2
タグ番号
 70
     0
  0
ENDBLK
  5
7E3D8
  8
0
  0
BLOCK
  8
0
  2
_TAGTRIANGLE
 70
     2
 10
0.0
 20
0.0
 30
0.0
  3
_TAGTRIANGLE
  1

  0
POLYLINE
  5
7E2FE
  8
0
  6
BYBLOCK
 62
     0
 66
     1
 10
0.0
 20
0.0
 30
0.0
 70
     1
  0
VERTEX
  5
DE9A6
  8
0
  6
BYBLOCK
 62
     0
 10
-0.2165063509461096
 20
-0.125
 30
0.0
  0
VERTEX
  5
DE9A7
  8
0
  6
BYBLOCK
 62
     0
 10
0.0
 20
0.25
 30
0.0
  0
VERTEX
  5
DE9A8
  8
0
  6
BYBLOCK
 62
     0
 10
0.2165063509461096
 20
-0.125
 30
0.0
  0
SEQEND
  5
DE9B5
  8
0
  6
BYBLOCK
 62
     0
  0
ATTDEF
  5
7E2FF
  8
1TEXT
 62
     0
 10
-0.3805175846051759
 20
-0.046875
 30
0.0
 40
0.14
  1
タグ番号
  7
MAKER
 72
     1
 11
0.0
 21
-0.046875
 31
0.0
  3
タグ番号を入力
  2
タグ番号
 70
     0
  0
ENDBLK
  5
7E3DA
  8
0
  0
BLOCK
  8
0
  2
WELD111
 70
     0
 10
0.0
 20
0.0
 30
0.0
  3
WELD111
  1

  0
CIRCLE
  5
7E306
  8
0
 62
     0
 10
6.0
 20
0.0000000000000142
 30
0.0
 40
2.990262378117563
  0
LINE
  5
7E307
  8
0
 62
     0
 10
0.0
 20
0.0
 30
0.0
 11
11.99999999999999
 21
0.0000000000000142
 31
0.0
  0
ENDBLK
  5
7E3DC
  8
0
  0
BLOCK
  8
0
  2
WELD112
 70
     0
 10
0.0
 20
0.0
 30
0.0
  3
WELD112
  1

  0
INSERT
  5
7E30E
  8
0
  6
BYBLOCK
 62
     0
  2
スポット溶接記号
 10
-6.0
 20
0.0
 30
0.0
  0
LINE
  5
7E31B
  8
0
  6
BYBLOCK
 62
     0
 10
-4.67642258006606
 20
-5.151751477760058
 30
0.0
 11
4.67642258006606
 21
-5.151751477760058
 31
0.0
  0
ENDBLK
  5
7E3DE
  8
0
  0
BLOCK
  8
0
  2
スポット溶接記号
 70
     0
 10
0.0
 20
0.0
 30
0.0
  3
スポット溶接記号
  1

  0
CIRCLE
  5
7E318
  8
0
 10
6.0
 20
0.0000000000000142
 30
0.0
 40
2.990262378117563
  0
LINE
  5
7E319
  8
0
 10
0.0
 20
0.0
 30
0.0
 11
11.99999999999999
 21
0.0000000000000142
 31
0.0
  0
ENDBLK
  5
7E3E0
  8
0
  0
BLOCK
  8
0
  2
WELD01
 70
     0
 10
0.0
 20
0.0
 30
0.0
  3
WELD01
  1

  0
LINE
  5
7E322
  8
0
  6
BYBLOCK
 62
     0
 10
0.0
 20
0.0
 30
0.0
 11
11.99999957320006
 21
0.0
 31
0.0
  0
LINE
  5
7E323
  8
0
  6
BYBLOCK
 62
     0
 10
3.591012473199953
 20
-5.462740899999972
 30
0.0
 11
3.591012473199953
 21
0.0
 31
0.0
  0
LINE
  5
7E324
  8
0
  6
BYBLOCK
 62
     0
 10
3.591012473199953
 20
-5.46274040000003
 30
0.0
 11
9.053753873200094
 21
0.0000002475924248
 31
0.0
  0
ENDBLK
  5
7E3E2
  8
0
  0
BLOCK
  8
0
  2
WELD05
 70
     0
 10
0.0
 20
0.0
 30
0.0
  3
WELD05
  1

  0
TEXT
  5
7E329
  8
0
 10
8.006110799999874
 20
-6.467742999999928
 30
0.0
 40
3.2
  1
Ｇ
 41
0.90047268
  0
LINE
  5
7E32A
  8
1HATCH
 10
0.0
 20
0.0
 30
0.0
 11
11.99999999999989
 21
0.0
 31
0.0
  0
LINE
  5
7E32B
  8
0
 10
3.591012500000033
 20
-5.462740899999972
 30
0.0
 11
3.591012500000033
 21
0.0
 31
0.0
  0
LINE
  5
7E32C
  8
0
 10
3.591012200000023
 20
-5.46274040000003
 30
0.0
 11
9.05375390000006
 21
0.0000002483500339
 31
0.0
  0
LINE
  5
7E32D
  8
0
 10
4.298119099999894
 20
-6.169846999999891
 30
0.0
 11
9.76086040000007
 21
-0.7071065899999667
 31
0.0
  0
ENDBLK
  5
7E3E4
  8
0
  0
BLOCK
  8
0
  2
WELD02
 70
     0
 10
0.0
 20
0.0
 30
0.0
  3
WELD02
  1

  0
LINE
  5
7E332
  8
1HATCH
 10
0.0
 20
0.0
 30
0.0
 11
11.99999957320006
 21
0.0
 31
0.0
  0
LINE
  5
7E333
  8
0
 10
3.591012473199953
 20
-5.462740899999972
 30
0.0
 11
3.591012473199953
 21
0.0
 31
0.0
  0
LINE
  5
7E334
  8
0
 10
3.591012473199953
 20
-5.46274040000003
 30
0.0
 11
9.053753873200094
 21
0.0000002475924248
 31
0.0
  0
LINE
  5
7E335
  8
0
 10
3.591012473199953
 20
5.46274040000003
 30
0.0
 11
9.053752873199755
 21
0.0000004267571967
 31
0.0
  0
LINE
  5
7E336
  8
0
 10
3.591012473199953
 20
5.462740899999972
 30
0.0
 11
3.591012473199953
 21
0.0
 31
0.0
  0
ENDBLK
  5
7E3E6
  8
0
  0
BLOCK
  8
0
  2
WELD09
 70
     0
 10
0.0
 20
0.0
 30
0.0
  3
WELD09
  1

  0
LINE
  5
7E33B
  8
1HATCH
 10
0.0
 20
0.0
 30
0.0
 11
12.0
 21
0.0
 31
0.0
  0
LINE
  5
7E33C
  8
0
 10
4.5
 20
0.0
 30
0.0
 11
4.5
 21
-6.0
 31
0.0
  0
LINE
  5
7E33D
  8
0
 10
7.499999499999831
 20
0.0
 30
0.0
 11
7.499999499999831
 21
-6.0
 31
0.0
  0
ENDBLK
  5
7E3E8
  8
0
  0
BLOCK
  8
0
  2
WELD14
 70
     0
 10
0.0
 20
0.0
 30
0.0
  3
WELD14
  1

  0
LINE
  5
7E342
  8
1HATCH
 10
0.0
 20
0.0
 30
0.0
 11
12.0
 21
0.0
 31
0.0
  0
LINE
  5
7E343
  8
0
 10
10.0
 20
0.0
 30
0.0
 11
10.0
 21
-5.0
 31
0.0
  0
LINE
  5
7E344
  8
0
 10
2.0
 20
0.0
 30
0.0
 11
2.0
 21
-5.0
 31
0.0
  0
LINE
  5
7E345
  8
0
 10
2.0
 20
-5.0
 30
0.0
 11
10.0
 21
-5.0
 31
0.0
  0
ENDBLK
  5
7E3EA
  8
0
  0
BLOCK
  8
0
  2
WELD07
 70
     0
 10
0.0
 20
0.0
 30
0.0
  3
WELD07
  1

  0
LINE
  5
7E34A
  8
1HATCH
 10
0.0
 20
0.0
 30
0.0
 11
9.905951749230908
 21
0.0000000000000003
 31
0.0
  0
ARC
  5
7E34B
  8
0
 10
9.062741300000084
 20
0.0
 30
0.0
 40
5.0
 50
90.0
 51
270.0
  0
LINE
  5
7E34C
  8
0
 10
2.599999900000057
 20
-5.0
 30
0.0
 11
2.599999900000057
 21
0.0
 31
0.0
  0
LINE
  5
7E34D
  8
0
 10
2.599999900000057
 20
5.0
 30
0.0
 11
2.599999900000057
 21
0.0
 31
0.0
  0
ENDBLK
  5
7E3EC
  8
0
  0
BLOCK
  8
0
  2
WELD11
 70
     0
 10
0.0
 20
0.0
 30
0.0
  3
WELD11
  1

  0
LINE
  5
7E352
  8
1HATCH
 10
0.0
 20
0.0
 30
0.0
 11
12.0
 21
0.0
 31
0.0
  0
ARC
  5
7E353
  8
0
 10
11.73137099999985
 20
0.0
 30
0.0
 40
5.0
 50
179.9999900000006
 51
270.0
  0
ARC
  5
7E354
  8
0
 10
0.2686290699998608
 20
0.0
 30
0.0
 40
5.0
 50
270.0
 51
0.0
  0
ENDBLK
  5
7E3EE
  8
0
  0
BLOCK
  8
0
  2
WELD08
 70
     0
 10
0.0
 20
0.0
 30
0.0
  3
WELD08
  1

  0
ARC
  5
7E359
  8
0
 10
0.25
 20
0.0
 30
0.0
 40
5.0
 50
270.0
 51
90.00000300000015
  0
ARC
  5
7E35A
  8
0
 10
11.71274200000005
 20
0.0
 30
0.0
 40
5.0
 50
90.0
 51
270.0
  0
LINE
  5
7E35B
  8
1HATCH
 10
0.0
 20
0.0
 30
0.0
 11
11.99999999999989
 21
0.0
 31
0.0
  0
ENDBLK
  5
7E3F0
  8
0
  0
BLOCK
  8
0
  2
WELD06
 70
     0
 10
0.0
 20
0.0
 30
0.0
  3
WELD06
  1

  0
LINE
  5
7E360
  8
1HATCH
 10
0.0
 20
0.0
 30
0.0
 11
9.822628962642085
 21
0.0000000000000003
 31
0.0
  0
ARC
  5
7E361
  8
0
 10
9.062741300000084
 20
0.0
 30
0.0
 40
5.0
 50
179.9999900000006
 51
270.0
  0
LINE
  5
7E362
  8
0
 10
2.599999900000057
 20
-5.0
 30
0.0
 11
2.599999900000057
 21
0.0
 31
0.0
  0
ENDBLK
  5
7E3F2
  8
0
  0
BLOCK
  8
0
  2
NOCIRCLE
 70
     2
 10
0.0
 20
0.0
 30
0.0
  3
NOCIRCLE
  1

  0
CIRCLE
  5
7F5FC
  8
0
  6
BYBLOCK
 62
     0
 10
0.0
 20
0.0
 30
0.0
 40
4.2
  0
ATTDEF
  5
7F5FD
  8
1TEXT
 10
-1.904761904761876
 20
-2.0
 30
0.0
 40
4.0
  1
0
 72
     4
 11
0.0
 21
0.0
 31
0.0
  3
NO.
  2
NO
 70
     0
  0
ENDBLK
  5
7F6CF
  8
0
  0
BLOCK
  8
0
  2
_OPEN
 70
     0
 10
0.0
 20
0.0
 30
0.0
  3
_OPEN
  1

  0
LINE
  5
7F604
  8
0
  6
BYBLOCK
 62
     0
 10
-1.0
 20
0.166667
 30
0.0
 11
0.0
 21
0.0
 31
0.0
  0
LINE
  5
7F605
  8
0
  6
BYBLOCK
 62
     0
 10
-1.0
 20
-0.166667
 30
0.0
 11
0.0
 21
0.0
 31
0.0
  0
LINE
  5
7F606
  8
0
  6
BYBLOCK
 62
     0
 10
0.0
 20
0.0
 30
0.0
 11
-1.0
 21
0.0
 31
0.0
  0
ENDBLK
  5
7F6D1
  8
0
  0
BLOCK
  8
0
  2
NO3CIRCLE
 70
     2
 10
0.0
 20
0.0
 30
0.0
  3
NO3CIRCLE
  1

  0
CIRCLE
  5
B10DC
  8
0
  6
BYBLOCK
 62
     0
 10
0.0
 20
0.0
 30
0.0
 40
4.2
  0
ATTDEF
  5
B10DD
  8
1TEXT
 10
-3.428571428571428
 20
-2.0
 30
0.0
 40
4.0
  1
000
 41
0.6
  7
STANDARD06
 72
     4
 11
0.0
 21
0.0
 31
0.0
  3
NO3
  2
NO3
 70
     0
  0
ENDBLK
  5
B122B
  8
0
  0
BLOCK
  8
0
  2
*X1899
 70
     1
 10
0.0
 20
0.0
 30
0.0
  3
*X1899
  1

  0
LINE
  5
DE81A
  8
0
  6
CONTINUOUS
 10
3.418023043697893
 20
7.251849696850613
 30
0.0
 11
4.929273346838536
 21
8.763099999991255
 31
0.0
  0
LINE
  5
DE81B
  8
0
  6
CONTINUOUS
 10
1.483656411257782
 20
4.643963855330318
 30
0.0
 11
5.60279255591872
 21
8.763099999991255
 31
0.0
  0
LINE
  5
DE81C
  8
0
  6
CONTINUOUS
 10
1.755053947328235
 20
4.241842182320584
 30
0.0
 11
6.276311764998907
 21
8.763099999991255
 31
0.0
  0
LINE
  5
DE81D
  8
0
  6
CONTINUOUS
 10
2.026451483398688
 20
3.839720509310849
 30
0.0
 11
4.441040904851878
 21
6.254309930764039
 31
0.0
  0
LINE
  5
DE81E
  8
0
  6
CONTINUOUS
 10
2.297849019469139
 20
3.437598836301114
 30
0.0
 11
3.321765168359338
 21
4.461514985191313
 31
0.0
  0
LINE
  5
DE81F
  8
0
  6
CONTINUOUS
 10
2.569246555539591
 20
3.03547716329138
 30
0.0
 11
3.593163397972743
 21
4.059394005724531
 31
0.0
  0
LINE
  5
DE820
  8
0
  6
CONTINUOUS
 10
2.840644091610043
 20
2.633355490281646
 30
0.0
 11
3.864561627586149
 21
3.657273026257751
 31
0.0
  0
LINE
  5
DE821
  8
0
  6
CONTINUOUS
 10
3.112041627680496
 20
2.231233817271911
 30
0.0
 11
4.135959857199554
 21
3.25515204679097
 31
0.0
  0
LINE
  5
DE822
  8
0
  6
CONTINUOUS
 10
3.383439163750948
 20
1.829112144262177
 30
0.0
 11
4.40735808681296
 21
2.853031067324189
 31
0.0
  0
LINE
  5
DE823
  8
0
  6
CONTINUOUS
 10
3.654836699821399
 20
1.426990471252442
 30
0.0
 11
4.678756316426365
 21
2.450910087857407
 31
0.0
  0
LINE
  5
DE824
  8
0
  6
CONTINUOUS
 10
3.926234235891853
 20
1.024868798242709
 30
0.0
 11
4.95015454603977
 21
2.048789108390626
 31
0.0
  0
LINE
  5
DE825
  8
0
  6
CONTINUOUS
 10
4.197631771962304
 20
0.6227471252329737
 30
0.0
 11
5.221552775653176
 21
1.646668128923846
 31
0.0
  0
LINE
  5
DE826
  8
0
  6
CONTINUOUS
 10
8.715877546767851
 20
7.835069736359266
 30
0.0
 11
9.435953450375058
 21
8.555145639966472
 31
0.0
  0
LINE
  5
DE827
  8
0
  6
CONTINUOUS
 10
8.170620868422267
 20
6.616293848933497
 30
0.0
 11
9.644120833743461
 21
8.08979381425469
 31
0.0
  0
LINE
  5
DE828
  8
0
  6
CONTINUOUS
 10
7.625364190076684
 20
5.397517961507727
 30
0.0
 11
9.852288217111864
 21
7.624441988542907
 31
0.0
  0
LINE
  5
DE829
  8
0
  6
CONTINUOUS
 10
7.080107511731101
 20
4.178742074081957
 30
0.0
 11
10.06045560048027
 21
7.159090162831124
 31
0.0
  0
LINE
  5
DE82A
  8
0
  6
CONTINUOUS
 10
6.534850833385518
 20
2.959966186656187
 30
0.0
 11
10.26862298384867
 21
6.693738337119342
 31
0.0
  0
LINE
  5
DE82B
  8
0
  6
CONTINUOUS
 10
4.469029308032756
 20
0.2206254522232385
 30
0.0
 11
5.492951005266582
 21
1.244547149457064
 31
0.0
  0
LINE
  5
DE82C
  8
0
  6
CONTINUOUS
 10
5.989594155039935
 20
1.741190299230417
 30
0.0
 11
8.806950407233131
 21
4.558546551423613
 31
0.0
  0
LINE
  5
DE82D
  8
0
  6
CONTINUOUS
 10
9.401251593263643
 20
5.152847737454126
 30
0.0
 11
10.47679036721708
 21
6.228386511407559
 31
0.0
  0
LINE
  5
DE82E
  8
0
  6
CONTINUOUS
 10
4.921837203428691
 20
-0.0000858614610131
 30
0.0
 11
8.592923064886001
 21
3.670999999996297
 31
0.0
  0
LINE
  5
DE82F
  8
0
  6
CONTINUOUS
 10
9.609390446785305
 20
4.6874673818956
 30
0.0
 11
10.68495775058548
 21
5.763034685695775
 31
0.0
  0
LINE
  5
DE830
  8
0
  6
CONTINUOUS
 10
5.595387755019432
 20
-0.0000545189504582
 30
0.0
 11
7.716137258923768
 21
2.120694984953879
 31
0.0
  0
LINE
  5
DE831
  8
0
  6
CONTINUOUS
 10
6.268938306610172
 20
-0.000023176439905
 30
0.0
 11
7.170485805526503
 21
0.9015243224764267
 31
0.0
  0
LINE
  5
DE832
  8
0
  6
CONTINUOUS
 10
7.963842273967511
 20
2.368399999997621
 30
0.0
 11
9.266442273966188
 21
3.670999999996297
 31
0.0
  0
LINE
  5
DE833
  8
0
  6
CONTINUOUS
 10
8.637361483047696
 20
2.368399999997621
 30
0.0
 11
9.939961483046375
 21
3.670999999996297
 31
0.0
  0
LINE
  5
DE834
  8
0
  6
CONTINUOUS
 10
9.817529300306965
 20
4.222087026337075
 30
0.0
 11
10.89312513395388
 21
5.297682859983993
 31
0.0
  0
LINE
  5
DE835
  8
0
  6
CONTINUOUS
 10
10.02566815382863
 20
3.756706670778549
 30
0.0
 11
11.10129251732229
 21
4.832331034272211
 31
0.0
  0
LINE
  5
DE836
  8
0
  6
CONTINUOUS
 10
9.310880692127883
 20
2.368399999997621
 30
0.0
 11
11.30945990069069
 21
4.366979208560428
 31
0.0
  0
LINE
  5
DE837
  8
0
  6
CONTINUOUS
 10
9.98439990120807
 20
2.36839999999762
 30
0.0
 11
11.5176272840591
 21
3.901627382848645
 31
0.0
  0
LINE
  5
DE838
  8
0
  6
CONTINUOUS
 10
10.65037369446246
 20
2.36085458417182
 30
0.0
 11
11.7257946674275
 21
3.436275557136862
 31
0.0
  0
LINE
  5
DE839
  8
0
  6
CONTINUOUS
 10
10.85847197087848
 20
1.895433651507656
 30
0.0
 11
11.9339620507959
 21
2.97092373142508
 31
0.0
  0
LINE
  5
DE83A
  8
0
  6
CONTINUOUS
 10
11.0665702472945
 20
1.430012718843491
 30
0.0
 11
12.14212943416431
 21
2.505571905713296
 31
0.0
  0
LINE
  5
DE83B
  8
0
  6
CONTINUOUS
 10
11.27466852371052
 20
0.9645917861793256
 30
0.0
 11
12.35029681753271
 21
2.040220080001513
 31
0.0
  0
LINE
  5
DE83C
  8
0
  6
CONTINUOUS
 10
11.48276680012654
 20
0.4991708535151611
 30
0.0
 11
12.55846420090111
 21
1.57486825428973
 31
0.0
  0
LINE
  5
DE83D
  8
0
  6
CONTINUOUS
 10
11.69086507654257
 20
0.0337499208509957
 30
0.0
 11
12.76663158426952
 21
1.109516428577947
 31
0.0
  0
LINE
  5
DE83E
  8
0
  6
CONTINUOUS
 10
12.33057447873954
 20
-0.0000598860322123
 30
0.0
 11
12.97479896763792
 21
0.6441646028661663
 31
0.0
  0
LINE
  5
DE83F
  8
0
  6
CONTINUOUS
 10
13.00413694809395
 20
-0.0000166257579952
 30
0.0
 11
13.18296635100632
 21
0.1788127771543824
 31
0.0
  0
LINE
  5
DE840
  8
0
  6
CONTINUOUS
 10
4.772852165289667
 20
-0.000092794222212
 30
0.0
 11
4.296495091028902
 21
0.4762642800385528
 31
0.0
  0
LINE
  5
DE841
  8
0
  6
CONTINUOUS
 10
5.446340034776103
 20
-0.0000614546284616
 30
0.0
 11
2.898195908335625
 21
2.548082671812017
 31
0.0
  0
LINE
  5
DE842
  8
0
  6
CONTINUOUS
 10
6.119827904262539
 20
-0.0000301150347113
 30
0.0
 11
1.499896725642348
 21
4.61990106358548
 31
0.0
  0
LINE
  5
DE843
  8
0
  6
CONTINUOUS
 10
6.775136745476159
 20
0.0181802528318542
 30
0.0
 11
5.699826040202669
 21
1.093490958105344
 31
0.0
  0
LINE
  5
DE844
  8
0
  6
CONTINUOUS
 10
6.983376846288489
 20
0.4834593610997118
 30
0.0
 11
5.908008617934405
 21
1.558827589453796
 31
0.0
  0
LINE
  5
DE845
  8
0
  6
CONTINUOUS
 10
5.377063484962296
 20
1.416253513345719
 30
0.0
 11
1.702276957014131
 21
5.091040041293883
 31
0.0
  0
LINE
  5
DE846
  8
0
  6
CONTINUOUS
 10
3.978745891735324
 20
3.488090315652877
 30
0.0
 11
2.000373521109399
 21
5.466462686278803
 31
0.0
  0
LINE
  5
DE847
  8
0
  6
CONTINUOUS
 10
7.191616947100819
 20
0.948738469367568
 30
0.0
 11
6.11619119566614
 21
2.024164220802247
 31
0.0
  0
LINE
  5
DE848
  8
0
  6
CONTINUOUS
 10
7.399857047913149
 20
1.414017577635424
 30
0.0
 11
6.324373773397875
 21
2.489500852150698
 31
0.0
  0
LINE
  5
DE849
  8
0
  6
CONTINUOUS
 10
7.608097148725479
 20
1.879296685903281
 30
0.0
 11
6.53255635112961
 21
2.95483748349915
 31
0.0
  0
LINE
  5
DE84A
  8
0
  6
CONTINUOUS
 10
7.816337249537808
 20
2.344575794171138
 30
0.0
 11
6.740738928861345
 21
3.420174114847601
 31
0.0
  0
LINE
  5
DE84B
  8
0
  6
CONTINUOUS
 10
3.310241080789734
 20
4.830114335678653
 30
0.0
 11
2.298470085204666
 21
5.84188533126372
 31
0.0
  0
LINE
  5
DE84C
  8
0
  6
CONTINUOUS
 10
3.60832983563551
 20
5.205544789913063
 30
0.0
 11
2.596566649299935
 21
6.217307976248638
 31
0.0
  0
LINE
  5
DE84D
  8
0
  6
CONTINUOUS
 10
3.906418590481286
 20
5.580975244147473
 30
0.0
 11
2.894663213395203
 21
6.592730621233557
 31
0.0
  0
LINE
  5
DE84E
  8
0
  6
CONTINUOUS
 10
4.204507345327062
 20
5.956405698381884
 30
0.0
 11
3.192759777490472
 21
6.968153266218474
 31
0.0
  0
LINE
  5
DE84F
  8
0
  6
CONTINUOUS
 10
8.466032252791512
 20
2.368399999997621
 30
0.0
 11
6.948921506593081
 21
3.885510746196053
 31
0.0
  0
LINE
  5
DE850
  8
0
  6
CONTINUOUS
 10
9.139551461871699
 20
2.36839999999762
 30
0.0
 11
7.157104084324816
 21
4.350847377544504
 31
0.0
  0
LINE
  5
DE851
  8
0
  6
CONTINUOUS
 10
4.502596100172839
 20
6.331836152616295
 30
0.0
 11
3.49085634158574
 21
7.343575911203393
 31
0.0
  0
LINE
  5
DE852
  8
0
  6
CONTINUOUS
 10
4.800684855018615
 20
6.707266606850705
 30
0.0
 11
3.788952905681008
 21
7.718998556188312
 31
0.0
  0
LINE
  5
DE853
  8
0
  6
CONTINUOUS
 10
12.18154012887317
 20
-0.0000694579236642
 30
0.0
 11
11.32140332908496
 21
0.8600673418645499
 31
0.0
  0
LINE
  5
DE854
  8
0
  6
CONTINUOUS
 10
12.85501608323566
 20
-0.0000262032059659
 30
0.0
 11
10.77672456435345
 21
2.078265315676246
 31
0.0
  0
LINE
  5
DE855
  8
0
  6
CONTINUOUS
 10
9.813070670951886
 20
2.36839999999762
 30
0.0
 11
8.51047067095321
 21
3.670999999996297
 31
0.0
  0
LINE
  5
DE856
  8
0
  6
CONTINUOUS
 10
10.48658988003207
 20
2.36839999999762
 30
0.0
 11
9.183989880033396
 21
3.670999999996297
 31
0.0
  0
LINE
  5
DE857
  8
0
  6
CONTINUOUS
 10
8.441048632286794
 20
3.740422038662712
 30
0.0
 11
7.365286662056551
 21
4.816184008892956
 31
0.0
  0
LINE
  5
DE858
  8
0
  6
CONTINUOUS
 10
8.649187485808454
 20
4.205802394221237
 30
0.0
 11
7.573469239788285
 21
5.281520640241407
 31
0.0
  0
LINE
  5
DE859
  8
0
  6
CONTINUOUS
 10
5.098773609864391
 20
7.082697061085115
 30
0.0
 11
4.087049469776277
 21
8.09442120117323
 31
0.0
  0
LINE
  5
DE85A
  8
0
  6
CONTINUOUS
 10
5.396862364710167
 20
7.458127515319526
 30
0.0
 11
4.385146033871544
 21
8.469843846158149
 31
0.0
  0
LINE
  5
DE85B
  8
0
  6
CONTINUOUS
 10
13.04801363231285
 20
0.4804954567970334
 30
0.0
 11
9.85750908911358
 21
3.670999999996297
 31
0.0
  0
LINE
  5
DE85C
  8
0
  6
CONTINUOUS
 10
8.857326339330116
 20
4.671182749779763
 30
0.0
 11
7.781651817520021
 21
5.746857271589858
 31
0.0
  0
LINE
  5
DE85D
  8
0
  6
CONTINUOUS
 10
5.694951119555943
 20
7.833557969553937
 30
0.0
 11
4.765409089118624
 21
8.763099999991255
 31
0.0
  0
LINE
  5
DE85E
  8
0
  6
CONTINUOUS
 10
12.50286117236978
 20
1.699167125820288
 30
0.0
 11
9.68611877250287
 21
4.515909525687196
 31
0.0
  0
LINE
  5
DE85F
  8
0
  6
CONTINUOUS
 10
9.065465192851777
 20
5.136563105338288
 30
0.0
 11
7.989834395251757
 21
6.21219390293831
 31
0.0
  0
LINE
  5
DE860
  8
0
  6
CONTINUOUS
 10
5.993039874401719
 20
8.208988423788346
 30
0.0
 11
5.43892829819881
 21
8.763099999991255
 31
0.0
  0
LINE
  5
DE861
  8
0
  6
CONTINUOUS
 10
11.95770871242671
 20
2.917838794843543
 30
0.0
 11
8.19801697298349
 21
6.677530534286761
 31
0.0
  0
LINE
  5
DE862
  8
0
  6
CONTINUOUS
 10
6.291128629247495
 20
8.584418878022756
 30
0.0
 11
6.112447507278997
 21
8.763099999991255
 31
0.0
  0
LINE
  5
DE863
  8
0
  6
CONTINUOUS
 10
11.41255625248364
 20
4.136510463866797
 30
0.0
 11
8.406199550715227
 21
7.142867165635211
 31
0.0
  0
LINE
  5
DE864
  8
0
  6
CONTINUOUS
 10
10.86740379254057
 20
5.355182132890051
 30
0.0
 11
8.614382128446962
 21
7.608203796983664
 31
0.0
  0
LINE
  5
DE865
  8
0
  6
CONTINUOUS
 10
10.3222513325975
 20
6.573853801913305
 30
0.0
 11
8.822564706178696
 21
8.073540428332114
 31
0.0
  0
LINE
  5
DE866
  8
0
  6
CONTINUOUS
 10
9.777098872654436
 20
7.792525470936562
 30
0.0
 11
9.030747283910433
 21
8.538877059680566
 31
0.0
  0
ENDBLK
  5
DE9AA
  8
0
  0
BLOCK
  8
0
  2
*X1900
 70
     1
 10
0.0
 20
0.0
 30
0.0
  3
*X1900
  1

  0
LINE
  5
DE868
  8
0
  6
CONTINUOUS
 10
10.67292308101235
 20
8.445076852443387
 30
0.0
 11
10.99094622856022
 21
8.763099999991255
 31
0.0
  0
LINE
  5
DE869
  8
0
  6
CONTINUOUS
 10
10.87250383178748
 20
7.971138394138331
 30
0.0
 11
11.6644654376404
 21
8.763099999991255
 31
0.0
  0
LINE
  5
DE86A
  8
0
  6
CONTINUOUS
 10
11.07208458256261
 20
7.497199935833273
 30
0.0
 11
12.12126590876355
 21
8.546381262034211
 31
0.0
  0
LINE
  5
DE86B
  8
0
  6
CONTINUOUS
 10
11.27166533333774
 20
7.023261477528216
 30
0.0
 11
12.32085164573666
 21
8.072447789927136
 31
0.0
  0
LINE
  5
DE86C
  8
0
  6
CONTINUOUS
 10
11.47124608411287
 20
6.549323019223158
 30
0.0
 11
12.52043738270977
 21
7.59851431782006
 31
0.0
  0
LINE
  5
DE86D
  8
0
  6
CONTINUOUS
 10
11.670826834888
 20
6.075384560918101
 30
0.0
 11
12.72002311968288
 21
7.124580845712984
 31
0.0
  0
LINE
  5
DE86E
  8
0
  6
CONTINUOUS
 10
11.87040758566313
 20
5.601446102613043
 30
0.0
 11
12.91960885665599
 21
6.650647373605907
 31
0.0
  0
LINE
  5
DE86F
  8
0
  6
CONTINUOUS
 10
12.06998833643825
 20
5.127507644307986
 30
0.0
 11
13.1191945936291
 21
6.176713901498832
 31
0.0
  0
LINE
  5
DE870
  8
0
  6
CONTINUOUS
 10
12.26956908721338
 20
4.65356918600293
 30
0.0
 11
13.31878033060221
 21
5.702780429391757
 31
0.0
  0
LINE
  5
DE871
  8
0
  6
CONTINUOUS
 10
12.46914983798851
 20
4.179630727697873
 30
0.0
 11
13.51836606757532
 21
5.228846957284683
 31
0.0
  0
LINE
  5
DE872
  8
0
  6
CONTINUOUS
 10
12.66873058876364
 20
3.705692269392816
 30
0.0
 11
13.71795180454843
 21
4.754913485177607
 31
0.0
  0
LINE
  5
DE873
  8
0
  6
CONTINUOUS
 10
12.86831133953877
 20
3.231753811087759
 30
0.0
 11
13.91753754152154
 21
4.280980013070531
 31
0.0
  0
LINE
  5
DE874
  8
0
  6
CONTINUOUS
 10
13.0678920903139
 20
2.757815352782702
 30
0.0
 11
14.11712327849465
 21
3.807046540963456
 31
0.0
  0
LINE
  5
DE875
  8
0
  6
CONTINUOUS
 10
13.26747284108903
 20
2.283876894477644
 30
0.0
 11
14.31670901546777
 21
3.333113068856379
 31
0.0
  0
LINE
  5
DE876
  8
0
  6
CONTINUOUS
 10
16.36767838827179
 20
8.751678487061342
 30
0.0
 11
16.50332410898388
 21
8.887324207773432
 31
0.0
  0
LINE
  5
DE877
  8
0
  6
CONTINUOUS
 10
15.96190732182191
 20
7.67238821153127
 30
0.0
 11
16.68735328004734
 21
8.397834169756699
 31
0.0
  0
LINE
  5
DE878
  8
0
  6
CONTINUOUS
 10
15.55613625537202
 20
6.593097936001196
 30
0.0
 11
16.87138245111079
 21
7.908344131739965
 31
0.0
  0
LINE
  5
DE879
  8
0
  6
CONTINUOUS
 10
15.15036518892213
 20
5.513807660471122
 30
0.0
 11
17.05541162217424
 21
7.418854093723231
 31
0.0
  0
LINE
  5
DE87A
  8
0
  6
CONTINUOUS
 10
14.74459412247225
 20
4.434517384941048
 30
0.0
 11
17.2394407932377
 21
6.929364055706499
 31
0.0
  0
LINE
  5
DE87B
  8
0
  6
CONTINUOUS
 10
14.33882305602236
 20
3.355227109410975
 30
0.0
 11
17.42346996430115
 21
6.439874017689766
 31
0.0
  0
LINE
  5
DE87C
  8
0
  6
CONTINUOUS
 10
13.46705359186416
 20
1.809938436172586
 30
0.0
 11
16.0819338255367
 21
4.424818669845129
 31
0.0
  0
LINE
  5
DE87D
  8
0
  6
CONTINUOUS
 10
16.63283254238972
 20
4.975717386698149
 30
0.0
 11
17.60749913536461
 21
5.950383979673033
 31
0.0
  0
LINE
  5
DE87E
  8
0
  6
CONTINUOUS
 10
13.66663434263929
 20
1.335999977867529
 30
0.0
 11
15.67604797733754
 21
3.345413612565779
 31
0.0
  0
LINE
  5
DE87F
  8
0
  6
CONTINUOUS
 10
13.86621509341442
 20
0.8620615195624723
 30
0.0
 11
15.27016212913838
 21
2.26600855528643
 31
0.0
  0
LINE
  5
DE880
  8
0
  6
CONTINUOUS
 10
16.81682257348267
 20
4.486188208710908
 30
0.0
 11
17.79152830642806
 21
5.460893941656299
 31
0.0
  0
LINE
  5
DE881
  8
0
  6
CONTINUOUS
 10
17.00081260457561
 20
3.996659030723667
 30
0.0
 11
17.97555747749151
 21
4.971403903639565
 31
0.0
  0
LINE
  5
DE882
  8
0
  6
CONTINUOUS
 10
20.74362343514722
 20
8.412989070375462
 30
0.0
 11
21.09373436476302
 21
8.763099999991256
 31
0.0
  0
LINE
  5
DE883
  8
0
  6
CONTINUOUS
 10
20.25401257174777
 20
7.249858997895826
 30
0.0
 11
21.7672535738432
 21
8.763099999991255
 31
0.0
  0
LINE
  5
DE884
  8
0
  6
CONTINUOUS
 10
14.06579584418955
 20
0.3881230612574149
 30
0.0
 11
14.86427628093921
 21
1.186603498007082
 31
0.0
  0
LINE
  5
DE885
  8
0
  6
CONTINUOUS
 10
14.26537659496467
 20
-0.0858153970476412
 30
0.0
 11
14.45839043274005
 21
0.1071984407277329
 31
0.0
  0
LINE
  5
DE886
  8
0
  6
CONTINUOUS
 10
17.18480263566856
 20
3.507129852736426
 30
0.0
 11
18.15958664855496
 21
4.481913865622833
 31
0.0
  0
LINE
  5
DE887
  8
0
  6
CONTINUOUS
 10
17.3687926667615
 20
3.017600674749186
 30
0.0
 11
18.34361581961842
 21
3.9924238276061
 31
0.0
  0
LINE
  5
DE888
  8
0
  6
CONTINUOUS
 10
19.76440170834832
 20
6.086728925416191
 30
0.0
 11
22.33924590259489
 21
8.661573119662755
 31
0.0
  0
LINE
  5
DE889
  8
0
  6
CONTINUOUS
 10
19.27479084494887
 20
4.923598852936555
 30
0.0
 11
21.84929622842713
 21
7.498104236414807
 31
0.0
  0
LINE
  5
DE88A
  8
0
  6
CONTINUOUS
 10
17.55278269785445
 20
2.528071496761945
 30
0.0
 11
18.52764499068187
 21
3.502933789589366
 31
0.0
  0
LINE
  5
DE88B
  8
0
  6
CONTINUOUS
 10
18.78517998154942
 20
3.760468780456919
 30
0.0
 11
21.35934655425936
 21
6.33463535316686
 31
0.0
  0
LINE
  5
DE88C
  8
0
  6
CONTINUOUS
 10
17.73677272894739
 20
2.038542318774704
 30
0.0
 11
20.8693968800916
 21
5.171166469918914
 31
0.0
  0
LINE
  5
DE88D
  8
0
  6
CONTINUOUS
 10
17.92076276004034
 20
1.549013140787464
 30
0.0
 11
20.37944720592384
 21
4.007697586670968
 31
0.0
  0
LINE
  5
DE88E
  8
0
  6
CONTINUOUS
 10
18.10475279113329
 20
1.059483962800223
 30
0.0
 11
19.88949753175608
 21
2.84422870342302
 31
0.0
  0
LINE
  5
DE88F
  8
0
  6
CONTINUOUS
 10
18.28874282222623
 20
0.5699547848129822
 30
0.0
 11
19.39954785758832
 21
1.680759820175074
 31
0.0
  0
LINE
  5
DE890
  8
0
  6
CONTINUOUS
 10
18.47273285331918
 20
0.0804256068257416
 30
0.0
 11
18.90959818342056
 21
0.517290936927127
 31
0.0
  0
LINE
  5
DE891
  8
0
  6
CONTINUOUS
 10
14.3590401358224
 20
-0.1570118376323384
 30
0.0
 11
14.24903296539946
 21
-0.0470046672093929
 31
0.0
  0
LINE
  5
DE892
  8
0
  6
CONTINUOUS
 10
14.54309291258661
 20
0.332454594683643
 30
0.0
 11
13.75908329123172
 21
1.116464216038529
 31
0.0
  0
LINE
  5
DE893
  8
0
  6
CONTINUOUS
 10
14.72714568935081
 20
0.8219210269996244
 30
0.0
 11
13.26913361706399
 21
2.27993309928645
 31
0.0
  0
LINE
  5
DE894
  8
0
  6
CONTINUOUS
 10
14.91119846611502
 20
1.311387459315606
 30
0.0
 11
12.77918394289625
 21
3.443401982534371
 31
0.0
  0
LINE
  5
DE895
  8
0
  6
CONTINUOUS
 10
15.09525124287922
 20
1.800853891631587
 30
0.0
 11
12.28923426872852
 21
4.606870865782293
 31
0.0
  0
LINE
  5
DE896
  8
0
  6
CONTINUOUS
 10
15.27930401964343
 20
2.290320323947569
 30
0.0
 11
11.79928459456078
 21
5.770339749030213
 31
0.0
  0
LINE
  5
DE897
  8
0
  6
CONTINUOUS
 10
15.46335679640763
 20
2.77978675626355
 30
0.0
 11
14.48885470994921
 21
3.754288842721972
 31
0.0
  0
LINE
  5
DE898
  8
0
  6
CONTINUOUS
 10
13.88507249233704
 20
4.358071060334137
 30
0.0
 11
11.30933492039305
 21
6.933808632278135
 31
0.0
  0
LINE
  5
DE899
  8
0
  6
CONTINUOUS
 10
18.75840522805855
 20
0.1582575336928151
 30
0.0
 11
18.25383727664818
 21
0.6628254851031863
 31
0.0
  0
LINE
  5
DE89A
  8
0
  6
CONTINUOUS
 10
15.64740957317184
 20
3.269253188579531
 30
0.0
 11
14.67288388101266
 21
4.243778880738705
 31
0.0
  0
LINE
  5
DE89B
  8
0
  6
CONTINUOUS
 10
13.39509276772158
 20
5.521569994029786
 30
0.0
 11
10.81938524622531
 21
8.097277515526056
 31
0.0
  0
LINE
  5
DE89C
  8
0
  6
CONTINUOUS
 10
18.95798597883369
 20
0.6321959919978686
 30
0.0
 11
17.84825644852853
 21
1.741925522303024
 31
0.0
  0
LINE
  5
DE89D
  8
0
  6
CONTINUOUS
 10
19.15756672960882
 20
1.106134450302922
 30
0.0
 11
17.44267562040888
 21
2.821025559502861
 31
0.0
  0
LINE
  5
DE89E
  8
0
  6
CONTINUOUS
 10
15.83146234993604
 20
3.758719620895513
 30
0.0
 11
14.85691305207612
 21
4.733268918755439
 31
0.0
  0
LINE
  5
DE89F
  8
0
  6
CONTINUOUS
 10
16.01551512670025
 20
4.248186053211494
 30
0.0
 11
15.04094222313957
 21
5.222758956772172
 31
0.0
  0
LINE
  5
DE8A0
  8
0
  6
CONTINUOUS
 10
12.90511304310612
 20
6.685068927725435
 30
0.0
 11
10.8270819708403
 21
8.763099999991255
 31
0.0
  0
LINE
  5
DE8A1
  8
0
  6
CONTINUOUS
 10
12.41513331849066
 20
7.848567861421083
 30
0.0
 11
11.50060117992049
 21
8.763099999991255
 31
0.0
  0
LINE
  5
DE8A2
  8
0
  6
CONTINUOUS
 10
19.35714748038395
 20
1.580072908607975
 30
0.0
 11
17.03709479228923
 21
3.900125596702697
 31
0.0
  0
LINE
  5
DE8A3
  8
0
  6
CONTINUOUS
 10
19.55672823115909
 20
2.054011366913028
 30
0.0
 11
16.63151396416958
 21
4.979225633902534
 31
0.0
  0
LINE
  5
DE8A4
  8
0
  6
CONTINUOUS
 10
16.19956790346445
 20
4.737652485527476
 30
0.0
 11
15.22497139420302
 21
5.712248994788904
 31
0.0
  0
LINE
  5
DE8A5
  8
0
  6
CONTINUOUS
 10
16.38362068022866
 20
5.227118917843457
 30
0.0
 11
15.40900056526648
 21
6.201739032805637
 31
0.0
  0
LINE
  5
DE8A6
  8
0
  6
CONTINUOUS
 10
19.75630898193422
 20
2.527949825218081
 30
0.0
 11
18.70774536448286
 21
3.576513442669441
 31
0.0
  0
LINE
  5
DE8A7
  8
0
  6
CONTINUOUS
 10
19.95588973270936
 20
3.001888283523134
 30
0.0
 11
18.90726987211446
 21
4.050508144118028
 31
0.0
  0
LINE
  5
DE8A8
  8
0
  6
CONTINUOUS
 10
20.15547048348449
 20
3.475826741828186
 30
0.0
 11
19.10679437974606
 21
4.524502845566614
 31
0.0
  0
LINE
  5
DE8A9
  8
0
  6
CONTINUOUS
 10
20.35505123425962
 20
3.94976520013324
 30
0.0
 11
19.30631888737766
 21
4.998497547015201
 31
0.0
  0
LINE
  5
DE8AA
  8
0
  6
CONTINUOUS
 10
20.55463198503475
 20
4.423703658438292
 30
0.0
 11
19.50584339500926
 21
5.472492248463787
 31
0.0
  0
LINE
  5
DE8AB
  8
0
  6
CONTINUOUS
 10
18.37481191085755
 20
3.909446896294752
 30
0.0
 11
15.59302973632993
 21
6.691229070822371
 31
0.0
  0
LINE
  5
DE8AC
  8
0
  6
CONTINUOUS
 10
17.96904084440766
 20
4.988737171824825
 30
0.0
 11
15.77705890739338
 21
7.180719108839104
 31
0.0
  0
LINE
  5
DE8AD
  8
0
  6
CONTINUOUS
 10
17.56326977795777
 20
6.068027447354899
 30
0.0
 11
15.96108807845684
 21
7.670209146855838
 31
0.0
  0
LINE
  5
DE8AE
  8
0
  6
CONTINUOUS
 10
17.15749871150789
 20
7.147317722884972
 30
0.0
 11
16.14511724952029
 21
8.15969918487257
 31
0.0
  0
LINE
  5
DE8AF
  8
0
  6
CONTINUOUS
 10
16.751727645058
 20
8.226607998415046
 30
0.0
 11
16.32914642058374
 21
8.649189222889303
 31
0.0
  0
LINE
  5
DE8B0
  8
0
  6
CONTINUOUS
 10
20.75421273580989
 20
4.897642116743345
 30
0.0
 11
19.70536790264086
 21
5.946486949912374
 31
0.0
  0
LINE
  5
DE8B1
  8
0
  6
CONTINUOUS
 10
20.95379348658502
 20
5.371580575048398
 30
0.0
 11
19.90489241027246
 21
6.42048165136096
 31
0.0
  0
LINE
  5
DE8B2
  8
0
  6
CONTINUOUS
 10
21.15337423736015
 20
5.845519033353452
 30
0.0
 11
20.10441691790406
 21
6.894476352809547
 31
0.0
  0
LINE
  5
DE8B3
  8
0
  6
CONTINUOUS
 10
21.35295498813529
 20
6.319457491658505
 30
0.0
 11
20.30394142553566
 21
7.368471054258134
 31
0.0
  0
LINE
  5
DE8B4
  8
0
  6
CONTINUOUS
 10
21.55253573891042
 20
6.793395949963558
 30
0.0
 11
20.50346593316726
 21
7.842465755706721
 31
0.0
  0
LINE
  5
DE8B5
  8
0
  6
CONTINUOUS
 10
21.75211648968556
 20
7.267334408268612
 30
0.0
 11
20.70299044079886
 21
8.316460457155308
 31
0.0
  0
LINE
  5
DE8B6
  8
0
  6
CONTINUOUS
 10
21.95169724046069
 20
7.741272866573663
 30
0.0
 11
20.9298701070431
 21
8.763099999991256
 31
0.0
  0
LINE
  5
DE8B7
  8
0
  6
CONTINUOUS
 10
22.15127799123582
 20
8.215211324878716
 30
0.0
 11
21.60338931612328
 21
8.763099999991256
 31
0.0
  0
LINE
  5
DE8B8
  8
0
  6
CONTINUOUS
 10
22.35085874201096
 20
8.689149783183769
 30
0.0
 11
22.27690852520347
 21
8.763099999991255
 31
0.0
  0
ENDBLK
  5
DE9AC
  8
0
  0
BLOCK
  8
0
  2
*X1901
 70
     1
 10
0.0
 20
0.0
 30
0.0
  3
*X1901
  1

  0
LINE
  5
DE8BA
  8
0
  6
CONTINUOUS
 10
23.19462913593892
 20
8.169917934846424
 30
0.0
 11
23.70775465517246
 21
8.683043454079957
 31
0.0
  0
LINE
  5
DE8BB
  8
0
  6
CONTINUOUS
 10
22.64923161835078
 20
6.951001208178088
 30
0.0
 11
23.9159364069932
 21
8.217705996820516
 31
0.0
  0
LINE
  5
DE8BC
  8
0
  6
CONTINUOUS
 10
22.10383410076263
 20
5.732084481509751
 30
0.0
 11
24.12411815881395
 21
7.752368539561078
 31
0.0
  0
LINE
  5
DE8BD
  8
0
  6
CONTINUOUS
 10
21.55843658317447
 20
4.513167754841414
 30
0.0
 11
24.3322999106347
 21
7.287031082301639
 31
0.0
  0
LINE
  5
DE8BE
  8
0
  6
CONTINUOUS
 10
21.01303906558632
 20
3.294251028173077
 30
0.0
 11
24.54048166245544
 21
6.821693625042199
 31
0.0
  0
LINE
  5
DE8BF
  8
0
  6
CONTINUOUS
 10
20.46764154799817
 20
2.075334301504738
 30
0.0
 11
23.28571549467848
 21
4.89340824818505
 31
0.0
  0
LINE
  5
DE8C0
  8
0
  6
CONTINUOUS
 10
19.92224403041002
 20
0.8564175748364002
 30
0.0
 11
22.74075865492779
 21
3.674932199354171
 31
0.0
  0
LINE
  5
DE8C1
  8
0
  6
CONTINUOUS
 10
23.67305085490148
 20
5.280743608408048
 30
0.0
 11
24.74866341427619
 21
6.356356167782759
 31
0.0
  0
LINE
  5
DE8C2
  8
0
  6
CONTINUOUS
 10
23.88118970842314
 20
4.815363252849522
 30
0.0
 11
24.95684516609694
 21
5.89101871052332
 31
0.0
  0
LINE
  5
DE8C3
  8
0
  6
CONTINUOUS
 10
19.73925852647308
 20
-0.0000871381807288
 30
0.0
 11
23.4103456646501
 21
3.670999999996297
 31
0.0
  0
LINE
  5
DE8C4
  8
0
  6
CONTINUOUS
 10
24.0893285619448
 20
4.349982897290997
 30
0.0
 11
25.16502691791769
 21
5.42568125326388
 31
0.0
  0
LINE
  5
DE8C5
  8
0
  6
CONTINUOUS
 10
20.41282099582748
 20
-0.0000438779065108
 30
0.0
 11
21.64944178675636
 21
1.236576913022366
 31
0.0
  0
LINE
  5
DE8C6
  8
0
  6
CONTINUOUS
 10
22.78126487373161
 20
2.36839999999762
 30
0.0
 11
24.08386487373029
 21
3.670999999996297
 31
0.0
  0
LINE
  5
DE8C7
  8
0
  6
CONTINUOUS
 10
24.29746741546646
 20
3.884602541732471
 30
0.0
 11
25.37320866973843
 21
4.960343796004441
 31
0.0
  0
LINE
  5
DE8C8
  8
0
  6
CONTINUOUS
 10
21.08638346518189
 20
-0.0000006176322938
 30
0.0
 11
21.10379033335899
 21
0.0174062505448083
 31
0.0
  0
LINE
  5
DE8C9
  8
0
  6
CONTINUOUS
 10
23.4547840828118
 20
2.36839999999762
 30
0.0
 11
25.58139042155918
 21
4.495006338745002
 31
0.0
  0
LINE
  5
DE8CA
  8
0
  6
CONTINUOUS
 10
29.30199999996933
 20
8.215615917155148
 30
0.0
 11
29.84948408280543
 21
8.763099999991255
 31
0.0
  0
LINE
  5
DE8CB
  8
0
  6
CONTINUOUS
 10
24.12830329189199
 20
2.36839999999762
 30
0.0
 11
25.78957217337993
 21
4.029668881485562
 31
0.0
  0
LINE
  5
DE8CC
  8
0
  6
CONTINUOUS
 10
29.30199999996933
 20
7.54209670807496
 30
0.0
 11
30.52300329188562
 21
8.763099999991255
 31
0.0
  0
LINE
  5
DE8CD
  8
0
  6
CONTINUOUS
 10
24.80182250097217
 20
2.36839999999762
 30
0.0
 11
25.99775392520067
 21
3.564331424226122
 31
0.0
  0
LINE
  5
DE8CE
  8
0
  6
CONTINUOUS
 10
29.30199999996933
 20
6.868577498994774
 30
0.0
 11
30.74199999996926
 21
8.308577498994712
 31
0.0
  0
LINE
  5
DE8CF
  8
0
  6
CONTINUOUS
 10
25.13028238392013
 20
2.023340673865392
 30
0.0
 11
26.20593567702142
 21
3.098993966966683
 31
0.0
  0
LINE
  5
DE8D0
  8
0
  6
CONTINUOUS
 10
25.33838066033617
 20
1.557919741201244
 30
0.0
 11
26.41411742884217
 21
2.633656509707244
 31
0.0
  0
LINE
  5
DE8D1
  8
0
  6
CONTINUOUS
 10
25.54647893675221
 20
1.092498808537098
 30
0.0
 11
26.62229918066291
 21
2.168319052447804
 31
0.0
  0
LINE
  5
DE8D2
  8
0
  6
CONTINUOUS
 10
25.75457721316825
 20
0.62707787587295
 30
0.0
 11
26.83048093248366
 21
1.702981595188365
 31
0.0
  0
LINE
  5
DE8D3
  8
0
  6
CONTINUOUS
 10
29.30199999996933
 20
6.195058289914587
 30
0.0
 11
30.74199999996926
 21
7.635058289914522
 31
0.0
  0
LINE
  5
DE8D4
  8
0
  6
CONTINUOUS
 10
29.30199999996933
 20
5.521539080834401
 30
0.0
 11
30.74199999996926
 21
6.961539080834331
 31
0.0
  0
LINE
  5
DE8D5
  8
0
  6
CONTINUOUS
 10
29.30199999996933
 20
4.848019871754214
 30
0.0
 11
30.74199999996925
 21
6.288019871754143
 31
0.0
  0
LINE
  5
DE8D6
  8
0
  6
CONTINUOUS
 10
29.30199999996933
 20
4.174500662674028
 30
0.0
 11
30.74199999996925
 21
5.614500662673953
 31
0.0
  0
LINE
  5
DE8D7
  8
0
  6
CONTINUOUS
 10
25.96267548958429
 20
0.1616569432088024
 30
0.0
 11
27.18411854636669
 21
1.383099999991207
 31
0.0
  0
LINE
  5
DE8D8
  8
0
  6
CONTINUOUS
 10
29.30199999996933
 20
3.500981453593841
 30
0.0
 11
30.74199999996925
 21
4.940981453593762
 31
0.0
  0
LINE
  5
DE8D9
  8
0
  6
CONTINUOUS
 10
26.50763775544691
 20
0.0330999999912356
 30
0.0
 11
27.85763775544689
 21
1.383099999991223
 31
0.0
  0
LINE
  5
DE8DA
  8
0
  6
CONTINUOUS
 10
29.30199999996933
 20
2.827462244513656
 30
0.0
 11
30.74199999996925
 21
4.267462244513574
 31
0.0
  0
LINE
  5
DE8DB
  8
0
  6
CONTINUOUS
 10
27.18115696452709
 20
0.0330999999912356
 30
0.0
 11
28.6224847300034
 21
1.474427765467545
 31
0.0
  0
LINE
  5
DE8DC
  8
0
  6
CONTINUOUS
 10
29.21067223449293
 20
2.062615269957069
 30
0.0
 11
30.74199999996924
 21
3.593943035433383
 31
0.0
  0
LINE
  5
DE8DD
  8
0
  6
CONTINUOUS
 10
27.85467617360728
 20
0.0330999999912356
 30
0.0
 11
30.74199999996924
 21
2.920423826353195
 31
0.0
  0
LINE
  5
DE8DE
  8
0
  6
CONTINUOUS
 10
28.57438609860264
 20
0.0792907159064073
 30
0.0
 11
30.69580928405405
 21
2.200713901357819
 31
0.0
  0
LINE
  5
DE8DF
  8
0
  6
CONTINUOUS
 10
29.49443044814297
 20
0.3258158563665496
 30
0.0
 11
30.44928414359389
 21
1.280669551817477
 31
0.0
  0
LINE
  5
DE8E0
  8
0
  6
CONTINUOUS
 10
19.59027867740337
 20
-0.0000967065718083
 30
0.0
 11
19.55485265190471
 21
0.035329318926844
 31
0.0
  0
LINE
  5
DE8E1
  8
0
  6
CONTINUOUS
 10
20.26375463176586
 20
-0.0000534518541091
 30
0.0
 11
19.76305575737534
 21
0.5006454225364014
 31
0.0
  0
LINE
  5
DE8E2
  8
0
  6
CONTINUOUS
 10
20.93723058612834
 20
-0.0000101971364099
 30
0.0
 11
19.97125886284597
 21
0.965961526145958
 31
0.0
  0
LINE
  5
DE8E3
  8
0
  6
CONTINUOUS
 10
21.25514828313686
 20
0.355591314935257
 30
0.0
 11
20.1794619683166
 21
1.431277629755512
 31
0.0
  0
LINE
  5
DE8E4
  8
0
  6
CONTINUOUS
 10
21.46338838394921
 20
0.8208704232030986
 30
0.0
 11
20.38766507378723
 21
1.896593733365069
 31
0.0
  0
LINE
  5
DE8E5
  8
0
  6
CONTINUOUS
 10
21.67162848476155
 20
1.28614953147094
 30
0.0
 11
20.59586817925786
 21
2.361909836974626
 31
0.0
  0
LINE
  5
DE8E6
  8
0
  6
CONTINUOUS
 10
21.8798685855739
 20
1.751428639738782
 30
0.0
 11
20.80407128472849
 21
2.827225940584183
 31
0.0
  0
LINE
  5
DE8E7
  8
0
  6
CONTINUOUS
 10
22.08810868638624
 20
2.216707748006623
 30
0.0
 11
21.01227439019912
 21
3.292542044193739
 31
0.0
  0
LINE
  5
DE8E8
  8
0
  6
CONTINUOUS
 10
22.60993564347543
 20
2.36839999999762
 30
0.0
 11
21.22047749566975
 21
3.757858147803296
 31
0.0
  0
LINE
  5
DE8E9
  8
0
  6
CONTINUOUS
 10
23.28345485255561
 20
2.36839999999762
 30
0.0
 11
21.42868060114038
 21
4.223174251412853
 31
0.0
  0
LINE
  5
DE8EA
  8
0
  6
CONTINUOUS
 10
26.29227406164219
 20
0.0330999999912356
 30
0.0
 11
25.80009199592872
 21
0.5252820657046957
 31
0.0
  0
LINE
  5
DE8EB
  8
0
  6
CONTINUOUS
 10
23.9569740616358
 20
2.36839999999762
 30
0.0
 11
21.63688370661101
 21
4.688490355022409
 31
0.0
  0
LINE
  5
DE8EC
  8
0
  6
CONTINUOUS
 10
26.96579327072237
 20
0.0330999999912356
 30
0.0
 11
25.2554132311971
 21
1.743480039516508
 31
0.0
  0
LINE
  5
DE8ED
  8
0
  6
CONTINUOUS
 10
24.63049327071599
 20
2.36839999999762
 30
0.0
 11
23.32789327071731
 21
3.670999999996297
 31
0.0
  0
LINE
  5
DE8EE
  8
0
  6
CONTINUOUS
 10
22.92098674744635
 20
4.077906523267254
 30
0.0
 11
21.84508681208164
 21
5.153806458631966
 31
0.0
  0
LINE
  5
DE8EF
  8
0
  6
CONTINUOUS
 10
27.63931247980256
 20
0.0330999999912356
 30
0.0
 11
24.0014124797975
 21
3.670999999996297
 31
0.0
  0
LINE
  5
DE8F0
  8
0
  6
CONTINUOUS
 10
23.129125600968
 20
4.5432868788258
 30
0.0
 11
22.05328991755227
 21
5.619122562241522
 31
0.0
  0
LINE
  5
DE8F1
  8
0
  6
CONTINUOUS
 10
28.31283168888275
 20
0.0330999999912356
 30
0.0
 11
24.16488385994816
 21
4.181047828925828
 31
0.0
  0
LINE
  5
DE8F2
  8
0
  6
CONTINUOUS
 10
23.33726445448964
 20
5.008667234384345
 30
0.0
 11
22.2614930230229
 21
6.084438665851079
 31
0.0
  0
LINE
  5
DE8F3
  8
0
  6
CONTINUOUS
 10
28.86286302309502
 20
0.1565878748591523
 30
0.0
 11
27.63635089796295
 21
1.383099999991217
 31
0.0
  0
LINE
  5
DE8F4
  8
0
  6
CONTINUOUS
 10
26.43704649509776
 20
2.582404402856405
 30
0.0
 11
23.61992702019732
 21
5.399523877756844
 31
0.0
  0
LINE
  5
DE8F5
  8
0
  6
CONTINUOUS
 10
23.54540330801128
 20
5.47404758994289
 30
0.0
 11
22.46969612849353
 21
6.549754769460635
 31
0.0
  0
LINE
  5
DE8F6
  8
0
  6
CONTINUOUS
 10
29.39405087596853
 20
0.2989192310658284
 30
0.0
 11
28.30987010704312
 21
1.383099999991234
 31
0.0
  0
LINE
  5
DE8F7
  8
0
  6
CONTINUOUS
 10
25.89179548232307
 20
3.801174624711282
 30
0.0
 11
22.67789923396416
 21
7.015070873070191
 31
0.0
  0
LINE
  5
DE8F8
  8
0
  6
CONTINUOUS
 10
29.79594438047407
 20
0.570544935640473
 30
0.0
 11
28.81310432793121
 21
1.553384988183336
 31
0.0
  0
LINE
  5
DE8F9
  8
0
  6
CONTINUOUS
 10
25.34654446954838
 20
5.01994484656616
 30
0.0
 11
22.88610233943479
 21
7.480386976679748
 31
0.0
  0
LINE
  5
DE8FA
  8
0
  6
CONTINUOUS
 10
30.13270398501416
 20
0.9073045401805646
 30
0.0
 11
29.14234640337737
 21
1.897662121817355
 31
0.0
  0
LINE
  5
DE8FB
  8
0
  6
CONTINUOUS
 10
24.80129345677369
 20
6.238715068421037
 30
0.0
 11
23.09430544490542
 21
7.945703080289305
 31
0.0
  0
LINE
  5
DE8FC
  8
0
  6
CONTINUOUS
 10
30.44581292956759
 20
1.26771480470732
 30
0.0
 11
29.30199999996933
 21
2.411527734305588
 31
0.0
  0
LINE
  5
DE8FD
  8
0
  6
CONTINUOUS
 10
30.58814428577427
 20
1.798902657580827
 30
0.0
 11
29.30199999996933
 21
3.085046943385775
 31
0.0
  0
LINE
  5
DE8FE
  8
0
  6
CONTINUOUS
 10
24.256042443999
 20
7.457485290275915
 30
0.0
 11
23.30250855037605
 21
8.411019183898862
 31
0.0
  0
LINE
  5
DE8FF
  8
0
  6
CONTINUOUS
 10
23.71079143122431
 20
8.676255512130794
 30
0.0
 11
23.51071165584668
 21
8.876335287508418
 31
0.0
  0
LINE
  5
DE900
  8
0
  6
CONTINUOUS
 10
30.73047564198095
 20
2.330090510454333
 30
0.0
 11
29.30199999996933
 21
3.758566152465961
 31
0.0
  0
LINE
  5
DE901
  8
0
  6
CONTINUOUS
 10
30.74199999996924
 20
2.992085361546236
 30
0.0
 11
29.30199999996933
 21
4.432085361546148
 31
0.0
  0
LINE
  5
DE902
  8
0
  6
CONTINUOUS
 10
30.74199999996924
 20
3.665604570626419
 30
0.0
 11
29.30199999996933
 21
5.105604570626333
 31
0.0
  0
LINE
  5
DE903
  8
0
  6
CONTINUOUS
 10
30.74199999996925
 20
4.339123779706602
 30
0.0
 11
29.30199999996933
 21
5.77912377970652
 31
0.0
  0
LINE
  5
DE904
  8
0
  6
CONTINUOUS
 10
30.74199999996925
 20
5.012642988786785
 30
0.0
 11
29.30199999996933
 21
6.452642988786707
 31
0.0
  0
LINE
  5
DE905
  8
0
  6
CONTINUOUS
 10
30.74199999996925
 20
5.68616219786697
 30
0.0
 11
29.30199999996933
 21
7.126162197866894
 31
0.0
  0
LINE
  5
DE906
  8
0
  6
CONTINUOUS
 10
30.74199999996925
 20
6.359681406947153
 30
0.0
 11
29.30199999996933
 21
7.799681406947081
 31
0.0
  0
LINE
  5
DE907
  8
0
  6
CONTINUOUS
 10
30.74199999996926
 20
7.033200616027337
 30
0.0
 11
29.30199999996933
 21
8.473200616027269
 31
0.0
  0
LINE
  5
DE908
  8
0
  6
CONTINUOUS
 10
30.74199999996926
 20
7.706719825107518
 30
0.0
 11
29.68561982508552
 21
8.763099999991255
 31
0.0
  0
LINE
  5
DE909
  8
0
  6
CONTINUOUS
 10
30.74199999996926
 20
8.380239034187703
 30
0.0
 11
30.35913903416571
 21
8.763099999991255
 31
0.0
  0
ENDBLK
  5
DE9AE
  8
0
  0
BLOCK
  8
0
  2
*X1902
 70
     1
 10
0.0
 20
0.0
 30
0.0
  3
*X1902
  1

  0
LINE
  5
DE90B
  8
0
  6
CONTINUOUS
 10
31.64199999996833
 20
8.5350582899136
 30
0.0
 11
31.87004171004599
 21
8.763099999991255
 31
0.0
  0
LINE
  5
DE90C
  8
0
  6
CONTINUOUS
 10
31.64199999996833
 20
7.861539080833413
 30
0.0
 11
32.54356091912618
 21
8.763099999991255
 31
0.0
  0
LINE
  5
DE90D
  8
0
  6
CONTINUOUS
 10
31.64199999996833
 20
7.188019871753227
 30
0.0
 11
33.08199999996839
 21
8.628019871753281
 31
0.0
  0
LINE
  5
DE90E
  8
0
  6
CONTINUOUS
 10
31.64199999996833
 20
6.514500662673041
 30
0.0
 11
33.08199999996839
 21
7.954500662673095
 31
0.0
  0
LINE
  5
DE90F
  8
0
  6
CONTINUOUS
 10
31.64199999996833
 20
5.840981453592855
 30
0.0
 11
33.08199999996839
 21
7.28098145359291
 31
0.0
  0
LINE
  5
DE910
  8
0
  6
CONTINUOUS
 10
31.64199999996833
 20
5.167462244512668
 30
0.0
 11
33.08199999996839
 21
6.607462244512723
 31
0.0
  0
LINE
  5
DE911
  8
0
  6
CONTINUOUS
 10
31.64199999996833
 20
4.493943035432482
 30
0.0
 11
33.08199999996839
 21
5.933943035432536
 31
0.0
  0
LINE
  5
DE912
  8
0
  6
CONTINUOUS
 10
31.64199999996833
 20
3.820423826352294
 30
0.0
 11
33.08199999996839
 21
5.260423826352349
 31
0.0
  0
LINE
  5
DE913
  8
0
  6
CONTINUOUS
 10
31.64199999996833
 20
3.146904617272108
 30
0.0
 11
33.08199999996839
 21
4.586904617272163
 31
0.0
  0
LINE
  5
DE914
  8
0
  6
CONTINUOUS
 10
36.23199999996837
 20
8.410423826352327
 30
0.0
 11
36.58467617360729
 21
8.763099999991255
 31
0.0
  0
LINE
  5
DE915
  8
0
  6
CONTINUOUS
 10
36.23199999996837
 20
7.73690461727214
 30
0.0
 11
37.25819538268748
 21
8.763099999991255
 31
0.0
  0
LINE
  5
DE916
  8
0
  6
CONTINUOUS
 10
31.64374005202358
 20
2.475125460247168
 30
0.0
 11
33.08199999996839
 21
3.913385408191976
 31
0.0
  0
LINE
  5
DE917
  8
0
  6
CONTINUOUS
 10
31.78607140823076
 20
1.943937607374162
 30
0.0
 11
33.08199999996839
 21
3.239866199111789
 31
0.0
  0
LINE
  5
DE918
  8
0
  6
CONTINUOUS
 10
31.92840276443794
 20
1.412749754501156
 30
0.0
 11
33.08199999996839
 21
2.566346990031603
 31
0.0
  0
LINE
  5
DE919
  8
0
  6
CONTINUOUS
 10
36.23199999996837
 20
7.063385408191953
 30
0.0
 11
37.67199999996831
 21
8.503385408191894
 31
0.0
  0
LINE
  5
DE91A
  8
0
  6
CONTINUOUS
 10
36.23199999996837
 20
6.389866199111767
 30
0.0
 11
37.67199999996831
 21
7.829866199111708
 31
0.0
  0
LINE
  5
DE91B
  8
0
  6
CONTINUOUS
 10
36.23199999996837
 20
5.71634699003158
 30
0.0
 11
37.67199999996831
 21
7.156346990031522
 31
0.0
  0
LINE
  5
DE91C
  8
0
  6
CONTINUOUS
 10
32.1787326690177
 20
0.9895604500007265
 30
0.0
 11
33.20642631446081
 21
2.017254095443838
 31
0.0
  0
LINE
  5
DE91D
  8
0
  6
CONTINUOUS
 10
36.23199999996837
 20
5.042827780951393
 30
0.0
 11
37.67199999996831
 21
6.482827780951334
 31
0.0
  0
LINE
  5
DE91E
  8
0
  6
CONTINUOUS
 10
32.51549227355815
 20
0.6528008454609919
 30
0.0
 11
33.49903056428258
 21
1.636339136185419
 31
0.0
  0
LINE
  5
DE91F
  8
0
  6
CONTINUOUS
 10
36.23199999996837
 20
4.369308571871207
 30
0.0
 11
37.67199999996831
 21
5.809308571871148
 31
0.0
  0
LINE
  5
DE920
  8
0
  6
CONTINUOUS
 10
32.8522518780986
 20
0.3160412409212574
 30
0.0
 11
33.93324121824649
 21
1.397030581069146
 31
0.0
  0
LINE
  5
DE921
  8
0
  6
CONTINUOUS
 10
36.23199999996837
 20
3.695789362791021
 30
0.0
 11
37.67199999996831
 21
5.135789362790963
 31
0.0
  0
LINE
  5
DE922
  8
0
  6
CONTINUOUS
 10
33.30186329036846
 20
0.0921334441109263
 30
0.0
 11
34.46442907112041
 21
1.254699224862875
 31
0.0
  0
LINE
  5
DE923
  8
0
  6
CONTINUOUS
 10
36.23199999996837
 20
3.022270153710834
 30
0.0
 11
37.67199999996831
 21
4.462270153710776
 31
0.0
  0
LINE
  5
DE924
  8
0
  6
CONTINUOUS
 10
33.79565647746294
 20
-0.0875925778747773
 30
0.0
 11
35.24350171668284
 21
1.360252661345124
 31
0.0
  0
LINE
  5
DE925
  8
0
  6
CONTINUOUS
 10
36.18336676155003
 20
2.300117706212308
 30
0.0
 11
37.67199999996831
 21
3.788750944630589
 31
0.0
  0
LINE
  5
DE926
  8
0
  6
CONTINUOUS
 10
34.37182574910968
 20
-0.184942515308224
 30
0.0
 11
37.67199999996831
 21
3.115231735550402
 31
0.0
  0
LINE
  5
DE927
  8
0
  6
CONTINUOUS
 10
35.0453449581892
 20
-0.1849425153088955
 30
0.0
 11
37.65739306207836
 21
2.427105588580267
 31
0.0
  0
LINE
  5
DE928
  8
0
  6
CONTINUOUS
 10
35.98667157609191
 20
0.0828648935136398
 30
0.0
 11
37.41086792161699
 21
1.507061239038713
 31
0.0
  0
LINE
  5
DE929
  8
0
  6
CONTINUOUS
 10
33.83656881101902
 20
-0.1024834495035494
 30
0.0
 11
31.78457936207464
 21
1.949505999440828
 31
0.0
  0
LINE
  5
DE92A
  8
0
  6
CONTINUOUS
 10
34.5925470859041
 20
-0.1849425153084434
 30
0.0
 11
31.64199999996833
 21
2.765604570627322
 31
0.0
  0
LINE
  5
DE92B
  8
0
  6
CONTINUOUS
 10
35.26201302775981
 20
-0.1808892480839752
 30
0.0
 11
31.64199999996833
 21
3.439123779707508
 31
0.0
  0
LINE
  5
DE92C
  8
0
  6
CONTINUOUS
 10
35.75580621485512
 20
-0.0011632260990879
 30
0.0
 11
34.51294304365551
 21
1.241699945100514
 31
0.0
  0
LINE
  5
DE92D
  8
0
  6
CONTINUOUS
 10
33.08199999996839
 20
2.672642988787641
 30
0.0
 11
31.64199999996833
 21
4.112642988787695
 31
0.0
  0
LINE
  5
DE92E
  8
0
  6
CONTINUOUS
 10
36.24959940195042
 20
0.1785627958857976
 30
0.0
 11
35.10501653033629
 21
1.323145667499924
 31
0.0
  0
LINE
  5
DE92F
  8
0
  6
CONTINUOUS
 10
33.08199999996839
 20
3.346162197867827
 30
0.0
 11
31.64199999996833
 21
4.786162197867881
 31
0.0
  0
LINE
  5
DE930
  8
0
  6
CONTINUOUS
 10
36.62369414391585
 20
0.4779872630005553
 30
0.0
 11
35.6362043832099
 21
1.465477023706505
 31
0.0
  0
LINE
  5
DE931
  8
0
  6
CONTINUOUS
 10
33.08199999996839
 20
4.019681406948013
 30
0.0
 11
31.64199999996833
 21
5.459681406948068
 31
0.0
  0
LINE
  5
DE932
  8
0
  6
CONTINUOUS
 10
36.96045374845689
 20
0.8147468675397027
 30
0.0
 11
35.97691545773309
 21
1.798285158263504
 31
0.0
  0
LINE
  5
DE933
  8
0
  6
CONTINUOUS
 10
33.08199999996839
 20
4.6932006160282
 30
0.0
 11
31.64199999996833
 21
6.133200616028255
 31
0.0
  0
LINE
  5
DE934
  8
0
  6
CONTINUOUS
 10
37.29721335299792
 20
1.151506472078851
 30
0.0
 11
36.17602012811361
 21
2.272699696963169
 31
0.0
  0
LINE
  5
DE935
  8
0
  6
CONTINUOUS
 10
33.08199999996839
 20
5.366719825108387
 30
0.0
 11
31.64199999996833
 21
6.806719825108441
 31
0.0
  0
LINE
  5
DE936
  8
0
  6
CONTINUOUS
 10
37.45404367813572
 20
1.668195356021243
 30
0.0
 11
36.23199999996837
 21
2.890239034188595
 31
0.0
  0
LINE
  5
DE937
  8
0
  6
CONTINUOUS
 10
37.5963750343428
 20
2.199383208894346
 30
0.0
 11
36.23199999996837
 21
3.563758243268782
 31
0.0
  0
LINE
  5
DE938
  8
0
  6
CONTINUOUS
 10
33.08199999996839
 20
6.040239034188573
 30
0.0
 11
31.64199999996833
 21
7.480239034188628
 31
0.0
  0
LINE
  5
DE939
  8
0
  6
CONTINUOUS
 10
33.08199999996839
 20
6.713758243268759
 30
0.0
 11
31.64199999996833
 21
8.153758243268815
 31
0.0
  0
LINE
  5
DE93A
  8
0
  6
CONTINUOUS
 10
37.67199999996831
 20
2.797277452349027
 30
0.0
 11
36.23199999996837
 21
4.237277452348969
 31
0.0
  0
LINE
  5
DE93B
  8
0
  6
CONTINUOUS
 10
37.67199999996831
 20
3.470796661429214
 30
0.0
 11
36.23199999996837
 21
4.910796661429155
 31
0.0
  0
LINE
  5
DE93C
  8
0
  6
CONTINUOUS
 10
37.67199999996831
 20
4.1443158705094
 30
0.0
 11
36.23199999996837
 21
5.584315870509341
 31
0.0
  0
LINE
  5
DE93D
  8
0
  6
CONTINUOUS
 10
33.08199999996839
 20
7.387277452348946
 30
0.0
 11
31.70617745232608
 21
8.763099999991255
 31
0.0
  0
LINE
  5
DE93E
  8
0
  6
CONTINUOUS
 10
33.08199999996839
 20
8.060796661429134
 30
0.0
 11
32.37969666140626
 21
8.763099999991255
 31
0.0
  0
LINE
  5
DE93F
  8
0
  6
CONTINUOUS
 10
33.08199999996839
 20
8.734315870509318
 30
0.0
 11
33.05321587048645
 21
8.763099999991255
 31
0.0
  0
LINE
  5
DE940
  8
0
  6
CONTINUOUS
 10
37.67199999996831
 20
4.817835079589586
 30
0.0
 11
36.23199999996837
 21
6.257835079589528
 31
0.0
  0
LINE
  5
DE941
  8
0
  6
CONTINUOUS
 10
37.67199999996831
 20
5.491354288669772
 30
0.0
 11
36.23199999996837
 21
6.931354288669715
 31
0.0
  0
LINE
  5
DE942
  8
0
  6
CONTINUOUS
 10
37.67199999996831
 20
6.164873497749959
 30
0.0
 11
36.23199999996837
 21
7.6048734977499
 31
0.0
  0
LINE
  5
DE943
  8
0
  6
CONTINUOUS
 10
37.67199999996831
 20
6.838392706830145
 30
0.0
 11
36.23199999996837
 21
8.278392706830086
 31
0.0
  0
LINE
  5
DE944
  8
0
  6
CONTINUOUS
 10
37.67199999996831
 20
7.511911915910333
 30
0.0
 11
36.42081191588738
 21
8.763099999991255
 31
0.0
  0
LINE
  5
DE945
  8
0
  6
CONTINUOUS
 10
37.67199999996831
 20
8.185431124990519
 30
0.0
 11
37.09433112496757
 21
8.763099999991255
 31
0.0
  0
ENDBLK
  5
DE9B0
  8
0
  0
BLOCK
  8
0
  2
*X1903
 70
     1
 10
0.0
 20
0.0
 30
0.0
  3
*X1903
  1

  0
LINE
  5
DE947
  8
0
  6
CONTINUOUS
 10
38.60499999996136
 20
8.762866199104765
 30
0.0
 11
38.71672554182345
 21
8.874591740966855
 31
0.0
  0
LINE
  5
DE948
  8
0
  6
CONTINUOUS
 10
38.60499999996136
 20
8.089346990024577
 30
0.0
 11
39.03418785440363
 21
8.518534844466847
 31
0.0
  0
LINE
  5
DE949
  8
0
  6
CONTINUOUS
 10
38.60499999996136
 20
7.41582778094439
 30
0.0
 11
39.35165016698382
 21
8.16247794796684
 31
0.0
  0
LINE
  5
DE94A
  8
0
  6
CONTINUOUS
 10
38.60499999996136
 20
6.742308571864204
 30
0.0
 11
39.66911247956399
 21
7.806421051466834
 31
0.0
  0
LINE
  5
DE94B
  8
0
  6
CONTINUOUS
 10
38.60499999996136
 20
6.068789362784018
 30
0.0
 11
39.98657479214418
 21
7.450364154966827
 31
0.0
  0
LINE
  5
DE94C
  8
0
  6
CONTINUOUS
 10
38.60499999996136
 20
5.395270153703832
 30
0.0
 11
40.30403710472435
 21
7.09430725846682
 31
0.0
  0
LINE
  5
DE94D
  8
0
  6
CONTINUOUS
 10
38.60499999996136
 20
4.721750944623645
 30
0.0
 11
40.62149941730453
 21
6.738250361966813
 31
0.0
  0
LINE
  5
DE94E
  8
0
  6
CONTINUOUS
 10
38.60499999996136
 20
4.048231735543458
 30
0.0
 11
40.93896172988471
 21
6.382193465466806
 31
0.0
  0
LINE
  5
DE94F
  8
0
  6
CONTINUOUS
 10
38.60499999996136
 20
3.374712526463272
 30
0.0
 11
40.02599999995994
 21
4.795712526461843
 31
0.0
  0
LINE
  5
DE950
  8
0
  6
CONTINUOUS
 10
38.60499999996136
 20
2.701193317383085
 30
0.0
 11
40.02599999995994
 21
4.122193317381657
 31
0.0
  0
LINE
  5
DE951
  8
0
  6
CONTINUOUS
 10
40.28339754687704
 20
5.053110073378947
 30
0.0
 11
41.25642404246489
 21
6.026136568966799
 31
0.0
  0
LINE
  5
DE952
  8
0
  6
CONTINUOUS
 10
40.60085985945722
 20
4.697053176878939
 30
0.0
 11
41.57388635504507
 21
5.670079672466793
 31
0.0
  0
LINE
  5
DE953
  8
0
  6
CONTINUOUS
 10
43.57899999995641
 20
8.348712526458318
 30
0.0
 11
43.99338747348935
 21
8.763099999991255
 31
0.0
  0
LINE
  5
DE954
  8
0
  6
CONTINUOUS
 10
43.57899999995641
 20
7.675193317378131
 30
0.0
 11
44.66690668256953
 21
8.763099999991255
 31
0.0
  0
LINE
  5
DE955
  8
0
  6
CONTINUOUS
 10
38.60499999996136
 20
2.027674108302898
 30
0.0
 11
40.02599999995994
 21
3.44867410830147
 31
0.0
  0
LINE
  5
DE956
  8
0
  6
CONTINUOUS
 10
38.60499999996136
 20
1.354154899222712
 30
0.0
 11
40.02599999995994
 21
2.775154899221284
 31
0.0
  0
LINE
  5
DE957
  8
0
  6
CONTINUOUS
 10
38.60499999996136
 20
0.6806356901425255
 30
0.0
 11
40.02599999995994
 21
2.101635690141098
 31
0.0
  0
LINE
  5
DE958
  8
0
  6
CONTINUOUS
 10
38.60499999996136
 20
0.0071164810623383
 30
0.0
 11
40.02599999995994
 21
1.428116481060911
 31
0.0
  0
LINE
  5
DE959
  8
0
  6
CONTINUOUS
 10
40.9183221720374
 20
4.340996280378933
 30
0.0
 11
41.89134866762525
 21
5.314022775966786
 31
0.0
  0
LINE
  5
DE95A
  8
0
  6
CONTINUOUS
 10
41.23578448461758
 20
3.984939383878926
 30
0.0
 11
42.20881098020543
 21
4.957965879466778
 31
0.0
  0
LINE
  5
DE95B
  8
0
  6
CONTINUOUS
 10
41.55324679719776
 20
3.628882487378919
 30
0.0
 11
42.52627329278561
 21
4.601908982966772
 31
0.0
  0
LINE
  5
DE95C
  8
0
  6
CONTINUOUS
 10
41.87070910977793
 20
3.272825590878912
 30
0.0
 11
42.84373560536579
 21
4.245852086466765
 31
0.0
  0
LINE
  5
DE95D
  8
0
  6
CONTINUOUS
 10
43.57899999995641
 20
7.001674108297943
 30
0.0
 11
44.99999999995498
 21
8.422674108296516
 31
0.0
  0
LINE
  5
DE95E
  8
0
  6
CONTINUOUS
 10
43.57899999995641
 20
6.328154899217758
 30
0.0
 11
44.99999999995498
 21
7.749154899216329
 31
0.0
  0
LINE
  5
DE95F
  8
0
  6
CONTINUOUS
 10
43.57899999995641
 20
5.654635690137571
 30
0.0
 11
44.99999999995498
 21
7.075635690136142
 31
0.0
  0
LINE
  5
DE960
  8
0
  6
CONTINUOUS
 10
43.57899999995641
 20
4.981116481057384
 30
0.0
 11
44.99999999995498
 21
6.402116481055955
 31
0.0
  0
LINE
  5
DE961
  8
0
  6
CONTINUOUS
 10
39.27140272797921
 20
-0.0000000000000009
 30
0.0
 11
40.02599999995994
 21
0.7545972719807246
 31
0.0
  0
LINE
  5
DE962
  8
0
  6
CONTINUOUS
 10
39.9449219370594
 20
-0.0000000000000009
 30
0.0
 11
40.02599999995994
 21
0.0810780629005379
 31
0.0
  0
LINE
  5
DE963
  8
0
  6
CONTINUOUS
 10
42.18817142235812
 20
2.916768694378905
 30
0.0
 11
43.16119791794597
 21
3.889795189966758
 31
0.0
  0
LINE
  5
DE964
  8
0
  6
CONTINUOUS
 10
42.50563373493829
 20
2.560711797878898
 30
0.0
 11
43.47866023052615
 21
3.533738293466751
 31
0.0
  0
LINE
  5
DE965
  8
0
  6
CONTINUOUS
 10
43.57899999995641
 20
4.307597271977198
 30
0.0
 11
44.99999999995498
 21
5.728597271975769
 31
0.0
  0
LINE
  5
DE966
  8
0
  6
CONTINUOUS
 10
43.57899999995641
 20
3.634078062897011
 30
0.0
 11
44.99999999995498
 21
5.055078062895582
 31
0.0
  0
LINE
  5
DE967
  8
0
  6
CONTINUOUS
 10
42.82309604751848
 20
2.204654901378891
 30
0.0
 11
44.99999999995498
 21
4.381558853815395
 31
0.0
  0
LINE
  5
DE968
  8
0
  6
CONTINUOUS
 10
43.14055836009865
 20
1.848598004878885
 30
0.0
 11
44.99999999995498
 21
3.70803964473521
 31
0.0
  0
LINE
  5
DE969
  8
0
  6
CONTINUOUS
 10
43.45802067267883
 20
1.492541108378878
 30
0.0
 11
44.99999999995498
 21
3.034520435655023
 31
0.0
  0
LINE
  5
DE96A
  8
0
  6
CONTINUOUS
 10
43.77548298525902
 20
1.136484211878871
 30
0.0
 11
44.99999999995498
 21
2.361001226574837
 31
0.0
  0
LINE
  5
DE96B
  8
0
  6
CONTINUOUS
 10
44.09294529783919
 20
0.7804273153788639
 30
0.0
 11
44.99999999995498
 21
1.687482017494649
 31
0.0
  0
LINE
  5
DE96C
  8
0
  6
CONTINUOUS
 10
44.41040761041938
 20
0.4243704188788566
 30
0.0
 11
44.99999999995498
 21
1.013962808414463
 31
0.0
  0
LINE
  5
DE96D
  8
0
  6
CONTINUOUS
 10
44.72786992299955
 20
0.0683135223788494
 30
0.0
 11
44.99999999995498
 21
0.340443599334276
 31
0.0
  0
LINE
  5
DE96E
  8
0
  6
CONTINUOUS
 10
39.12223903415696
 20
-0.0000000000000009
 30
0.0
 11
38.60499999996136
 21
0.5172390341955961
 31
0.0
  0
LINE
  5
DE96F
  8
0
  6
CONTINUOUS
 10
39.79575824323715
 20
-0.0000000000000009
 30
0.0
 11
38.60499999996136
 21
1.190758243275783
 31
0.0
  0
LINE
  5
DE970
  8
0
  6
CONTINUOUS
 10
40.02599999995994
 20
0.443277452357397
 30
0.0
 11
38.60499999996136
 21
1.864277452355969
 31
0.0
  0
LINE
  5
DE971
  8
0
  6
CONTINUOUS
 10
40.02599999995994
 20
1.116796661437583
 30
0.0
 11
38.60499999996136
 21
2.537796661436155
 31
0.0
  0
LINE
  5
DE972
  8
0
  6
CONTINUOUS
 10
40.02599999995994
 20
1.79031587051777
 30
0.0
 11
38.60499999996136
 21
3.211315870516341
 31
0.0
  0
LINE
  5
DE973
  8
0
  6
CONTINUOUS
 10
40.02599999995994
 20
2.463835079597956
 30
0.0
 11
38.60499999996136
 21
3.884835079596527
 31
0.0
  0
LINE
  5
DE974
  8
0
  6
CONTINUOUS
 10
40.02599999995994
 20
3.137354288678143
 30
0.0
 11
38.60499999996136
 21
4.558354288676714
 31
0.0
  0
LINE
  5
DE975
  8
0
  6
CONTINUOUS
 10
40.02599999995994
 20
3.810873497758329
 30
0.0
 11
38.60499999996136
 21
5.2318734977569
 31
0.0
  0
LINE
  5
DE976
  8
0
  6
CONTINUOUS
 10
40.02599999995994
 20
4.484392706838515
 30
0.0
 11
38.60499999996136
 21
5.905392706837086
 31
0.0
  0
LINE
  5
DE977
  8
0
  6
CONTINUOUS
 10
44.99999999995498
 20
0.183911915923658
 30
0.0
 11
41.53858364506288
 21
3.64532827081576
 31
0.0
  0
LINE
  5
DE978
  8
0
  6
CONTINUOUS
 10
40.02599999995994
 20
5.157911915918703
 30
0.0
 11
38.60499999996136
 21
6.578911915917274
 31
0.0
  0
LINE
  5
DE979
  8
0
  6
CONTINUOUS
 10
44.99999999995498
 20
0.8574311250038447
 30
0.0
 11
38.60499999996136
 21
7.25243112499746
 31
0.0
  0
LINE
  5
DE97A
  8
0
  6
CONTINUOUS
 10
44.99999999995498
 20
1.530950334084031
 30
0.0
 11
38.60499999996136
 21
7.925950334077647
 31
0.0
  0
LINE
  5
DE97B
  8
0
  6
CONTINUOUS
 10
44.99999999995498
 20
2.204469543164218
 30
0.0
 11
43.57899999995641
 21
3.625469543162789
 31
0.0
  0
LINE
  5
DE97C
  8
0
  6
CONTINUOUS
 10
41.89876730984767
 20
5.305702233271528
 30
0.0
 11
38.60499999996136
 21
8.599469543157834
 31
0.0
  0
LINE
  5
DE97D
  8
0
  6
CONTINUOUS
 10
44.99999999995498
 20
2.877988752244405
 30
0.0
 11
43.57899999995641
 21
4.298988752242975
 31
0.0
  0
LINE
  5
DE97E
  8
0
  6
CONTINUOUS
 10
44.99999999995498
 20
3.551507961324591
 30
0.0
 11
43.57899999995641
 21
4.972507961323163
 31
0.0
  0
LINE
  5
DE97F
  8
0
  6
CONTINUOUS
 10
44.99999999995498
 20
4.225027170404777
 30
0.0
 11
43.57899999995641
 21
5.646027170403348
 31
0.0
  0
LINE
  5
DE980
  8
0
  6
CONTINUOUS
 10
44.99999999995498
 20
4.898546379484964
 30
0.0
 11
43.57899999995641
 21
6.319546379483535
 31
0.0
  0
LINE
  5
DE981
  8
0
  6
CONTINUOUS
 10
44.99999999995498
 20
5.572065588565151
 30
0.0
 11
43.57899999995641
 21
6.993065588563722
 31
0.0
  0
LINE
  5
DE982
  8
0
  6
CONTINUOUS
 10
44.99999999995498
 20
6.245584797645336
 30
0.0
 11
43.57899999995641
 21
7.666584797643908
 31
0.0
  0
LINE
  5
DE983
  8
0
  6
CONTINUOUS
 10
44.99999999995498
 20
6.919104006725522
 30
0.0
 11
43.57899999995641
 21
8.340104006724093
 31
0.0
  0
LINE
  5
DE984
  8
0
  6
CONTINUOUS
 10
44.99999999995498
 20
7.592623215805709
 30
0.0
 11
43.82952321576943
 21
8.763099999991255
 31
0.0
  0
LINE
  5
DE985
  8
0
  6
CONTINUOUS
 10
44.99999999995498
 20
8.266142424885896
 30
0.0
 11
44.50304242484962
 21
8.763099999991255
 31
0.0
  0
ENDBLK
  5
DE9B2
  8
0
  0
BLOCK
  8
0
  2
*X1904
 70
     1
 10
0.0
 20
0.0
 30
0.0
  3
*X1904
  1

  0
LINE
  5
DE987
  8
0
  6
CONTINUOUS
 10
0.0
 20
8.548461116714023
 30
0.0
 11
0.2146388832772324
 21
8.763099999991255
 31
0.0
  0
LINE
  5
DE988
  8
0
  6
CONTINUOUS
 10
-0.0000000000000002
 20
7.874941907633837
 30
0.0
 11
0.8881580923574184
 21
8.763099999991255
 31
0.0
  0
LINE
  5
DE989
  8
0
  6
CONTINUOUS
 10
0.0
 20
7.20142269855365
 30
0.0
 11
1.420999999998572
 21
8.622422698552223
 31
0.0
  0
LINE
  5
DE98A
  8
0
  6
CONTINUOUS
 10
-0.0000000000000001
 20
6.527903489473465
 30
0.0
 11
1.420999999998571
 21
7.948903489472036
 31
0.0
  0
LINE
  5
DE98B
  8
0
  6
CONTINUOUS
 10
-0.0000000000000002
 20
5.854384280393278
 30
0.0
 11
1.420999999998571
 21
7.275384280391849
 31
0.0
  0
LINE
  5
DE98C
  8
0
  6
CONTINUOUS
 10
-0.0000000000000002
 20
5.180865071313091
 30
0.0
 11
1.420999999998571
 21
6.601865071311663
 31
0.0
  0
LINE
  5
DE98D
  8
0
  6
CONTINUOUS
 10
0.0
 20
4.507345862232905
 30
0.0
 11
1.420999999998571
 21
5.928345862231477
 31
0.0
  0
LINE
  5
DE98E
  8
0
  6
CONTINUOUS
 10
-0.0000000000000003
 20
3.833826653152718
 30
0.0
 11
1.420999999998571
 21
5.25482665315129
 31
0.0
  0
LINE
  5
DE98F
  8
0
  6
CONTINUOUS
 10
-0.0000000000000002
 20
3.160307444072532
 30
0.0
 11
1.420999999998571
 21
4.581307444071103
 31
0.0
  0
LINE
  5
DE990
  8
0
  6
CONTINUOUS
 10
-0.0000000000000001
 20
2.486788234992345
 30
0.0
 11
1.420999999998571
 21
3.907788234990917
 31
0.0
  0
LINE
  5
DE991
  8
0
  6
CONTINUOUS
 10
-0.0000000000000006
 20
1.813269025912159
 30
0.0
 11
1.420999999998571
 21
3.234269025910731
 31
0.0
  0
LINE
  5
DE992
  8
0
  6
CONTINUOUS
 10
0.0
 20
1.139749816831973
 30
0.0
 11
1.420999999998571
 21
2.560749816830544
 31
0.0
  0
LINE
  5
DE993
  8
0
  6
CONTINUOUS
 10
0.0000000000000002
 20
0.466230607751787
 30
0.0
 11
1.420999999998571
 21
1.887230607750358
 31
0.0
  0
LINE
  5
DE994
  8
0
  6
CONTINUOUS
 10
0.2072886013284003
 20
-0.0000000000000009
 30
0.0
 11
1.420999999998571
 21
1.213711398670171
 31
0.0
  0
LINE
  5
DE995
  8
0
  6
CONTINUOUS
 10
0.8808078104085864
 20
-0.0000000000000009
 30
0.0
 11
1.420999999998571
 21
0.5401921895899839
 31
0.0
  0
LINE
  5
DE996
  8
0
  6
CONTINUOUS
 10
0.0581249075061505
 20
-0.0000000000000009
 30
0.0
 11
-0.0000000000000002
 21
0.0581249075061496
 31
0.0
  0
LINE
  5
DE997
  8
0
  6
CONTINUOUS
 10
0.7316441165863372
 20
-0.0000000000000009
 30
0.0
 11
-0.0000000000000002
 21
0.7316441165863363
 31
0.0
  0
LINE
  5
DE998
  8
0
  6
CONTINUOUS
 10
1.405163325666523
 20
-0.0000000000000009
 30
0.0
 11
-0.0000000000000002
 21
1.405163325666523
 31
0.0
  0
LINE
  5
DE999
  8
0
  6
CONTINUOUS
 10
1.420999999998572
 20
0.6576825347481381
 30
0.0
 11
-0.0000000000000001
 21
2.07868253474671
 31
0.0
  0
LINE
  5
DE99A
  8
0
  6
CONTINUOUS
 10
1.420999999998571
 20
1.331201743828324
 30
0.0
 11
-0.0000000000000001
 21
2.752201743826896
 31
0.0
  0
LINE
  5
DE99B
  8
0
  6
CONTINUOUS
 10
1.420999999998571
 20
2.004720952908511
 30
0.0
 11
-0.0000000000000002
 21
3.425720952907082
 31
0.0
  0
LINE
  5
DE99C
  8
0
  6
CONTINUOUS
 10
1.420999999998571
 20
2.678240161988697
 30
0.0
 11
-0.0000000000000001
 21
4.099240161987269
 31
0.0
  0
LINE
  5
DE99D
  8
0
  6
CONTINUOUS
 10
1.420999999998572
 20
3.351759371068884
 30
0.0
 11
0.0
 21
4.772759371067455
 31
0.0
  0
LINE
  5
DE99E
  8
0
  6
CONTINUOUS
 10
1.420999999998571
 20
4.02527858014907
 30
0.0
 11
-0.0000000000000003
 21
5.446278580147642
 31
0.0
  0
LINE
  5
DE99F
  8
0
  6
CONTINUOUS
 10
1.420999999998571
 20
4.698797789229257
 30
0.0
 11
0.0
 21
6.119797789227828
 31
0.0
  0
LINE
  5
DE9A0
  8
0
  6
CONTINUOUS
 10
1.420999999998571
 20
5.372316998309444
 30
0.0
 11
-0.0000000000000001
 21
6.793316998308015
 31
0.0
  0
LINE
  5
DE9A1
  8
0
  6
CONTINUOUS
 10
1.420999999998572
 20
6.045836207389629
 30
0.0
 11
-0.0000000000000004
 21
7.466836207388202
 31
0.0
  0
LINE
  5
DE9A2
  8
0
  6
CONTINUOUS
 10
1.420999999998571
 20
6.719355416469816
 30
0.0
 11
0.0
 21
8.140355416468388
 31
0.0
  0
LINE
  5
DE9A3
  8
0
  6
CONTINUOUS
 10
1.420999999998571
 20
7.392874625550003
 30
0.0
 11
0.0507746255573185
 21
8.763099999991255
 31
0.0
  0
LINE
  5
DE9A4
  8
0
  6
CONTINUOUS
 10
1.420999999998571
 20
8.06639383463019
 30
0.0
 11
0.7242938346375052
 21
8.763099999991255
 31
0.0
  0
LINE
  5
DE9A5
  8
0
  6
CONTINUOUS
 10
1.420999999998571
 20
8.739913043710375
 30
0.0
 11
1.397813043717691
 21
8.763099999991255
 31
0.0
  0
ENDBLK
  5
DE9B4
  8
0
  0
ENDSEC
  0
SECTION
  2
ENTITIES
  0
ARC
  5
DDDC7
  8
01
 10
21334.18105162328
 20
36995.11200536065
 30
0.0
 40
8.5
 50
306.031879072483
 51
233.968120927517
  0
CIRCLE
  5
DDDC8
  8
01
 10
21334.18105162328
 20
36995.11200536065
 30
0.0
 40
7.2
  0
LINE
  5
DDDC9
  8
01
  6
BYBLOCK
 10
21339.18105162328
 20
36975.71200536066
 30
0.0
 11
21339.18105162328
 21
36988.23814181822
 31
0.0
  0
LINE
  5
DDDCA
  8
01
  6
BYBLOCK
 10
21329.18105162328
 20
36975.71200536066
 30
0.0
 11
21329.18105162328
 21
36988.23814181822
 31
0.0
  0
ARC
  5
DDDCB
  8
01
  6
BYBLOCK
 10
21334.18105162328
 20
36975.71200536066
 30
0.0
 40
5.00000000000005
 50
180.0
 51
0.0
  0
ARC
  5
DDDCC
  8
01
 10
21334.18105162328
 20
36995.11200536066
 30
0.0
 40
14.90000000000009
 50
290.8872169350461
 51
309.1127830649334
  0
ARC
  5
DDDCD
  8
01
 10
21342.94985178902
 20
36984.32691641094
 30
0.0
 40
1.0
 50
309.1127830647995
 51
36.51886155792824
  0
ARC
  5
DDDCE
  8
01
 10
21339.13681255294
 20
36982.12545718156
 30
0.0
 40
1.0
 50
272.5355395278544
 51
290.8872169350928
  0
LINE
  5
DDDCF
  8
01
 10
21340.45474786479
 20
36989.3769608561
 30
0.0
 11
21343.75351279263
 21
36984.92200379215
 31
0.0
  0
LINE
  5
DDDD0
  8
01
 10
21341.29117004629
 20
36988.24737903155
 30
0.0
 11
21339.18105162328
 21
36987.029101592
 31
0.0
  0
LINE
  5
DDDD1
  8
01
  6
BYBLOCK
 10
21327.88437789821
 20
36996.31200536065
 30
0.0
 11
21341.280347363
 21
36996.31200536065
 31
0.0
  0
LINE
  5
DDDD2
  8
01
  6
BYBLOCK
 10
21327.88437789821
 20
36993.91200536065
 30
0.0
 11
21341.280347363
 21
36993.91200536065
 31
0.0
  0
LINE
  5
DDDD3
  8
01
  6
BYBLOCK
 10
21331.18105162328
 20
36996.31200536065
 30
0.0
 11
21331.18105162328
 21
36993.91200536065
 31
0.0
  0
LINE
  5
DDDD4
  8
01
 10
21367.93426662125
 20
37003.61200536065
 30
0.0
 11
21367.93426662125
 21
36970.71200536066
 31
0.0
  0
LINE
  5
DDDD5
  8
01
 10
21367.13426662125
 20
37001.51200536065
 30
0.0
 11
21367.13426662125
 21
36988.71200536066
 31
0.0
  0
LINE
  5
DDDD6
  8
01
 10
21395.33426662124
 20
37003.61200536065
 30
0.0
 11
21395.33426662124
 21
36980.01200536065
 31
0.0
  0
LINE
  5
DDDD7
  8
01
 10
21405.33426662124
 20
37003.61200536065
 30
0.0
 11
21405.33426662124
 21
36980.01200536065
 31
0.0
  0
LINE
  5
DDDD8
  8
01
 10
21410.43426662125
 20
37003.61200536065
 30
0.0
 11
21410.43426662125
 21
36970.71200536066
 31
0.0
  0
LINE
  5
DDDD9
  8
01
 10
21367.93426662125
 20
36970.71200536066
 30
0.0
 11
21410.43426662125
 21
36970.71200536066
 31
0.0
  0
LINE
  5
DDDDA
  8
01
 10
21395.33426662124
 20
36980.01200536065
 30
0.0
 11
21405.33426662124
 21
36980.01200536065
 31
0.0
  0
LINE
  5
DDDDB
  8
01
 10
21367.93426662125
 20
37003.61200536065
 30
0.0
 11
21395.33426662125
 21
37003.61200536065
 31
0.0
  0
LINE
  5
DDDDC
  8
01
 10
21405.33426662124
 20
37003.61200536065
 30
0.0
 11
21410.43426662125
 21
37003.61200536065
 31
0.0
  0
LINE
  5
DDDDD
  8
01
 10
21367.93426662125
 20
37002.31200536065
 30
0.0
 11
21367.13426662125
 21
37001.51200536065
 31
0.0
  0
LINE
  5
DDDDE
  8
01
 10
21367.93426662125
 20
36987.91200536065
 30
0.0
 11
21367.13426662125
 21
36988.71200536066
 31
0.0
  0
LINE
  5
DDDDF
  8
01
 10
21367.93426662125
 20
36987.91200536065
 30
0.0
 11
21395.33426662124
 21
36987.91200536065
 31
0.0
  0
LINE
  5
DDDE0
  8
01
 10
21405.33426662124
 20
36987.91200536065
 30
0.0
 11
21410.43426662125
 21
36987.91200536065
 31
0.0
  0
LINE
  5
DDDE1
  8
01
  6
BYBLOCK
 10
21404.33426662124
 20
36981.12643620848
 30
0.0
 11
21404.33426662124
 21
37003.31200536065
 31
0.0
  0
LINE
  5
DDDE2
  8
01
  6
BYBLOCK
 10
21396.53426662125
 20
36981.12643620848
 30
0.0
 11
21396.53426662125
 21
37003.31200536065
 31
0.0
  0
LINE
  5
DDDE3
  8
01
  6
BYBLOCK
 10
21396.53426662125
 20
37003.31200536065
 30
0.0
 11
21404.33426662124
 21
37003.31200536065
 31
0.0
  0
LINE
  5
DDDE4
  8
01
  6
BYBLOCK
 10
21396.53426662125
 20
36986.91200536065
 30
0.0
 11
21404.33426662124
 21
36986.91200536065
 31
0.0
  0
LINE
  5
DDDED
  8
01
 10
21404.33426662124
 20
36981.12643620848
 30
0.0
 11
21396.53426662125
 21
36981.12643620848
 31
0.0
  0
ARC
  5
DDDF8
  8
01
 10
21334.18105162328
 20
36995.11200536065
 30
0.0
 40
6.410000000000508
 50
10.78986106713788
 51
349.210138932926
  0
LINE
  5
DDDF9
  8
1CENTER
 10
21320.18105162328
 20
36995.11200536065
 30
0.0
 11
21348.18105162328
 21
36995.11200536065
 31
0.0
  0
CIRCLE
  5
DDDFA
  8
1DIM
 10
21430.24225568932
 20
36920.50071584628
 30
0.0
 40
5.0
  0
TEXT
  5
DDDFB
  8
1TEXT
 10
21428.90892235762
 20
36918.50071584342
 30
0.0
 40
4.0
  1
3
 72
     4
 11
21430.24225569096
 21
36920.50071584342
 31
0.0
  0
ARC
  5
DDDFD
  8
01
 10
21439.97801829122
 20
36995.11200536065
 30
0.0
 40
8.5
 50
306.031879072483
 51
233.968120927517
  0
CIRCLE
  5
DDDFE
  8
01
 10
21439.97801829122
 20
36995.11200536065
 30
0.0
 40
7.2
  0
LINE
  5
DDDFF
  8
01
  6
BYBLOCK
 10
21434.97801829122
 20
36975.71200536066
 30
0.0
 11
21434.97801829122
 21
36988.23814181822
 31
0.0
  0
LINE
  5
DDE00
  8
01
  6
BYBLOCK
 10
21444.97801829122
 20
36975.71200536066
 30
0.0
 11
21444.97801829122
 21
36988.23814181822
 31
0.0
  0
ARC
  5
DDE01
  8
01
  6
BYBLOCK
 10
21439.97801829122
 20
36975.71200536066
 30
0.0
 40
5.00000000000005
 50
180.0
 51
0.0
  0
ARC
  5
DDE02
  8
01
 10
21439.97801829122
 20
36995.11200536066
 30
0.0
 40
14.90000000000009
 50
230.8872169350666
 51
249.1127830649539
  0
ARC
  5
DDE03
  8
01
 10
21431.20921812548
 20
36984.32691641094
 30
0.0
 40
1.0
 50
143.4811384420717
 51
230.8872169352004
  0
ARC
  5
DDE04
  8
01
 10
21435.02225736156
 20
36982.12545718156
 30
0.0
 40
1.0
 50
249.1127830651019
 51
267.4644604721456
  0
LINE
  5
DDE05
  8
01
 10
21433.70432204971
 20
36989.3769608561
 30
0.0
 11
21430.40555712187
 21
36984.92200379215
 31
0.0
  0
LINE
  5
DDE06
  8
01
 10
21432.86789986821
 20
36988.24737903155
 30
0.0
 11
21434.97801829122
 21
36987.029101592
 31
0.0
  0
LINE
  5
DDE07
  8
1CENTER
 10
21439.97801829122
 20
37009.11200536065
 30
0.0
 11
21439.97801829122
 21
36968.76683821112
 31
0.0
  0
LINE
  5
DDE08
  8
1CENTER
 10
21453.97801829122
 20
36995.11200536065
 30
0.0
 11
21425.97801829122
 21
36995.11200536065
 31
0.0
  0
LINE
  5
DDE17
  8
01
  6
BYBLOCK
 10
21427.51523724251
 20
36939.93339261858
 30
0.0
 11
21416.86523724251
 21
36939.93339261858
 31
0.0
  0
LINE
  5
DDE18
  8
01
  6
BYBLOCK
 10
21427.51523724251
 20
36935.63339261858
 30
0.0
 11
21416.86523724251
 21
36935.63339261858
 31
0.0
  0
LINE
  5
DDE19
  8
01
  6
BYBLOCK
 10
21429.86523724251
 20
36933.78339261858
 30
0.0
 11
21429.36523724251
 21
36933.78339261858
 31
0.0
  0
LINE
  5
DDE1A
  8
01
  6
BYBLOCK
 10
21429.86523724251
 20
36941.78339261858
 30
0.0
 11
21429.36523724251
 21
36941.78339261858
 31
0.0
  0
LINE
  5
DDE1B
  8
01
  6
BYBLOCK
 10
21416.86523724251
 20
36935.28339261858
 30
0.0
 11
21360.26523724251
 21
36935.28339261858
 31
0.0
  0
LINE
  5
DDE1C
  8
1HATCH
 10
21416.86523724251
 20
36935.68339261858
 30
0.0
 11
21359.86523724251
 21
36935.68339261858
 31
0.0
  0
LINE
  5
DDE1D
  8
01
  6
BYBLOCK
 10
21416.86523724251
 20
36940.28339261858
 30
0.0
 11
21360.26523724251
 21
36940.28339261858
 31
0.0
  0
LINE
  5
DDE1E
  8
1HATCH
 10
21416.86523724251
 20
36939.88339261858
 30
0.0
 11
21359.86523724251
 21
36939.88339261858
 31
0.0
  0
LINE
  5
DDE1F
  8
01
  6
BYBLOCK
 10
21359.86523724251
 20
36939.88339261858
 30
0.0
 11
21359.86523724251
 21
36935.68339261858
 31
0.0
  0
LINE
  5
DDE20
  8
01
  6
BYBLOCK
 10
21416.86523724251
 20
36940.28339261858
 30
0.0
 11
21416.86523724251
 21
36935.28339261858
 31
0.0
  0
LINE
  5
DDE21
  8
01
  6
BYBLOCK
 10
21429.86523724251
 20
36941.78339261858
 30
0.0
 11
21429.86523724251
 21
36933.78339261858
 31
0.0
  0
LINE
  5
DDE22
  8
01
  6
BYBLOCK
 10
21429.36523724251
 20
36941.78339261858
 30
0.0
 11
21429.36523724251
 21
36933.78339261858
 31
0.0
  0
LINE
  5
DDE23
  8
01
  6
BYBLOCK
 10
21429.36523724251
 20
36941.78339261858
 30
0.0
 11
21427.51523724251
 21
36939.93339261858
 31
0.0
  0
LINE
  5
DDE24
  8
01
  6
BYBLOCK
 10
21429.36523724251
 20
36933.78339261858
 30
0.0
 11
21427.51523724251
 21
36935.63339261858
 31
0.0
  0
LINE
  5
DDE25
  8
01
 10
21427.51523724251
 20
36939.93339261858
 30
0.0
 11
21427.51523724251
 21
36935.63339261858
 31
0.0
  0
LINE
  5
DDE26
  8
01
  6
BYBLOCK
 10
21359.86523724251
 20
36939.88339261858
 30
0.0
 11
21360.26523724251
 21
36940.28339261858
 31
0.0
  0
LINE
  5
DDE27
  8
01
  6
BYBLOCK
 10
21359.86523724251
 20
36935.68339261858
 30
0.0
 11
21360.26523724251
 21
36935.28339261858
 31
0.0
  0
LINE
  5
DDE28
  8
01
  6
BYBLOCK
 10
21360.26523724251
 20
36940.28339261858
 30
0.0
 11
21360.26523724251
 21
36935.28339261858
 31
0.0
  0
CIRCLE
  5
DDE29
  8
01
 10
21445.30660210787
 20
36937.78339261858
 30
0.0
 40
4.0
  0
LINE
  5
DDE2B
  8
1HATCH
 10
21448.06259413659
 20
36937.78339261858
 30
0.0
 11
21446.19354522967
 21
36937.78339261858
 31
0.0
  0
LINE
  5
DDE2C
  8
1HATCH
 10
21444.4196904015
 20
36937.78339261858
 30
0.0
 11
21442.55061007915
 21
36937.78339261858
 31
0.0
  0
LINE
  5
DDE2D
  8
1HATCH
 10
21445.30660210787
 20
36940.53938464729
 30
0.0
 11
21445.30660210787
 21
36938.67029834367
 31
0.0
  0
LINE
  5
DDE2E
  8
1HATCH
 10
21445.30660210787
 20
36936.89643711428
 30
0.0
 11
21445.30660210787
 21
36935.02740058986
 31
0.0
  0
LINE
  5
DDE33
  8
01
 10
21529.37955816954
 20
37008.86999087416
 30
0.0
 11
21533.87907143734
 21
37003.50767977233
 31
0.0
  0
LINE
  5
DDE34
  8
01
 10
21528.23049150486
 20
37007.90580945963
 30
0.0
 11
21532.73000477266
 21
37002.5434983578
 31
0.0
  0
ARC
  5
DDE35
  8
01
 10
21527.75071589239
 20
36998.36537889484
 30
0.0
 40
8.0
 50
328.9655749888377
 51
40.00000000001257
  0
ARC
  5
DDE36
  8
01
 10
21527.75071589239
 20
36998.36537889484
 30
0.0
 40
6.5
 50
310.0000000000191
 51
40.00000000002307
  0
ARC
  5
DDE37
  8
01
 10
21536.31929285024
 20
36993.20984895919
 30
0.0
 40
2.0
 50
148.9655749888199
 51
219.9999999999894
  0
LINE
  5
DDE38
  8
01
 10
21529.28080910759
 20
36981.37357749673
 30
0.0
 11
21530.42987577227
 21
36982.33775891126
 31
0.0
  0
LINE
  5
DDE39
  8
01
 10
21536.94125353878
 20
36987.80145359359
 30
0.0
 11
21538.09032020346
 21
36988.76563500812
 31
0.0
  0
LINE
  5
DDE3A
  8
01
 10
21536.10032895768
 20
36990.35935231108
 30
0.0
 11
21536.48335117924
 21
36990.68074611592
 31
0.0
  0
LINE
  5
DDE3B
  8
01
 10
21548.95728653392
 20
36962.63810563606
 30
0.0
 11
21553.1908290867
 21
36966.19046963067
 31
0.0
  0
ARC
  5
DDE3C
  8
01
 10
21523.25120262459
 20
37003.72768999667
 30
0.0
 40
8.0
 50
40.00000000001257
 51
107.9756871629596
  0
ARC
  5
DDE3D
  8
01
 10
21523.25120262459
 20
37003.72768999667
 30
0.0
 40
6.5
 50
40.00000000002307
 51
102.5135737496269
  0
LINE
  5
DDE3E
  8
01
 10
21520.42999910185
 20
37011.75704091092
 30
0.0
 11
21520.78229545546
 21
37011.33719046583
 31
0.0
  0
LINE
  5
DDE3F
  8
01
 10
21521.84284178205
 20
37010.07328057101
 30
0.0
 11
21522.31243388011
 21
37009.51364250109
 31
0.0
  0
LINE
  5
DDE40
  8
01
 10
21528.83377735867
 20
36981.90632918951
 30
0.0
 11
21529.28080910759
 21
36981.37357749673
 31
0.0
  0
LINE
  5
DDE41
  8
01
 10
21536.48335117924
 20
36990.68074611592
 30
0.0
 11
21538.09032020346
 21
36988.76563500812
 31
0.0
  0
LINE
  5
DDE42
  8
01
 10
21536.94125353878
 20
36987.80145359359
 30
0.0
 11
21552.6895499761
 21
36969.03336473718
 31
0.0
  0
LINE
  5
DDE43
  8
01
 10
21530.42987577227
 20
36982.33775891126
 30
0.0
 11
21546.17817220959
 21
36963.56967005484
 31
0.0
  0
LINE
  5
DDE44
  8
01
 10
21531.19592021539
 20
36982.98054652094
 30
0.0
 11
21546.94421665271
 21
36964.21245766453
 31
0.0
  0
LINE
  5
DDE45
  8
01
 10
21532.11517354713
 20
36983.75189165257
 30
0.0
 11
21547.86346998445
 21
36964.98380279615
 31
0.0
  0
LINE
  5
DDE46
  8
01
 10
21528.92499158508
 20
36989.10952629374
 30
0.0
 11
21548.62951442757
 21
36965.62659040584
 31
0.0
  0
LINE
  5
DDE47
  8
01
 10
21534.41330687649
 20
36985.68025448162
 30
0.0
 11
21550.16160331381
 21
36966.91216562521
 31
0.0
  0
LINE
  5
DDE48
  8
01
 10
21534.07866135038
 20
36989.96837905676
 30
0.0
 11
21552.96738706037
 21
36967.45767233236
 31
0.0
  0
LINE
  5
DDE49
  8
01
 10
21534.78720396401
 20
36991.92427373982
 30
0.0
 11
21536.10032895768
 21
36990.35935231108
 31
0.0
  0
ARC
  5
DDE4A
  8
01
 10
21516.59977688625
 20
37008.54310286248
 30
0.0
 40
5.0
 50
40.00000000001307
 51
118.228551417471
  0
ARC
  5
DDE4B
  8
01
 10
21518.48221166452
 20
37006.29970445266
 30
0.0
 40
5.0
 50
35.28788300940072
 51
39.999999999976
  0
LINE
  5
DDE4C
  8
01
 10
21530.98104132867
 20
36992.59079639634
 30
0.0
 11
21531.92883535535
 21
36993.38609001457
 31
0.0
  0
LINE
  5
DDE4D
  8
01
 10
21551.31066997849
 20
36967.87634703974
 30
0.0
 11
21552.9176390027
 21
36965.96123593194
 31
0.0
  0
LINE
  5
DDE4E
  8
01
 10
21533.31261690726
 20
36989.32559144707
 30
0.0
 11
21534.07866135038
 21
36989.96837905676
 31
0.0
  0
LINE
  5
DDE4F
  8
01
 10
21529.64368470131
 20
36989.92757466047
 30
0.0
 11
21534.41330687649
 21
36985.68025448162
 31
0.0
  0
LINE
  5
DDE50
  8
01
 10
21527.89040169505
 20
36987.386627241
 30
0.0
 11
21528.35002836092
 21
36987.77229980681
 31
0.0
  0
LINE
  5
DDE51
  8
01
 10
21527.89040169505
 20
36987.386627241
 30
0.0
 11
21531.19592021539
 21
36982.98054652094
 31
0.0
  0
LINE
  5
DDE52
  8
01
 10
21528.35002836092
 20
36987.77229980681
 30
0.0
 11
21532.11517354713
 21
36983.75189165257
 31
0.0
  0
LINE
  5
DDE53
  8
01
 10
21546.17817220959
 20
36963.56967005484
 30
0.0
 11
21548.89083114742
 21
36962.58234294575
 31
0.0
  0
LINE
  5
DDE54
  8
01
 10
21552.96738706037
 20
36967.45767233236
 30
0.0
 11
21553.1908290867
 21
36966.19046963067
 31
0.0
  0
LINE
  5
DDE55
  8
01
 10
21546.17817220959
 20
36963.56967005484
 30
0.0
 11
21546.94421665271
 21
36964.21245766453
 31
0.0
  0
LINE
  5
DDE56
  8
01
 10
21547.86346998445
 20
36964.98380279615
 30
0.0
 11
21548.62951442757
 21
36965.62659040584
 31
0.0
  0
LINE
  5
DDE57
  8
01
 10
21550.16160331381
 20
36966.91216562521
 30
0.0
 11
21551.31066997849
 21
36967.87634703974
 31
0.0
  0
LINE
  5
DDE58
  8
01
 10
21547.86346998445
 20
36964.98380279615
 30
0.0
 11
21548.95728653392
 21
36962.63810563606
 31
0.0
  0
LINE
  5
DDE59
  8
01
 10
21546.94421665271
 20
36964.21245766453
 30
0.0
 11
21548.95728653392
 21
36962.63810563606
 31
0.0
  0
LINE
  5
DDE5A
  8
01
 10
21548.62951442757
 20
36965.62659040584
 30
0.0
 11
21550.54306425024
 21
36963.96873113295
 31
0.0
  0
LINE
  5
DDE5B
  8
01
 10
21550.16160331381
 20
36966.91216562521
 30
0.0
 11
21550.93664692739
 21
36964.29898621218
 31
0.0
  0
LINE
  5
DDE5C
  8
01
 10
21501.87078908514
 20
36999.94952844894
 30
0.0
 11
21501.87078908514
 21
36992.94952844894
 31
0.0
  0
LINE
  5
DDE5D
  8
01
 10
21503.37078908514
 20
36999.94952844894
 30
0.0
 11
21503.37078908514
 21
36992.94952844894
 31
0.0
  0
ARC
  5
DDE5E
  8
01
 10
21509.87078908514
 20
36999.94952844894
 30
0.0
 40
8.0
 50
112.0243128370433
 51
180.0
  0
ARC
  5
DDE5F
  8
01
 10
21509.87078908514
 20
36999.94952844894
 30
0.0
 40
6.5
 50
117.4864262503796
 51
180.0
  0
LINE
  5
DDE60
  8
01
 10
21525.87078908514
 20
36999.94952844894
 30
0.0
 11
21525.87078908514
 21
36992.94952844894
 31
0.0
  0
LINE
  5
DDE61
  8
01
 10
21524.37078908514
 20
36999.94952844894
 30
0.0
 11
21524.37078908514
 21
36992.94952844894
 31
0.0
  0
ARC
  5
DDE62
  8
01
 10
21517.87078908514
 20
36992.94952844894
 30
0.0
 40
8.0
 50
288.9655749888307
 51
0.0
  0
ARC
  5
DDE63
  8
01
 10
21517.87078908514
 20
36992.94952844894
 30
0.0
 40
6.5
 50
270.0
 51
0.0
  0
ARC
  5
DDE64
  8
01
 10
21521.12078908514
 20
36983.49238828925
 30
0.0
 40
2.0
 50
108.965574988897
 51
180.0
  0
LINE
  5
DDE65
  8
01
 10
21508.12078908514
 20
36978.94952844894
 30
0.0
 11
21509.62078908514
 21
36978.94952844894
 31
0.0
  0
LINE
  5
DDE66
  8
01
 10
21518.12078908514
 20
36978.94952844894
 30
0.0
 11
21519.62078908514
 21
36978.94952844894
 31
0.0
  0
LINE
  5
DDE67
  8
01
 10
21508.12078908514
 20
36981.44952844894
 30
0.0
 11
21508.62078908514
 21
36981.44952844894
 31
0.0
  0
LINE
  5
DDE68
  8
01
 10
21519.12078908514
 20
36981.44952844894
 30
0.0
 11
21519.62078908514
 21
36981.44952844894
 31
0.0
  0
LINE
  5
DDE69
  8
01
 10
21511.06416475811
 20
36951.94952844894
 30
0.0
 11
21516.67741341217
 21
36951.94952844894
 31
0.0
  0
ARC
  5
DDE6A
  8
01
 10
21509.87078908514
 20
36992.94952844894
 30
0.0
 40
8.0
 50
180.0
 51
251.0344250111693
  0
ARC
  5
DDE6B
  8
01
 10
21509.87078908514
 20
36992.94952844894
 30
0.0
 40
6.5
 50
180.0
 51
270.0
  0
ARC
  5
DDE6C
  8
01
 10
21506.62078908514
 20
36983.49238828925
 30
0.0
 40
2.0
 50
0.0
 51
71.03442501110305
  0
ARC
  5
DDE6D
  8
01
 10
21517.87078908514
 20
36999.94952844894
 30
0.0
 40
8.0
 50
0.0
 51
67.97568716295672
  0
ARC
  5
DDE6E
  8
01
 10
21517.87078908514
 20
36999.94952844894
 30
0.0
 40
6.5
 50
0.0
 51
62.51357374962038
  0
LINE
  5
DDE6F
  8
01
 10
21516.87078908514
 20
37009.22989157628
 30
0.0
 11
21516.87078908514
 21
37008.2691653216
 31
0.0
  0
LINE
  5
DDE70
  8
01
 10
21510.87078908514
 20
37009.22989157628
 30
0.0
 11
21510.87078908514
 21
37008.63936920503
 31
0.0
  0
LINE
  5
DDE71
  8
01
 10
21506.87078908514
 20
37007.91380276747
 30
0.0
 11
21506.87078908514
 21
37007.36572693603
 31
0.0
  0
LINE
  5
DDE72
  8
01
 10
21506.87078908514
 20
37005.71580974627
 30
0.0
 11
21506.87078908514
 21
37004.98525413041
 31
0.0
  0
LINE
  5
DDE73
  8
01
 10
21508.37078908514
 20
37007.91380276747
 30
0.0
 11
21508.37078908514
 21
37004.98525413041
 31
0.0
  0
LINE
  5
DDE74
  8
01
 10
21520.87078908514
 20
37007.91380276747
 30
0.0
 11
21520.87078908514
 21
37007.36572693603
 31
0.0
  0
LINE
  5
DDE75
  8
01
 10
21520.87078908514
 20
37005.71580974627
 30
0.0
 11
21520.87078908514
 21
37004.98525413041
 31
0.0
  0
LINE
  5
DDE76
  8
01
 10
21519.37078908514
 20
37007.91380276747
 30
0.0
 11
21519.37078908514
 21
37004.98525413041
 31
0.0
  0
LINE
  5
DDE77
  8
01
 10
21508.12078908514
 20
36981.44952844894
 30
0.0
 11
21508.12078908514
 21
36978.94952844894
 31
0.0
  0
LINE
  5
DDE78
  8
01
 10
21519.62078908514
 20
36981.44952844894
 30
0.0
 11
21519.62078908514
 21
36978.94952844894
 31
0.0
  0
LINE
  5
DDE79
  8
01
 10
21518.12078908514
 20
36978.94952844894
 30
0.0
 11
21518.12078908514
 21
36954.44952844894
 31
0.0
  0
LINE
  5
DDE7A
  8
01
 10
21509.62078908514
 20
36978.94952844894
 30
0.0
 11
21509.62078908514
 21
36954.44952844894
 31
0.0
  0
LINE
  5
DDE7B
  8
01
 10
21510.62078908514
 20
36978.94952844894
 30
0.0
 11
21510.62078908514
 21
36954.44952844894
 31
0.0
  0
LINE
  5
DDE7C
  8
01
 10
21511.82078908514
 20
36978.94952844894
 30
0.0
 11
21511.82078908514
 21
36954.44952844894
 31
0.0
  0
LINE
  5
DDE7D
  8
01
 10
21512.82078908514
 20
36985.44952844894
 30
0.0
 11
21512.82078908514
 21
36954.44952844894
 31
0.0
  0
LINE
  5
DDE7E
  8
01
 10
21514.82078908514
 20
36978.94952844894
 30
0.0
 11
21514.82078908514
 21
36954.44952844894
 31
0.0
  0
LINE
  5
DDE7F
  8
01
 10
21517.32078908514
 20
36982.44952844894
 30
0.0
 11
21517.32078908514
 21
36953.06388780288
 31
0.0
  0
LINE
  5
DDE80
  8
01
 10
21519.12078908514
 20
36983.49238828925
 30
0.0
 11
21519.12078908514
 21
36981.44952844894
 31
0.0
  0
LINE
  5
DDE81
  8
01
 10
21508.62078908514
 20
36983.49238828925
 30
0.0
 11
21508.62078908514
 21
36981.44952844894
 31
0.0
  0
ARC
  5
DDE82
  8
01
 10
21513.87078908514
 20
36951.94952844894
 30
0.0
 40
61.0
 50
87.95328690232644
 51
92.04671309767355
  0
ARC
  5
DDE83
  8
01
 10
21513.87078908514
 20
36951.94952844894
 30
0.0
 40
58.8
 50
88.49993912166305
 51
91.50006087833697
  0
ARC
  5
DDE84
  8
01
 10
21515.37078908514
 20
37009.22989157628
 30
0.0
 40
1.5
 50
0.0
 51
88.49993912171519
  0
ARC
  5
DDE85
  8
01
 10
21512.37078908514
 20
37009.22989157628
 30
0.0
 40
1.5
 50
91.50006087828483
 51
180.0
  0
ARC
  5
DDE86
  8
01
 10
21513.87078908514
 20
36951.94952844894
 30
0.0
 40
59.5
 50
87.95328690232742
 51
92.04671309767258
  0
ARC
  5
DDE87
  8
01
 10
21511.87078908514
 20
37007.91380276747
 30
0.0
 40
5.0
 50
92.04671309768423
 51
155.308678820143
  0
ARC
  5
DDE88
  8
01
 10
21511.87078908514
 20
37007.91380276747
 30
0.0
 40
5.0
 50
167.0472337609651
 51
180.0
  0
ARC
  5
DDE89
  8
01
 10
21511.87078908514
 20
37007.91380276747
 30
0.0
 40
3.5
 50
92.04671309767235
 51
156.4519364021293
  0
ARC
  5
DDE8A
  8
01
 10
21511.87078908514
 20
37007.91380276747
 30
0.0
 40
3.5
 50
173.0263123662009
 51
180.0
  0
ARC
  5
DDE8B
  8
01
 10
21515.87078908514
 20
37007.91380276747
 30
0.0
 40
5.0
 50
0.0
 51
87.95328690231577
  0
ARC
  5
DDE8C
  8
01
 10
21515.87078908514
 20
37007.91380276747
 30
0.0
 40
3.5
 50
0.0
 51
87.95328690232766
  0
ARC
  5
DDE8D
  8
01
 10
21513.87078908514
 20
37060.94952844894
 30
0.0
 40
61.0
 50
267.9532869023265
 51
272.0467130976735
  0
ARC
  5
DDE8E
  8
01
 10
21513.87078908514
 20
37060.94952844894
 30
0.0
 40
59.5
 50
267.9532869023274
 51
272.0467130976726
  0
ARC
  5
DDE8F
  8
01
 10
21511.87078908514
 20
37004.98525413041
 30
0.0
 40
5.0
 50
180.0
 51
267.9532869023158
  0
ARC
  5
DDE90
  8
01
 10
21511.87078908514
 20
37004.98525413041
 30
0.0
 40
3.5
 50
180.0
 51
267.9532869023276
  0
ARC
  5
DDE91
  8
01
 10
21515.87078908514
 20
37004.98525413041
 30
0.0
 40
5.0
 50
272.0467130976842
 51
0.0
  0
ARC
  5
DDE92
  8
01
 10
21515.87078908514
 20
37004.98525413041
 30
0.0
 40
3.5
 50
272.0467130976724
 51
0.0
  0
LINE
  5
DDE93
  8
01
 10
21509.87078908514
 20
36986.44952844894
 30
0.0
 11
21517.87078908514
 21
36986.44952844894
 31
0.0
  0
ARC
  5
DDE94
  8
01
 10
21513.87078908514
 20
37065.54952844894
 30
0.0
 40
58.8
 50
268.4999391216595
 51
271.5000608783369
  0
ARC
  5
DDE95
  8
01
 10
21515.37078908514
 20
37008.2691653216
 30
0.0
 40
1.5
 50
271.5000608782848
 51
0.0
  0
ARC
  5
DDE96
  8
01
 10
21512.37078908514
 20
37008.2691653216
 30
0.0
 40
1.5
 50
206.6022502881162
 51
268.4999391217152
  0
LINE
  5
DDE97
  8
01
 10
21516.32078908514
 20
36982.44952844894
 30
0.0
 11
21516.32078908514
 21
36951.94952844894
 31
0.0
  0
LINE
  5
DDE98
  8
01
 10
21516.32078908514
 20
36982.44952844894
 30
0.0
 11
21517.32078908514
 21
36982.44952844894
 31
0.0
  0
LINE
  5
DDE99
  8
01
 10
21512.82078908514
 20
36985.44952844894
 30
0.0
 11
21513.87078908514
 21
36985.44952844894
 31
0.0
  0
LINE
  5
DDE9A
  8
01
 10
21513.87078908514
 20
36985.44952844894
 30
0.0
 11
21514.82078908514
 21
36978.94952844894
 31
0.0
  0
LINE
  5
DDE9B
  8
01
 10
21510.92078908514
 20
36984.44952844894
 30
0.0
 11
21511.52078908514
 21
36984.44952844894
 31
0.0
  0
LINE
  5
DDE9C
  8
01
 10
21510.92078908514
 20
36984.44952844894
 30
0.0
 11
21510.62078908514
 21
36978.94952844894
 31
0.0
  0
LINE
  5
DDE9D
  8
01
 10
21511.52078908514
 20
36984.44952844894
 30
0.0
 11
21511.82078908514
 21
36978.94952844894
 31
0.0
  0
LINE
  5
DDE9E
  8
01
 10
21509.62078908514
 20
36954.44952844894
 30
0.0
 11
21511.06416475811
 21
36951.94952844894
 31
0.0
  0
LINE
  5
DDE9F
  8
01
 10
21518.12078908514
 20
36954.44952844894
 30
0.0
 11
21516.67741341217
 21
36951.94952844894
 31
0.0
  0
LINE
  5
DDEA0
  8
01
 10
21509.62078908514
 20
36954.44952844894
 30
0.0
 11
21510.62078908514
 21
36954.44952844894
 31
0.0
  0
LINE
  5
DDEA1
  8
01
 10
21511.82078908514
 20
36954.44952844894
 30
0.0
 11
21512.82078908514
 21
36954.44952844894
 31
0.0
  0
LINE
  5
DDEA2
  8
01
 10
21514.82078908514
 20
36954.44952844894
 30
0.0
 11
21516.32078908514
 21
36954.44952844894
 31
0.0
  0
LINE
  5
DDEA3
  8
01
 10
21511.82078908514
 20
36954.44952844894
 30
0.0
 11
21511.15091610406
 21
36951.94952844894
 31
0.0
  0
LINE
  5
DDEA4
  8
01
 10
21510.62078908514
 20
36954.44952844894
 30
0.0
 11
21511.15091610406
 21
36951.94952844894
 31
0.0
  0
LINE
  5
DDEA5
  8
01
 10
21512.82078908514
 20
36954.44952844894
 30
0.0
 11
21513.22100189422
 21
36951.94952844894
 31
0.0
  0
LINE
  5
DDEA6
  8
01
 10
21514.82078908514
 20
36954.44952844894
 30
0.0
 11
21513.73478758991
 21
36951.94952844894
 31
0.0
  0
LINE
  5
DDEA7
  8
01
 10
21520.89712241848
 20
36996.44952844894
 30
0.0
 11
21521.37078908514
 21
36996.44952844894
 31
0.0
  0
LINE
  5
DDEA8
  8
01
 10
21519.23912241848
 20
36993.52849511561
 30
0.0
 11
21519.71278908514
 21
36993.52849511561
 31
0.0
  0
LINE
  5
DDEA9
  8
01
 10
21521.37078908514
 20
36993.44952844894
 30
0.0
 11
21519.71278908514
 21
36995.3090951156
 31
0.0
  0
LINE
  5
DDEAA
  8
01
 10
21519.71278908514
 20
36995.3090951156
 30
0.0
 11
21519.71278908514
 21
36993.52849511561
 31
0.0
  0
LINE
  5
DDEAB
  8
01
 10
21519.23912241848
 20
36996.5284951156
 30
0.0
 11
21519.23912241848
 21
36993.52849511561
 31
0.0
  0
LINE
  5
DDEAC
  8
01
 10
21521.37078908514
 20
36996.44952844894
 30
0.0
 11
21521.37078908514
 21
36993.44952844894
 31
0.0
  0
LINE
  5
DDEAD
  8
01
 10
21520.89712241848
 20
36994.6688951156
 30
0.0
 11
21519.23912241848
 21
36996.52846178227
 31
0.0
  0
LINE
  5
DDEAE
  8
01
 10
21520.89712241848
 20
36996.44952844894
 30
0.0
 11
21520.89712241848
 21
36994.6688951156
 31
0.0
  0
LINE
  5
DDEAF
  8
01
 10
21518.92812241848
 20
36996.44952844894
 30
0.0
 11
21518.44812241848
 21
36996.44952844894
 31
0.0
  0
LINE
  5
DDEB0
  8
01
 10
21517.39812241848
 20
36996.44952844894
 30
0.0
 11
21516.91812241848
 21
36996.44952844894
 31
0.0
  0
LINE
  5
DDEB1
  8
01
 10
21516.13812241848
 20
36996.44952844894
 30
0.0
 11
21516.61812241848
 21
36996.44952844894
 31
0.0
  0
ARC
  5
DDEB2
  8
01
 10
21518.05812241848
 20
36994.35570158991
 30
0.0
 40
0.39
 50
299.999999999833
 51
0.0
  0
ARC
  5
DDEB3
  8
01
 10
21517.78812241848
 20
36994.35570158991
 30
0.0
 40
0.39
 50
180.0
 51
240.000000000167
  0
ARC
  5
DDEB4
  8
01
 10
21517.92312241848
 20
36994.58952844894
 30
0.0
 40
0.6599999999999966
 50
240.0000000003451
 51
299.9999999999284
  0
ARC
  5
DDEB5
  8
01
 10
21517.92312241848
 20
36994.58952844894
 30
0.0
 40
1.140000000000002
 50
240.0000000000161
 51
299.999999999984
  0
ARC
  5
DDEB6
  8
01
 10
21517.78812241848
 20
36994.35570158991
 30
0.0
 40
0.8699999999999999
 50
180.0
 51
239.9999999998341
  0
LINE
  5
DDEB7
  8
01
 10
21515.36198539457
 20
36993.98952844893
 30
0.0
 11
21515.83812241848
 21
36993.98952844893
 31
0.0
  0
ARC
  5
DDEB8
  8
01
 10
21515.83812241848
 20
36994.28952844894
 30
0.0
 40
0.3
 50
270.0
 51
0.0
  0
LINE
  5
DDEB9
  8
01
 10
21513.95045575182
 20
36994.75216178227
 30
0.0
 11
21514.50178908515
 21
36994.75216178227
 31
0.0
  0
LINE
  5
DDEBA
  8
01
 10
21515.04417430786
 20
36993.53952844894
 30
0.0
 11
21515.83812241848
 21
36993.53952844894
 31
0.0
  0
LINE
  5
DDEBB
  8
01
 10
21515.04417430786
 20
36993.53952844894
 30
0.0
 11
21514.69612241848
 21
36994.31796178227
 31
0.0
  0
ARC
  5
DDEBC
  8
01
 10
21515.83812241848
 20
36994.31952844893
 30
0.0
 40
0.78
 50
270.0
 51
0.0
  0
LINE
  5
DDEBD
  8
01
 10
21515.36198539457
 20
36993.98952844893
 30
0.0
 11
21514.22612241848
 21
36996.52846178227
 31
0.0
  0
LINE
  5
DDEBE
  8
01
 10
21513.95045575182
 20
36994.75216178227
 30
0.0
 11
21514.22612241848
 21
36995.36852844893
 31
0.0
  0
LINE
  5
DDEBF
  8
01
 10
21514.50178908515
 20
36994.75216178227
 30
0.0
 11
21514.22612241848
 21
36995.36852844893
 31
0.0
  0
LINE
  5
DDEC0
  8
01
 10
21516.91812241848
 20
36996.44952844894
 30
0.0
 11
21516.91812241848
 21
36994.35570158991
 31
0.0
  0
LINE
  5
DDEC1
  8
01
 10
21518.92812241848
 20
36996.44952844894
 30
0.0
 11
21518.92812241848
 21
36994.35570158991
 31
0.0
  0
LINE
  5
DDEC2
  8
01
 10
21518.44812241848
 20
36996.44952844894
 30
0.0
 11
21518.44812241848
 21
36994.35570158991
 31
0.0
  0
LINE
  5
DDEC3
  8
01
 10
21517.39812241848
 20
36996.44952844894
 30
0.0
 11
21517.39812241848
 21
36994.35570158991
 31
0.0
  0
LINE
  5
DDEC4
  8
01
 10
21516.61812241848
 20
36996.44952844894
 30
0.0
 11
21516.61812241848
 21
36994.31952844893
 31
0.0
  0
LINE
  5
DDEC5
  8
01
 10
21516.13812241848
 20
36996.44952844894
 30
0.0
 11
21516.13812241848
 21
36994.28952844894
 31
0.0
  0
ARC
  5
DDEC6
  8
01
 10
21518.05812241848
 20
36994.35570158991
 30
0.0
 40
0.8699999999999999
 50
299.9999999999584
 51
0.0
  0
LINE
  5
DDEC7
  8
01
 10
21513.33445575181
 20
36996.44952844894
 30
0.0
 11
21513.83145575181
 21
36996.44952844894
 31
0.0
  0
LINE
  5
DDEC8
  8
01
 10
21509.88378908515
 20
36996.44952844894
 30
0.0
 11
21510.38078908515
 21
36996.44952844894
 31
0.0
  0
LINE
  5
DDEC9
  8
01
 10
21512.88378908515
 20
36993.52849511561
 30
0.0
 11
21513.40278908515
 21
36993.52849511561
 31
0.0
  0
LINE
  5
DDECA
  8
01
 10
21513.40278908515
 20
36993.52846178227
 30
0.0
 11
21513.75612241848
 21
36994.31796178227
 31
0.0
  0
LINE
  5
DDECB
  8
01
 10
21508.97978908515
 20
36994.31796178227
 30
0.0
 11
21509.91978908515
 21
36994.31796178227
 31
0.0
  0
LINE
  5
DDECC
  8
01
 10
21509.17412241848
 20
36994.75216178227
 30
0.0
 11
21509.72545575182
 21
36994.75216178227
 31
0.0
  0
LINE
  5
DDECD
  8
01
 10
21510.27278908515
 20
36993.52849511561
 30
0.0
 11
21510.79178908515
 21
36993.52849511561
 31
0.0
  0
LINE
  5
DDECE
  8
01
 10
21510.27278908515
 20
36993.52846178227
 30
0.0
 11
21509.91978908515
 21
36994.31796178227
 31
0.0
  0
LINE
  5
DDECF
  8
01
 10
21510.79178908515
 20
36993.52846178227
 30
0.0
 11
21509.44978908515
 21
36996.52846178227
 31
0.0
  0
LINE
  5
DDED0
  8
01
 10
21512.56812241848
 20
36993.44952844894
 30
0.0
 11
21511.85778908515
 21
36995.33946178227
 31
0.0
  0
LINE
  5
DDED1
  8
01
 10
21512.56812241848
 20
36993.44952844894
 30
0.0
 11
21513.83145575181
 21
36996.44952844894
 31
0.0
  0
LINE
  5
DDED2
  8
01
 10
21511.14712241848
 20
36993.44952844894
 30
0.0
 11
21511.85778908515
 21
36995.33946178227
 31
0.0
  0
LINE
  5
DDED3
  8
01
 10
21511.14712241848
 20
36993.44952844894
 30
0.0
 11
21509.88378908515
 21
36996.44952844894
 31
0.0
  0
LINE
  5
DDED4
  8
01
 10
21511.14545575182
 20
36994.63376178227
 30
0.0
 11
21511.85778908515
 21
36996.52846178227
 31
0.0
  0
LINE
  5
DDED5
  8
01
 10
21511.14545575182
 20
36994.63376178227
 30
0.0
 11
21510.38078908515
 21
36996.44952844894
 31
0.0
  0
LINE
  5
DDED6
  8
01
 10
21509.72545575182
 20
36994.75216178227
 30
0.0
 11
21509.44978908515
 21
36995.36852844893
 31
0.0
  0
LINE
  5
DDED7
  8
01
 10
21509.17412241848
 20
36994.75216178227
 30
0.0
 11
21509.44978908515
 21
36995.36852844893
 31
0.0
  0
LINE
  5
DDED8
  8
01
 10
21512.57012241848
 20
36994.63376178227
 30
0.0
 11
21513.33445575181
 21
36996.44952844894
 31
0.0
  0
LINE
  5
DDED9
  8
01
 10
21512.57012241848
 20
36994.63376178227
 30
0.0
 11
21511.85778908515
 21
36996.52846178227
 31
0.0
  0
LINE
  5
DDEDA
  8
01
 10
21507.91012241849
 20
36996.44952844894
 30
0.0
 11
21508.51512241849
 21
36996.44952844894
 31
0.0
  0
LINE
  5
DDEDB
  8
01
 10
21506.37078908515
 20
36996.44952844894
 30
0.0
 11
21506.84445575182
 21
36996.44952844894
 31
0.0
  0
LINE
  5
DDEDC
  8
01
 10
21508.51512241849
 20
36996.44952844894
 30
0.0
 11
21507.43145575182
 21
36995.08469511561
 31
0.0
  0
LINE
  5
DDEDD
  8
01
 10
21507.91012241849
 20
36996.44952844894
 30
0.0
 11
21506.84445575182
 21
36995.10742844894
 31
0.0
  0
LINE
  5
DDEDE
  8
01
 10
21507.91012241849
 20
36993.52849511561
 30
0.0
 11
21508.62645575182
 21
36993.52849511561
 31
0.0
  0
LINE
  5
DDEDF
  8
01
 10
21506.37078908515
 20
36993.52849511561
 30
0.0
 11
21506.84445575182
 21
36993.52849511561
 31
0.0
  0
LINE
  5
DDEE0
  8
01
 10
21508.25678908515
 20
36993.86182844893
 30
0.0
 11
21507.43145575182
 21
36995.08469511561
 31
0.0
  0
LINE
  5
DDEE1
  8
01
 10
21507.91012241849
 20
36993.52846178227
 30
0.0
 11
21506.84445575182
 21
36995.10742844894
 31
0.0
  0
LINE
  5
DDEE2
  8
01
 10
21506.84445575182
 20
36996.44952844894
 30
0.0
 11
21506.84445575182
 21
36993.52849511561
 31
0.0
  0
LINE
  5
DDEE3
  8
01
 10
21506.37078908515
 20
36996.44952844894
 30
0.0
 11
21506.37078908515
 21
36993.52849511561
 31
0.0
  0
LINE
  5
DDEE4
  8
01
 10
21508.25678908515
 20
36993.86182844893
 30
0.0
 11
21509.44978908515
 21
36996.5284951156
 31
0.0
  0
LINE
  5
DDEE5
  8
01
 10
21508.62645575182
 20
36993.52846178227
 30
0.0
 11
21508.97978908515
 21
36994.31796178227
 31
0.0
  0
LINE
  5
DDEE6
  8
01
 10
21512.88378908515
 20
36993.52846178227
 30
0.0
 11
21514.22612241848
 21
36996.52846178227
 31
0.0
  0
LINE
  5
DDEE7
  8
01
 10
21513.75612241848
 20
36994.31796178227
 30
0.0
 11
21514.69612241848
 21
36994.31796178227
 31
0.0
  0
LINE
  5
DDEE8
  8
01
 10
21528.41163273032
 20
37004.10041433222
 30
0.0
 11
21530.8057737336
 21
36997.52256598672
 31
0.0
  0
LINE
  5
DDEE9
  8
01
 10
21527.00209379914
 20
37003.58738411724
 30
0.0
 11
21529.39623480242
 21
36997.00953577173
 31
0.0
  0
ARC
  5
DDEEA
  8
01
 10
21523.28823276731
 20
36994.78640484012
 30
0.0
 40
8.0
 50
308.9655749888656
 51
19.99999999998924
  0
ARC
  5
DDEEB
  8
01
 10
21523.28823276731
 20
36994.78640484012
 30
0.0
 40
6.5
 50
290.0000000000242
 51
19.99999999995294
  0
ARC
  5
DDEEC
  8
01
 10
21529.57676621773
 20
36987.01116548412
 30
0.0
 40
2.0
 50
128.9655749887673
 51
199.9999999999803
  0
LINE
  5
DDEED
  8
01
 10
21518.91451172121
 20
36978.29601175169
 30
0.0
 11
21520.32405065239
 21
36978.80904196668
 31
0.0
  0
LINE
  5
DDEEE
  8
01
 10
21528.31143792907
 20
36981.71621318495
 30
0.0
 11
21529.72097686025
 21
36982.22924339993
 31
0.0
  0
LINE
  5
DDEEF
  8
01
 10
21528.39608019154
 20
36984.40746488023
 30
0.0
 11
21528.86592650193
 21
36984.5784749519
 31
0.0
  0
LINE
  5
DDEF0
  8
01
 10
21530.91492399109
 20
36953.93100476
 30
0.0
 11
21536.18965232994
 21
36955.85084886918
 31
0.0
  0
ARC
  5
DDEF1
  8
01
 10
21520.89409176403
 20
37001.36425318562
 30
0.0
 40
8.0
 50
19.99999999998924
 51
87.97568716296489
  0
ARC
  5
DDEF2
  8
01
 10
21520.89409176403
 20
37001.36425318562
 30
0.0
 40
6.5
 50
20.00000000002417
 51
82.51357374962296
  0
LINE
  5
DDEF3
  8
01
 10
21520.98922738248
 20
37009.87428342264
 30
0.0
 11
21521.1766803569
 21
37009.3592606082
 31
0.0
  0
LINE
  5
DDEF4
  8
01
 10
21521.74098527062
 20
37007.80884560008
 30
0.0
 11
21521.99085000707
 21
37007.12234787877
 31
0.0
  0
LINE
  5
DDEF5
  8
01
 10
21518.67665109582
 20
36978.94952844894
 30
0.0
 11
21518.91451172121
 21
36978.29601175169
 31
0.0
  0
LINE
  5
DDEF6
  8
01
 10
21528.86592650193
 20
36984.5784749519
 30
0.0
 11
21529.72097686025
 21
36982.22924339993
 31
0.0
  0
LINE
  5
DDEF7
  8
01
 10
21528.31143792907
 20
36981.71621318495
 30
0.0
 11
21536.69093144055
 21
36958.69374397569
 31
0.0
  0
LINE
  5
DDEF8
  8
01
 10
21520.32405065239
 20
36978.80904196668
 30
0.0
 11
21528.70354416387
 21
36955.78657275742
 31
0.0
  0
LINE
  5
DDEF9
  8
01
 10
21521.26374327317
 20
36979.15106211
 30
0.0
 11
21529.64323678465
 21
36956.12859290075
 31
0.0
  0
LINE
  5
DDEFA
  8
01
 10
21522.39137441812
 20
36979.56148628199
 30
0.0
 11
21530.77086792959
 21
36956.53901707274
 31
0.0
  0
LINE
  5
DDEFB
  8
01
 10
21521.22600293727
 20
36985.68712251107
 30
0.0
 11
21531.71056055038
 21
36956.88103721607
 31
0.0
  0
LINE
  5
DDEFC
  8
01
 10
21525.21045228047
 20
36980.58754671197
 30
0.0
 11
21533.58994579195
 21
36957.56507750272
 31
0.0
  0
LINE
  5
DDEFD
  8
01
 10
21526.3626133308
 20
36984.73152124303
 30
0.0
 11
21536.41309435628
 21
36957.11805157087
 31
0.0
  0
LINE
  5
DDEFE
  8
01
 10
21527.69738097616
 20
36986.32712519747
 30
0.0
 11
21528.39608019154
 21
36984.40746488023
 31
0.0
  0
ARC
  5
DDEFF
  8
01
 10
21516.29076427855
 20
37008.16418270601
 30
0.0
 40
5.0
 50
19.99999999998746
 51
107.1375705249319
  0
ARC
  5
DDF00
  8
01
 10
21517.29238690314
 20
37005.41224716214
 30
0.0
 40
5.0
 50
15.28788300937883
 51
19.99999999998746
  0
LINE
  5
DDF01
  8
01
 10
21524.34872220873
 20
36988.25523590946
 30
0.0
 11
21525.51136369893
 21
36988.67840280501
 31
0.0
  0
LINE
  5
DDF02
  8
01
 10
21525.42292071001
 20
36984.38950109971
 30
0.0
 11
21535.85453508145
 21
36955.72887616574
 31
0.0
  0
LINE
  5
DDF03
  8
01
 10
21525.42292071001
 20
36984.38950109971
 30
0.0
 11
21526.3626133308
 21
36984.73152124303
 31
0.0
  0
LINE
  5
DDF04
  8
01
 10
21522.18114257484
 20
36986.2100290021
 30
0.0
 11
21525.21045228047
 21
36980.58754671197
 31
0.0
  0
LINE
  5
DDF05
  8
01
 10
21519.66454027112
 20
36984.42197756732
 30
0.0
 11
21520.22835584359
 21
36984.62718965331
 31
0.0
  0
LINE
  5
DDF06
  8
01
 10
21519.66454027112
 20
36984.42197756732
 30
0.0
 11
21521.26374327318
 21
36979.15106211
 31
0.0
  0
LINE
  5
DDF07
  8
01
 10
21520.22835584359
 20
36984.62718965331
 30
0.0
 11
21522.39137441812
 21
36979.56148628199
 31
0.0
  0
LINE
  5
DDF08
  8
01
 10
21528.70354416387
 20
36955.78657275742
 30
0.0
 11
21530.91492399109
 21
36953.93100476
 31
0.0
  0
LINE
  5
DDF09
  8
01
 10
21536.69093144055
 20
36958.69374397569
 30
0.0
 11
21536.18965232994
 21
36955.85084886918
 31
0.0
  0
LINE
  5
DDF0A
  8
01
 10
21528.70354416387
 20
36955.78657275742
 30
0.0
 11
21529.64323678465
 21
36956.12859290075
 31
0.0
  0
LINE
  5
DDF0B
  8
01
 10
21530.77086792959
 20
36956.53901707274
 30
0.0
 11
21531.71056055038
 21
36956.88103721607
 31
0.0
  0
LINE
  5
DDF0C
  8
01
 10
21533.58994579195
 20
36957.56507750272
 30
0.0
 11
21534.99948472313
 21
36958.0781077177
 31
0.0
  0
LINE
  5
DDF0D
  8
01
 10
21530.77086792959
 20
36956.53901707274
 30
0.0
 11
21530.99644359073
 21
36953.96067546777
 31
0.0
  0
LINE
  5
DDF0E
  8
01
 10
21529.64323678465
 20
36956.12859290075
 30
0.0
 11
21530.99644359073
 21
36953.96067546777
 31
0.0
  0
LINE
  5
DDF0F
  8
01
 10
21531.71056055038
 20
36956.88103721607
 30
0.0
 11
21532.94168793213
 21
36954.66868650642
 31
0.0
  0
LINE
  5
DDF10
  8
01
 10
21533.58994579195
 20
36957.56507750272
 30
0.0
 11
21533.42448855904
 21
36954.8444115637
 31
0.0
  0
ARC
  5
DDF1B
  8
01
 10
21512.8075988521
 20
37018.95919323098
 30
0.0
 40
11.5
 50
319.9359376255337
 51
290.6821526296486
  0
ARC
  5
DDF1C
  8
01
 10
21512.8075988521
 20
37018.95919323098
 30
0.0
 40
10.5
 50
316.6153975255494
 51
292.7617626621879
  0
CIRCLE
  5
DE73E
  8
01
 10
21400.43426662125
 20
36976.01200536065
 30
0.0
 40
2.100000000000023
  0
CIRCLE
  5
DE73F
  8
1HATCH
 10
21400.43426662125
 20
36976.01200536065
 30
0.0
 40
2.5
  0
CIRCLE
  5
DE740
  8
01
 10
21400.43426662125
 20
36976.01200536065
 30
0.0
 40
2.75
  0
LINE
  5
DE741
  8
1CENTER
 10
21404.43426662125
 20
36976.01200536065
 30
0.0
 11
21396.43426662125
 21
36976.01200536065
 31
0.0
  0
LINE
  5
DE742
  8
1CENTER
 10
21400.43426662125
 20
36980.01200536065
 30
0.0
 11
21400.43426662125
 21
36972.01200536065
 31
0.0
  0
LINE
  5
DE743
  8
01
 10
21334.70735717884
 20
36979.5164498051
 30
0.0
 11
21334.70735717884
 21
36980.29978313843
 31
0.0
  0
LINE
  5
DE744
  8
01
 10
21335.3652738455
 20
36978.78950536066
 30
0.0
 11
21332.86527384551
 21
36979.90811647176
 31
0.0
  0
LINE
  5
DE745
  8
01
 10
21334.3455238455
 20
36979.67839424955
 30
0.0
 11
21333.83188495661
 21
36979.90811647176
 31
0.0
  0
LINE
  5
DE746
  8
01
 10
21334.3455238455
 20
36979.67839424955
 30
0.0
 11
21334.3455238455
 21
36980.13783869399
 31
0.0
  0
LINE
  5
DE747
  8
01
 10
21335.3652738455
 20
36975.24172758288
 30
0.0
 11
21334.70735717884
 21
36975.53617202733
 31
0.0
  0
LINE
  5
DE748
  8
01
 10
21335.08746828995
 20
36974.93367202733
 30
0.0
 11
21332.86524606773
 21
36975.92783869399
 31
0.0
  0
LINE
  5
DE749
  8
01
 10
21332.93105162328
 20
36973.36200536066
 30
0.0
 11
21335.36524606773
 21
36973.36200536066
 31
0.0
  0
LINE
  5
DE74A
  8
01
 10
21332.93105162328
 20
36973.75672758288
 30
0.0
 11
21335.36524606773
 21
36973.75672758288
 31
0.0
  0
LINE
  5
DE74B
  8
01
 10
21335.3652738455
 20
36974.64478313844
 30
0.0
 11
21334.04946828995
 21
36973.75672758288
 31
0.0
  0
LINE
  5
DE74C
  8
01
 10
21335.08746828995
 20
36974.93367202733
 30
0.0
 11
21334.06841273439
 21
36974.24589424955
 31
0.0
  0
LINE
  5
DE74D
  8
01
 10
21335.36524606773
 20
36973.36200536066
 30
0.0
 11
21335.36524606773
 21
36973.75672758288
 31
0.0
  0
LINE
  5
DE74E
  8
01
 10
21335.36524606773
 20
36974.64478313844
 30
0.0
 11
21335.36524606773
 21
36975.24172758288
 31
0.0
  0
LINE
  5
DE74F
  8
01
 10
21332.93105162328
 20
36974.64478313844
 30
0.0
 11
21334.04946828995
 21
36973.75672758288
 31
0.0
  0
LINE
  5
DE750
  8
01
 10
21332.93105162328
 20
36975.14894980511
 30
0.0
 11
21334.06841273439
 21
36974.24589424955
 31
0.0
  0
LINE
  5
DE751
  8
01
 10
21332.93105162328
 20
36973.36200536066
 30
0.0
 11
21332.93105162328
 21
36973.75672758288
 31
0.0
  0
LINE
  5
DE752
  8
01
 10
21332.93105162328
 20
36974.64478313844
 30
0.0
 11
21332.93105162328
 21
36975.14894980511
 31
0.0
  0
LINE
  5
DE753
  8
01
 10
21334.44419051217
 20
36978.52811647177
 30
0.0
 11
21332.86527384551
 21
36977.93450536066
 31
0.0
  0
LINE
  5
DE754
  8
01
 10
21334.44419051217
 20
36978.52811647177
 30
0.0
 11
21332.93105162328
 21
36979.16506091621
 31
0.0
  0
LINE
  5
DE755
  8
01
 10
21334.3455238455
 20
36975.69811647177
 30
0.0
 11
21333.83188495661
 21
36975.92783869399
 31
0.0
  0
LINE
  5
DE756
  8
01
 10
21334.3455238455
 20
36976.15756091622
 30
0.0
 11
21333.83188495661
 21
36975.92783869399
 31
0.0
  0
LINE
  5
DE757
  8
01
 10
21334.44419051217
 20
36977.34089424954
 30
0.0
 11
21332.93105162328
 21
36976.70367202732
 31
0.0
  0
LINE
  5
DE758
  8
01
 10
21334.44419051217
 20
36977.34089424954
 30
0.0
 11
21332.86527384551
 21
36977.93450536066
 31
0.0
  0
LINE
  5
DE759
  8
01
 10
21335.43105162328
 20
36977.34228313844
 30
0.0
 11
21332.93105162328
 21
36976.28950536066
 31
0.0
  0
LINE
  5
DE75A
  8
01
 10
21335.43105162328
 20
36977.34228313844
 30
0.0
 11
21333.85610717884
 21
36977.93450536066
 31
0.0
  0
LINE
  5
DE75B
  8
01
 10
21335.43105162328
 20
36978.5264498051
 30
0.0
 11
21332.93105162328
 21
36979.57922758288
 31
0.0
  0
LINE
  5
DE75C
  8
01
 10
21335.43105162328
 20
36978.5264498051
 30
0.0
 11
21333.85610717884
 21
36977.93450536066
 31
0.0
  0
LINE
  5
DE75D
  8
01
 10
21335.3652738455
 20
36977.04617202732
 30
0.0
 11
21332.86527384551
 21
36975.92783869399
 31
0.0
  0
LINE
  5
DE75E
  8
01
 10
21335.3652738455
 20
36976.61367202733
 30
0.0
 11
21334.70735717884
 21
36976.31950536066
 31
0.0
  0
LINE
  5
DE75F
  8
01
 10
21335.36524606773
 20
36976.61367202733
 30
0.0
 11
21335.36524606773
 21
36977.04617202732
 31
0.0
  0
LINE
  5
DE760
  8
01
 10
21334.3455238455
 20
36975.69811647177
 30
0.0
 11
21334.3455238455
 21
36976.15756091622
 31
0.0
  0
LINE
  5
DE761
  8
01
 10
21334.70735717884
 20
36975.53617202733
 30
0.0
 11
21334.70735717884
 21
36976.31950536066
 31
0.0
  0
LINE
  5
DE762
  8
01
 10
21335.3652738455
 20
36979.22200536066
 30
0.0
 11
21334.70735717884
 21
36979.5164498051
 31
0.0
  0
LINE
  5
DE763
  8
01
 10
21335.36524606773
 20
36978.78950536066
 30
0.0
 11
21335.36524606773
 21
36979.22200536066
 31
0.0
  0
LINE
  5
DE764
  8
01
 10
21332.93105162328
 20
36976.28950536066
 30
0.0
 11
21332.93105162328
 21
36976.70367202732
 31
0.0
  0
LINE
  5
DE765
  8
01
 10
21332.93105162328
 20
36979.16506091621
 30
0.0
 11
21332.93105162328
 21
36979.57922758288
 31
0.0
  0
POINT
  5
DE766
  8
1CENTER
 10
21334.18105162328
 20
36979.61200536065
 30
0.0
 50
90.0
  0
ARC
  5
DE767
  8
01
 10
21334.67590733913
 20
36983.1014498051
 30
0.0
 40
0.725
 50
29.99999999964863
 51
90.0
  0
LINE
  5
DE768
  8
01
 10
21332.93105162328
 20
36981.5014498051
 30
0.0
 11
21334.73105162328
 21
36981.5014498051
 31
0.0
  0
LINE
  5
DE769
  8
01
 10
21332.93105162328
 20
36981.9014498051
 30
0.0
 11
21334.70605162328
 21
36981.9014498051
 31
0.0
  0
LINE
  5
DE76A
  8
01
 10
21332.93105162328
 20
36982.5514498051
 30
0.0
 11
21334.67590733913
 21
36982.5514498051
 31
0.0
  0
LINE
  5
DE76B
  8
01
 10
21332.93105162328
 20
36983.4264498051
 30
0.0
 11
21334.67590733913
 21
36983.4264498051
 31
0.0
  0
LINE
  5
DE76C
  8
01
 10
21332.93105162328
 20
36983.8264498051
 30
0.0
 11
21334.67590733913
 21
36983.8264498051
 31
0.0
  0
LINE
  5
DE76D
  8
01
 10
21332.93105162328
 20
36982.1514498051
 30
0.0
 11
21334.67590733913
 21
36982.1514498051
 31
0.0
  0
LINE
  5
DE76E
  8
01
 10
21334.3455238455
 20
36980.13783869399
 30
0.0
 11
21333.83188495661
 21
36979.90811647176
 31
0.0
  0
LINE
  5
DE76F
  8
01
 10
21334.98105162328
 20
36980.85466895184
 30
0.0
 11
21332.86527384551
 21
36979.90811647176
 31
0.0
  0
ARC
  5
DE770
  8
01
 10
21334.70605162328
 20
36981.2514498051
 30
0.0
 40
0.65
 50
0.0
 51
90.0
  0
LINE
  5
DE771
  8
01
 10
21335.35605162328
 20
36980.58982637958
 30
0.0
 11
21334.70735717884
 21
36980.29978313843
 31
0.0
  0
LINE
  5
DE772
  8
01
 10
21335.35605162328
 20
36980.58982637958
 30
0.0
 11
21335.35605162328
 21
36981.2514498051
 31
0.0
  0
ARC
  5
DE773
  8
01
 10
21334.73105162328
 20
36981.2514498051
 30
0.0
 40
0.25
 50
0.0
 51
90.0
  0
LINE
  5
DE774
  8
01
 10
21334.98105162328
 20
36980.85466895184
 30
0.0
 11
21334.98105162328
 21
36981.2514498051
 31
0.0
  0
ARC
  5
DE775
  8
01
 10
21334.67590733913
 20
36982.8764498051
 30
0.0
 40
0.725
 50
270.0
 51
330.0000000003514
  0
ARC
  5
DE776
  8
01
 10
21334.48105162328
 20
36982.9889498051
 30
0.0
 40
0.950000000000002
 50
330.0000000000794
 51
29.99999999992059
  0
ARC
  5
DE777
  8
01
 10
21334.48105162328
 20
36982.9889498051
 30
0.0
 40
0.5499999999999972
 50
329.9999999998821
 51
30.00000000011791
  0
ARC
  5
DE778
  8
01
 10
21334.67590733913
 20
36982.8764498051
 30
0.0
 40
0.325
 50
270.0
 51
330.0000000003521
  0
ARC
  5
DE779
  8
01
 10
21334.67590733913
 20
36983.1014498051
 30
0.0
 40
0.325
 50
29.99999999964784
 51
90.0
  0
LINE
  5
DE77A
  8
01
 10
21332.93105162328
 20
36981.5014498051
 30
0.0
 11
21332.93105162328
 21
36981.9014498051
 31
0.0
  0
LINE
  5
DE77B
  8
01
 10
21332.93105162328
 20
36982.5514498051
 30
0.0
 11
21332.93105162328
 21
36982.1514498051
 31
0.0
  0
LINE
  5
DE77C
  8
01
 10
21332.93105162328
 20
36983.8264498051
 30
0.0
 11
21332.93105162328
 21
36983.4264498051
 31
0.0
  0
LINE
  5
DE77D
  8
01
 10
21332.93105162328
 20
36985.46728313843
 30
0.0
 11
21334.41491273439
 21
36985.46728313843
 31
0.0
  0
LINE
  5
DE77E
  8
01
 10
21334.41491273439
 20
36985.46728313843
 30
0.0
 11
21332.86527384551
 21
36984.08561647176
 31
0.0
  0
LINE
  5
DE77F
  8
01
 10
21332.86524606773
 20
36984.08561647176
 30
0.0
 11
21335.36524606773
 21
36984.08561647176
 31
0.0
  0
LINE
  5
DE780
  8
01
 10
21333.88141273439
 20
36984.48033869398
 30
0.0
 11
21335.36524606773
 21
36984.48033869398
 31
0.0
  0
LINE
  5
DE781
  8
01
 10
21335.36524606773
 20
36984.08561647176
 30
0.0
 11
21335.36524606773
 21
36984.48033869398
 31
0.0
  0
LINE
  5
DE782
  8
01
 10
21332.93105162328
 20
36985.86200536065
 30
0.0
 11
21335.43105162328
 21
36985.86200536065
 31
0.0
  0
LINE
  5
DE783
  8
01
 10
21335.43105162328
 20
36985.86200536065
 30
0.0
 11
21333.88141273439
 21
36984.48033869398
 31
0.0
  0
LINE
  5
DE784
  8
01
 10
21332.93105162328
 20
36985.46728313843
 30
0.0
 11
21332.93105162328
 21
36985.86200536065
 31
0.0
  0
LINE
  5
DE785
  8
1DIM
 10
21447.25349172548
 20
36936.72338154579
 30
0.0
 11
21446.19352034042
 21
36937.78336772897
 31
0.0
  0
LINE
  5
DE786
  8
1DIM
 10
21447.25348553475
 20
36938.84334772133
 30
0.0
 11
21446.36661019003
 21
36939.7302354476
 31
0.0
  0
LINE
  5
DE787
  8
1DIM
 10
21447.25348553475
 20
36938.84334772133
 30
0.0
 11
21446.19352034042
 21
36937.78336772897
 31
0.0
  0
LINE
  5
DE788
  8
1DIM
 10
21446.36660399921
 20
36935.83650620108
 30
0.0
 11
21447.25349172548
 21
36936.72338154579
 31
0.0
  0
LINE
  5
DE789
  8
1DIM
 10
21446.36660399921
 20
36935.83650620108
 30
0.0
 11
21445.30663019777
 21
36936.89646520458
 31
0.0
  0
LINE
  5
DE78A
  8
1DIM
 10
21445.30663019777
 20
36936.89646520458
 30
0.0
 11
21444.24665881253
 21
36935.83647902121
 31
0.0
  0
LINE
  5
DE78B
  8
1DIM
 10
21444.41971529145
 20
36937.78336772897
 30
0.0
 11
21443.35973529909
 21
36938.8433329233
 31
0.0
  0
LINE
  5
DE78C
  8
1DIM
 10
21444.41971529145
 20
36937.78336772897
 30
0.0
 11
21443.3597414902
 21
36936.72340872567
 31
0.0
  0
LINE
  5
DE78D
  8
1DIM
 10
21443.3597414902
 20
36936.72340872567
 30
0.0
 11
21444.24665881253
 21
36935.83647902121
 31
0.0
  0
LINE
  5
DE78E
  8
1DIM
 10
21445.30663019777
 20
36938.67027025337
 30
0.0
 11
21444.24666500355
 21
36939.73025024563
 31
0.0
  0
LINE
  5
DE78F
  8
1DIM
 10
21444.24666500355
 20
36939.73025024563
 30
0.0
 11
21443.35973529909
 21
36938.8433329233
 31
0.0
  0
LINE
  5
DE790
  8
1DIM
 10
21446.36661019003
 20
36939.7302354476
 30
0.0
 11
21445.30663019777
 21
36938.67027025337
 31
0.0
  0
LINE
  5
DE791
  8
1DIM
 10
21400.43426662125
 20
36972.01200536065
 30
0.0
 11
21400.43426662125
 21
36957.54704883766
 31
0.0
  0
LINE
  5
DE792
  8
1DIM
 10
21367.93426662125
 20
36970.71200536066
 30
0.0
 11
21367.93426662125
 21
36957.54704883766
 31
0.0
  0
LINE
  5
DE793
  8
1DIM
 10
21398.43426662125
 20
36958.54704883766
 30
0.0
 11
21369.93426662125
 21
36958.54704883766
 31
0.0
  0
LINE
  5
DE797
  8
1DIM
 10
21400.43426662125
 20
36972.01200536065
 30
0.0
 11
21400.43426662125
 21
36957.54704883766
 31
0.0
  0
LINE
  5
DE798
  8
1DIM
 10
21410.43426662125
 20
36970.71200536066
 30
0.0
 11
21410.43426662125
 21
36957.54704883766
 31
0.0
  0
LINE
  5
DE799
  8
1DIM
 10
21402.43426662125
 20
36958.54704883766
 30
0.0
 11
21408.43426662125
 21
36958.54704883766
 31
0.0
  0
LINE
  5
DE79D
  8
1DIM
 10
21367.13426662125
 20
37001.51200536065
 30
0.0
 11
21367.13426662125
 21
37020.59636779774
 31
0.0
  0
LINE
  5
DE79E
  8
1DIM
 10
21410.43426662125
 20
37003.61200536065
 30
0.0
 11
21410.43426662125
 21
37020.59636779774
 31
0.0
  0
LINE
  5
DE79F
  8
1DIM
 10
21369.13426662125
 20
37019.59636779774
 30
0.0
 11
21408.43426662125
 21
37019.59636779774
 31
0.0
  0
LINE
  5
DE7A3
  8
1DIM
 10
21325.68105162328
 20
36995.11200536065
 30
0.0
 11
21325.68105162328
 21
37020.59636779774
 31
0.0
  0
LINE
  5
DE7A4
  8
1DIM
 10
21342.68105162328
 20
36995.11200536065
 30
0.0
 11
21342.68105162328
 21
37020.59636779774
 31
0.0
  0
LINE
  5
DE7A5
  8
1DIM
 10
21327.68105162328
 20
37019.59636779774
 30
0.0
 11
21340.68105162328
 21
37019.59636779774
 31
0.0
  0
LINE
  5
DE7A9
  8
1DIM
 10
21334.18105162328
 20
37003.61200536065
 30
0.0
 11
21358.48806704574
 21
37003.61200536065
 31
0.0
  0
LINE
  5
DE7AA
  8
1DIM
 10
21334.18105162328
 20
36970.71200536066
 30
0.0
 11
21358.48806704574
 21
36970.71200536066
 31
0.0
  0
LINE
  5
DE7AB
  8
1DIM
 10
21357.48806704574
 20
37001.61200536065
 30
0.0
 11
21357.48806704574
 21
36972.71200536066
 31
0.0
  0
LINE
  5
DE7B0
  8
1DIM
 10
21423.22704286121
 20
36933.92311950909
 30
0.0
 11
21428.5186769386
 21
36925.19425143153
 31
0.0
  0
LINE
  5
DE7B1
  8
1DIM
 10
21359.86523724251
 20
36939.88339261858
 30
0.0
 11
21359.86523724251
 21
36949.83266097945
 31
0.0
1001
ACAD
1000
DSTYLE
1002
{
1070
     3
1000
(<>)
1002
}
  0
LINE
  5
DE7B2
  8
1DIM
 10
21429.86523724251
 20
36941.78339261858
 30
0.0
 11
21429.86523724251
 21
36949.83266097945
 31
0.0
1001
ACAD
1000
DSTYLE
1002
{
1070
     3
1000
(<>)
1002
}
  0
LINE
  5
DE7B3
  8
1DIM
 10
21361.86523724251
 20
36948.83266097945
 30
0.0
 11
21427.86523724251
 21
36948.83266097945
 31
0.0
1001
ACAD
1000
DSTYLE
1002
{
1070
     3
1000
(<>)
1002
}
  0
LINE
  5
DE7B7
  8
1DIM
 10
21455.33341307597
 20
36955.3959120178
 30
0.0
 11
21448.27506588132
 21
36942.99762533545
 31
0.0
1001
ACAD_DSTYLE_DIMRADIAL_EXTE
1070
   387
1070
     1
1070
   388
1040
0.0
1070
   390
1040
0.0
1001
ACAD
1000
DSTYLE
1002
{
1070
     3
1000
(\U+0192\U+00D3<>)
1002
}
  0
LINE
  5
DE7B8
  8
1DIM
 10
21442.33813833442
 20
36932.5691599017
 30
0.0
 11
21441.34865040994
 21
36930.83108232941
 31
0.0
1001
ACAD_DSTYLE_DIMRADIAL_EXTE
1070
   387
1070
     1
1070
   388
1040
0.0
1070
   390
1040
0.0
1001
ACAD
1000
DSTYLE
1002
{
1070
     3
1000
(\U+0192\U+00D3<>)
1002
}
  0
LINE
  5
DE7BA
  8
1DIM
 10
21443.3276262589
 20
36934.30723747399
 30
0.0
 11
21447.28557795684
 21
36941.25954776316
 31
0.0
1001
ACAD_DSTYLE_DIMRADIAL_EXTE
1070
   387
1070
     1
1070
   388
1040
0.0
1070
   390
1040
0.0
1001
ACAD
1000
DSTYLE
1002
{
1070
     3
1000
(\U+0192\U+00D3<>)
1002
}
  0
TEXT
  5
DE7BD
  8
1DIM
  6
CONTINUOUS
 10
21390.84533814526
 20
36929.08498427656
 30
0.0
 40
3.5
  1
M5
  0
LINE
  5
DE7BF
  8
1DIM
 10
21386.55309522187
 20
36936.22816125855
 30
0.0
 11
21390.14533814526
 21
36928.38498427656
 31
0.0
  0
LINE
  5
DE7C0
  8
1DIM
 10
21524.3075988521
 20
37018.95919323098
 30
0.0
 11
21524.3075988521
 21
37033.80847265331
 31
0.0
1001
ACAD
1000
DSTYLE
1002
{
1070
     3
1000
(\U+0192\U+00D3<>)
1002
}
  0
LINE
  5
DE7C1
  8
1DIM
 10
21501.3075988521
 20
37018.95919323098
 30
0.0
 11
21501.3075988521
 21
37033.80847265331
 31
0.0
1001
ACAD
1000
DSTYLE
1002
{
1070
     3
1000
(\U+0192\U+00D3<>)
1002
}
  0
LINE
  5
DE7C2
  8
1DIM
 10
21524.3075988521
 20
37032.80847265331
 30
0.0
 11
21542.9075988521
 21
37032.80847265331
 31
0.0
1001
ACAD
1000
DSTYLE
1002
{
1070
     3
1000
(\U+0192\U+00D3<>)
1002
}
  0
LINE
  5
DE7C3
  8
1DIM
 10
21522.3075988521
 20
37032.80847265331
 30
0.0
 11
21503.3075988521
 21
37032.80847265331
 31
0.0
1001
ACAD
1000
DSTYLE
1002
{
1070
     3
1000
(\U+0192\U+00D3<>)
1002
}
  0
LINE
  5
DE7C7
  8
1DIM
 10
21416.86523724251
 20
36935.28339261858
 30
0.0
 11
21416.86523724251
 21
36917.41304727121
 31
0.0
1001
ACAD
1000
DSTYLE
1002
{
1070
     3
1000
(<>)
1002
}
  0
LINE
  5
DE7C8
  8
1DIM
 10
21359.86523724251
 20
36935.68339261858
 30
0.0
 11
21359.86523724251
 21
36917.41304727121
 31
0.0
1001
ACAD
1000
DSTYLE
1002
{
1070
     3
1000
(<>)
1002
}
  0
LINE
  5
DE7C9
  8
1DIM
 10
21414.86523724251
 20
36918.41304727121
 30
0.0
 11
21361.86523724251
 21
36918.41304727121
 31
0.0
1001
ACAD
1000
DSTYLE
1002
{
1070
     3
1000
(<>)
1002
}
  0
LINE
  5
DE7CD
  8
0
  6
BYBLOCK
 10
21398.43426662125
 20
36959.08294683766
 30
0.0
 11
21400.43426662125
 21
36958.54704883766
 31
0.0
  0
LINE
  5
DE7CE
  8
0
  6
BYBLOCK
 10
21400.43426662125
 20
36958.54704883766
 30
0.0
 11
21398.43426662125
 21
36958.01115083766
 31
0.0
  0
LINE
  5
DE7CF
  8
0
  6
BYBLOCK
 10
21400.43426662125
 20
36958.54704883766
 30
0.0
 11
21398.43426662125
 21
36958.54704883766
 31
0.0
  0
LINE
  5
DE7D0
  8
0
  6
BYBLOCK
 10
21369.93426662125
 20
36958.01115083766
 30
0.0
 11
21367.93426662125
 21
36958.54704883766
 31
0.0
  0
LINE
  5
DE7D1
  8
0
  6
BYBLOCK
 10
21367.93426662125
 20
36958.54704883766
 30
0.0
 11
21369.93426662125
 21
36959.08294683766
 31
0.0
  0
LINE
  5
DE7D2
  8
0
  6
BYBLOCK
 10
21367.93426662125
 20
36958.54704883766
 30
0.0
 11
21369.93426662125
 21
36958.54704883766
 31
0.0
  0
TEXT
  5
DE7D3
  8
1DIM
  6
CONTINUOUS
 10
21383.01759995458
 20
36959.24704883766
 30
0.0
 40
3.5
  1
A
  0
LINE
  5
DE7D4
  8
0
  6
BYBLOCK
 10
21402.43426662125
 20
36958.01115083766
 30
0.0
 11
21400.43426662125
 21
36958.54704883766
 31
0.0
  0
LINE
  5
DE7D5
  8
0
  6
BYBLOCK
 10
21400.43426662125
 20
36958.54704883766
 30
0.0
 11
21402.43426662125
 21
36959.08294683766
 31
0.0
  0
LINE
  5
DE7D6
  8
0
  6
BYBLOCK
 10
21400.43426662125
 20
36958.54704883766
 30
0.0
 11
21402.43426662125
 21
36958.54704883766
 31
0.0
  0
LINE
  5
DE7D7
  8
0
  6
BYBLOCK
 10
21408.43426662125
 20
36959.08294683766
 30
0.0
 11
21410.43426662125
 21
36958.54704883766
 31
0.0
  0
LINE
  5
DE7D8
  8
0
  6
BYBLOCK
 10
21410.43426662125
 20
36958.54704883766
 30
0.0
 11
21408.43426662125
 21
36958.01115083766
 31
0.0
  0
LINE
  5
DE7D9
  8
0
  6
BYBLOCK
 10
21410.43426662125
 20
36958.54704883766
 30
0.0
 11
21408.43426662125
 21
36958.54704883766
 31
0.0
  0
TEXT
  5
DE7DA
  8
1DIM
  6
CONTINUOUS
 10
21403.31968328791
 20
36959.24704883766
 30
0.0
 40
3.5
  1
10
  0
LINE
  5
DE7DB
  8
0
  6
BYBLOCK
 10
21369.13426662125
 20
37019.06046979774
 30
0.0
 11
21367.13426662125
 21
37019.59636779774
 31
0.0
  0
LINE
  5
DE7DC
  8
0
  6
BYBLOCK
 10
21367.13426662125
 20
37019.59636779774
 30
0.0
 11
21369.13426662125
 21
37020.13226579774
 31
0.0
  0
LINE
  5
DE7DD
  8
0
  6
BYBLOCK
 10
21367.13426662125
 20
37019.59636779774
 30
0.0
 11
21369.13426662125
 21
37019.59636779774
 31
0.0
  0
LINE
  5
DE7DE
  8
0
  6
BYBLOCK
 10
21408.43426662125
 20
37020.13226579774
 30
0.0
 11
21410.43426662125
 21
37019.59636779774
 31
0.0
  0
LINE
  5
DE7DF
  8
0
  6
BYBLOCK
 10
21410.43426662125
 20
37019.59636779774
 30
0.0
 11
21408.43426662125
 21
37019.06046979774
 31
0.0
  0
LINE
  5
DE7E0
  8
0
  6
BYBLOCK
 10
21410.43426662125
 20
37019.59636779774
 30
0.0
 11
21408.43426662125
 21
37019.59636779774
 31
0.0
  0
TEXT
  5
DE7E1
  8
1DIM
  6
CONTINUOUS
 10
21380.90926662125
 20
37020.29636779774
 30
0.0
 40
3.5
  1
A+10.8
  0
LINE
  5
DE7E2
  8
0
  6
BYBLOCK
 10
21327.68105162328
 20
37019.06046979774
 30
0.0
 11
21325.68105162328
 21
37019.59636779774
 31
0.0
  0
LINE
  5
DE7E3
  8
0
  6
BYBLOCK
 10
21325.68105162328
 20
37019.59636779774
 30
0.0
 11
21327.68105162328
 21
37020.13226579774
 31
0.0
  0
LINE
  5
DE7E4
  8
0
  6
BYBLOCK
 10
21325.68105162328
 20
37019.59636779774
 30
0.0
 11
21327.68105162328
 21
37019.59636779774
 31
0.0
  0
LINE
  5
DE7E5
  8
0
  6
BYBLOCK
 10
21340.68105162328
 20
37020.13226579774
 30
0.0
 11
21342.68105162328
 21
37019.59636779774
 31
0.0
  0
LINE
  5
DE7E6
  8
0
  6
BYBLOCK
 10
21342.68105162328
 20
37019.59636779774
 30
0.0
 11
21340.68105162328
 21
37019.06046979774
 31
0.0
  0
LINE
  5
DE7E7
  8
0
  6
BYBLOCK
 10
21342.68105162328
 20
37019.59636779774
 30
0.0
 11
21340.68105162328
 21
37019.59636779774
 31
0.0
  0
TEXT
  5
DE7E8
  8
1DIM
  6
CONTINUOUS
 10
21331.84771828995
 20
37020.29636779774
 30
0.0
 40
3.5
  1
17
  0
LINE
  5
DE7E9
  8
0
  6
BYBLOCK
 10
21356.95216904574
 20
37001.61200536065
 30
0.0
 11
21357.48806704574
 21
37003.61200536065
 31
0.0
  0
LINE
  5
DE7EA
  8
0
  6
BYBLOCK
 10
21357.48806704574
 20
37003.61200536065
 30
0.0
 11
21358.02396504574
 21
37001.61200536065
 31
0.0
  0
LINE
  5
DE7EB
  8
0
  6
BYBLOCK
 10
21357.48806704574
 20
37003.61200536065
 30
0.0
 11
21357.48806704574
 21
37001.61200536065
 31
0.0
  0
LINE
  5
DE7EC
  8
0
  6
BYBLOCK
 10
21358.02396504574
 20
36972.71200536066
 30
0.0
 11
21357.48806704574
 21
36970.71200536066
 31
0.0
  0
LINE
  5
DE7ED
  8
0
  6
BYBLOCK
 10
21357.48806704574
 20
36970.71200536066
 30
0.0
 11
21356.95216904574
 21
36972.71200536066
 31
0.0
  0
LINE
  5
DE7EE
  8
0
  6
BYBLOCK
 10
21357.48806704574
 20
36970.71200536066
 30
0.0
 11
21357.48806704574
 21
36972.71200536066
 31
0.0
  0
TEXT
  5
DE7EF
  8
1DIM
  6
CONTINUOUS
 10
21356.78806704575
 20
36981.91119517547
 30
0.0
 40
3.5
  1
32.9
 50
90.0
  0
LINE
  5
DE7F0
  8
0
  6
BYBLOCK
 10
21422.7687768918
 20
36933.64530848037
 30
0.0
 11
21422.19023724251
 21
36935.63339261858
 31
0.0
  0
LINE
  5
DE7F1
  8
0
  6
BYBLOCK
 10
21422.19023724251
 20
36935.63339261858
 30
0.0
 11
21423.68530883063
 21
36934.20093053782
 31
0.0
  0
LINE
  5
DE7F2
  8
0
  6
BYBLOCK
 10
21422.19023724251
 20
36935.63339261858
 30
0.0
 11
21423.22704286121
 21
36933.92311950909
 31
0.0
  0
LINE
  5
DE7F3
  8
0
  6
BYBLOCK
 10
21361.86523724251
 20
36948.29676297944
 30
0.0
 11
21359.86523724251
 21
36948.83266097945
 31
0.0
  0
LINE
  5
DE7F4
  8
0
  6
BYBLOCK
 10
21359.86523724251
 20
36948.83266097945
 30
0.0
 11
21361.86523724251
 21
36949.36855897945
 31
0.0
  0
LINE
  5
DE7F5
  8
0
  6
BYBLOCK
 10
21359.86523724251
 20
36948.83266097945
 30
0.0
 11
21361.86523724251
 21
36948.83266097945
 31
0.0
  0
LINE
  5
DE7F6
  8
0
  6
BYBLOCK
 10
21427.86523724251
 20
36949.36855897945
 30
0.0
 11
21429.86523724251
 21
36948.83266097945
 31
0.0
  0
LINE
  5
DE7F7
  8
0
  6
BYBLOCK
 10
21429.86523724251
 20
36948.83266097945
 30
0.0
 11
21427.86523724251
 21
36948.29676297944
 31
0.0
  0
LINE
  5
DE7F8
  8
0
  6
BYBLOCK
 10
21429.86523724251
 20
36948.83266097945
 30
0.0
 11
21427.86523724251
 21
36948.83266097945
 31
0.0
  0
TEXT
  5
DE7F9
  8
1DIM
  6
CONTINUOUS
 10
21390.05273724251
 20
36950.44932764611
 30
0.0
 40
3.5
  1
(70)
1001
ACAD
1000
DSTYLE
1002
{
1070
     3
1000
(<>)
1002
}
  0
TEXT
  5
DE7FA
  8
1DIM
  6
CONTINUOUS
 10
21448.02976639481
 20
36946.81422956468
 30
0.0
 40
3.5
  1
(
 50
60.34713166358289
1001
ACAD_DSTYLE_DIMRADIAL_EXTE
1070
   387
1070
     1
1070
   388
1040
0.0
1070
   390
1040
0.0
1001
ACAD
1000
DSTYLE
1002
{
1070
     3
1000
(\U+0192\U+00D3<>)
1002
}
  0
TEXT
  5
DE7FB
  8
1DIM
  6
CONTINUOUS
 10
21449.18416897338
 20
36948.84198673235
 30
0.0
 40
3.5
  1
φ
 50
60.34713166358289
1001
ACAD_DSTYLE_DIMRADIAL_EXTE
1070
   387
1070
     1
1070
   388
1040
0.0
1070
   390
1040
0.0
1001
ACAD
1000
DSTYLE
1002
{
1070
     3
1000
(\U+0192\U+00D3<>)
1002
}
  0
TEXT
  5
DE7FC
  8
1DIM
  6
CONTINUOUS
 10
21450.75127047378
 20
36951.59466708746
 30
0.0
 40
3.5
  1
8)
 50
60.34713166358289
1001
ACAD_DSTYLE_DIMRADIAL_EXTE
1070
   387
1070
     1
1070
   388
1040
0.0
1070
   390
1040
0.0
1001
ACAD
1000
DSTYLE
1002
{
1070
     3
1000
(\U+0192\U+00D3<>)
1002
}
  0
LINE
  5
DE7FD
  8
0
  6
BYBLOCK
 10
21441.872422187
 20
36932.83429220158
 30
0.0
 11
21443.3276262589
 21
36934.30723747399
 31
0.0
  0
LINE
  5
DE7FE
  8
0
  6
BYBLOCK
 10
21443.3276262589
 20
36934.30723747399
 30
0.0
 11
21442.80385448184
 21
36932.30402760182
 31
0.0
  0
LINE
  5
DE7FF
  8
0
  6
BYBLOCK
 10
21443.3276262589
 20
36934.30723747399
 30
0.0
 11
21442.33813833442
 21
36932.5691599017
 31
0.0
  0
LINE
  5
DE800
  8
0
  6
BYBLOCK
 10
21448.74078202874
 20
36942.73249303558
 30
0.0
 11
21447.28557795684
 21
36941.25954776316
 31
0.0
  0
LINE
  5
DE801
  8
0
  6
BYBLOCK
 10
21447.28557795684
 20
36941.25954776316
 30
0.0
 11
21447.8093497339
 21
36943.26275763533
 31
0.0
  0
LINE
  5
DE802
  8
0
  6
BYBLOCK
 10
21447.28557795684
 20
36941.25954776316
 30
0.0
 11
21448.27506588132
 21
36942.99762533545
 31
0.0
  0
LINE
  5
DE803
  8
0
  6
BYBLOCK
 10
21386.06586930089
 20
36936.00500757086
 30
0.0
 11
21385.72027372342
 21
36938.04651445628
 31
0.0
  0
LINE
  5
DE804
  8
0
  6
BYBLOCK
 10
21385.72027372342
 20
36938.04651445628
 30
0.0
 11
21387.04032114285
 21
36936.45131494624
 31
0.0
  0
LINE
  5
DE805
  8
0
  6
BYBLOCK
 10
21385.72027372342
 20
36938.04651445628
 30
0.0
 11
21386.55309522187
 21
36936.22816125855
 31
0.0
  0
LINE
  5
DE806
  8
0
  6
BYBLOCK
 10
21522.3075988521
 20
37033.34437065331
 30
0.0
 11
21524.3075988521
 21
37032.80847265331
 31
0.0
  0
LINE
  5
DE807
  8
0
  6
BYBLOCK
 10
21524.3075988521
 20
37032.80847265331
 30
0.0
 11
21522.3075988521
 21
37032.2725746533
 31
0.0
  0
LINE
  5
DE808
  8
0
  6
BYBLOCK
 10
21524.3075988521
 20
37032.80847265331
 30
0.0
 11
21522.3075988521
 21
37032.80847265331
 31
0.0
  0
LINE
  5
DE809
  8
0
  6
BYBLOCK
 10
21503.3075988521
 20
37032.2725746533
 30
0.0
 11
21501.3075988521
 21
37032.80847265331
 31
0.0
  0
LINE
  5
DE80A
  8
0
  6
BYBLOCK
 10
21501.3075988521
 20
37032.80847265331
 30
0.0
 11
21503.3075988521
 21
37033.34437065331
 31
0.0
  0
LINE
  5
DE80B
  8
0
  6
BYBLOCK
 10
21501.3075988521
 20
37032.80847265331
 30
0.0
 11
21503.3075988521
 21
37032.80847265331
 31
0.0
  0
TEXT
  5
DE80C
  8
1DIM
  6
CONTINUOUS
 10
21528.41968218543
 20
37034.90988931997
 30
0.0
 40
3.5
  1
(
1001
ACAD
1000
DSTYLE
1002
{
1070
     3
1000
(\U+0192\U+00D3<>)
1002
}
  0
TEXT
  5
DE80D
  8
1DIM
  6
CONTINUOUS
 10
21530.75301551876
 20
37034.90988931997
 30
0.0
 40
3.5
  1
φ
1001
ACAD
1000
DSTYLE
1002
{
1070
     3
1000
(\U+0192\U+00D3<>)
1002
}
  0
TEXT
  5
DE80E
  8
1DIM
  6
CONTINUOUS
 10
21533.92051551876
 20
37034.90988931997
 30
0.0
 40
3.5
  1
23)
1001
ACAD
1000
DSTYLE
1002
{
1070
     3
1000
(\U+0192\U+00D3<>)
1002
}
  0
LINE
  5
DE80F
  8
0
  6
BYBLOCK
 10
21414.86523724251
 20
36918.94894527121
 30
0.0
 11
21416.86523724251
 21
36918.41304727121
 31
0.0
  0
LINE
  5
DE810
  8
0
  6
BYBLOCK
 10
21416.86523724251
 20
36918.41304727121
 30
0.0
 11
21414.86523724251
 21
36917.8771492712
 31
0.0
  0
LINE
  5
DE811
  8
0
  6
BYBLOCK
 10
21416.86523724251
 20
36918.41304727121
 30
0.0
 11
21414.86523724251
 21
36918.41304727121
 31
0.0
  0
LINE
  5
DE812
  8
0
  6
BYBLOCK
 10
21361.86523724251
 20
36917.8771492712
 30
0.0
 11
21359.86523724251
 21
36918.41304727121
 31
0.0
  0
LINE
  5
DE813
  8
0
  6
BYBLOCK
 10
21359.86523724251
 20
36918.41304727121
 30
0.0
 11
21361.86523724251
 21
36918.94894527121
 31
0.0
  0
LINE
  5
DE814
  8
0
  6
BYBLOCK
 10
21359.86523724251
 20
36918.41304727121
 30
0.0
 11
21361.86523724251
 21
36918.41304727121
 31
0.0
  0
TEXT
  5
DE815
  8
1DIM
  6
CONTINUOUS
 10
21383.24891779806
 20
36919.11547782676
 30
0.0
 40
3.5
  1
(57)
1001
ACAD
1000
DSTYLE
1002
{
1070
     3
1000
(<>)
1002
}
  0
VIEWPORT
  5
7DA1A
 67
     1
  8
0
 10
0.0
 20
0.0
 30
0.0
 40
531.4915966386559
 41
247.8399316946032
 68
     1
 69
     1
1001
ACAD
1000
MVIEW
1002
{
1070
    16
1010
0.0
1020
0.0
1030
0.0
1010
0.0
1020
0.0
1030
1.0
1040
0.0
1040
247.8399316946032
1040
25.16874005522756
1040
1.519124849546909
1040
50.0
1040
0.0
1040
0.0
1070
    16
1070
   100
1070
     0
1070
     3
1070
     0
1070
     0
1070
     0
1070
     0
1040
0.0
1040
0.0
1040
0.0
1040
10.0
1040
10.0
1040
10.0
1040
10.0
1070
     0
1002
{
1002
}
1002
}
  0
ENDSEC
  0
EOF
